  0
SECTION
  2
HEADER
  9
$ACADVER
  1
AC1014
  9
$HANDSEED
  5
FFFF
  9
$MEASUREMENT
 70
     1
  0
ENDSEC
  0
SECTION
  2
TABLES
  0
TABLE
  2
VPORT
  5
8
330
0
100
AcDbSymbolTable
 70
     4
  0
VPORT
  5
2E
330
8
100
AcDbSymbolTableRecord
100
AcDbViewportTableRecord
  2
*ACTIVE
 70
     0
 10
0.0
 20
0.0
 11
1.0
 21
1.0
 12
210.0
 22
148.5
 13
0.0
 23
0.0
 14
10.0
 24
10.0
 15
10.0
 25
10.0
 16
0.0
 26
0.0
 36
1.0
 17
0.0
 27
0.0
 37
0.0
 40
341.0
 41
1.24
 42
50.0
 43
0.0
 44
0.0
 50
0.0
 51
0.0
 71
     0
 72
   100
 73
     1
 74
     3
 75
     0
 76
     0
 77
     0
 78
     0
  0
ENDTAB
  0
TABLE
  2
LTYPE
  5
5
330
0
100
AcDbSymbolTable
 70
     1
  0
LTYPE
  5
14
330
5
100
AcDbSymbolTableRecord
100
AcDbLinetypeTableRecord
  2
BYBLOCK
 70
     0
  3

 72
    65
 73
     0
 40
0.0
  0
LTYPE
  5
15
330
5
100
AcDbSymbolTableRecord
100
AcDbLinetypeTableRecord
  2
BYLAYER
 70
     0
  3

 72
    65
 73
     0
 40
0.0
  0
LTYPE
  5
16
330
5
100
AcDbSymbolTableRecord
100
AcDbLinetypeTableRecord
  2
CONTINUOUS
 70
     0
  3
Solid line
 72
    65
 73
     0
 40
0.0
  0
ENDTAB
  0
TABLE
  2
LAYER
  5
2
100
AcDbSymbolTable
 70
2
  0
LAYER
  5
50
100
AcDbSymbolTableRecord
100
AcDbLayerTableRecord
  2
0
 70
0
  6
CONTINUOUS
  0
LAYER
  5
51
100
AcDbSymbolTableRecord
100
AcDbLayerTableRecord
  2
Layer_1
 70
0
  6
CONTINUOUS
  0
ENDTAB
  0
TABLE
  2
STYLE
  5
3
330
0
100
AcDbSymbolTable
 70
     1
  0
STYLE
  5
11
330
3
100
AcDbSymbolTableRecord
100
AcDbTextStyleTableRecord
  2
STANDARD
 70
     0
 40
0.0
 41
1.0
 50
0.0
 71
     0
 42
2.5
  3
txt
  4

  0
ENDTAB
  0
TABLE
  2
VIEW
  5
6
330
0
100
AcDbSymbolTable
 70
     0
  0
ENDTAB
  0
TABLE
  2
UCS
  5
7
330
0
100
AcDbSymbolTable
 70
     0
  0
ENDTAB
  0
TABLE
  2
APPID
  5
9
330
0
100
AcDbSymbolTable
 70
     2
  0
APPID
  5
12
330
9
100
AcDbSymbolTableRecord
100
AcDbRegAppTableRecord
  2
ACAD
 70
     0
  0
ENDTAB
  0
TABLE
  2
DIMSTYLE
  5
A
330
0
100
AcDbSymbolTable
 70
     1
  0
DIMSTYLE
105
27
330
A
100
AcDbSymbolTableRecord
100
AcDbDimStyleTableRecord
  2
ISO-25
 70
     0
  3

  4

  5

  6

  7

 40
1.0
 41
2.5
 42
0.625
 43
3.75
 44
1.25
 45
0.0
 46
0.0
 47
0.0
 48
0.0
140
2.5
141
2.5
142
0.0
143
0.03937007874016
144
1.0
145
0.0
146
1.0
147
0.625
 71
     0
 72
     0
 73
     0
 74
     0
 75
     0
 76
     0
 77
     1
 78
     8
170
     0
171
     3
172
     1
173
     0
174
     0
175
     0
176
     0
177
     0
178
     0
270
     2
271
     2
272
     2
273
     2
274
     3
340
11
275
     0
280
     0
281
     0
282
     0
283
     0
284
     8
285
     0
286
     0
287
     3
288
     0
  0
ENDTAB
  0
TABLE
  2
BLOCK_RECORD
  5
1
330
0
100
AcDbSymbolTable
 70
     1
  0
BLOCK_RECORD
  5
1F
330
1
100
AcDbSymbolTableRecord
100
AcDbBlockTableRecord
  2
*MODEL_SPACE
  0
BLOCK_RECORD
  5
1B
330
1
100
AcDbSymbolTableRecord
100
AcDbBlockTableRecord
  2
*PAPER_SPACE
  0
ENDTAB
  0
ENDSEC
  0
SECTION
  2
BLOCKS
  0
BLOCK
  5
20
330
1F
100
AcDbEntity
  8
0
100
AcDbBlockBegin
  2
*MODEL_SPACE
 70
     0
 10
0.0
 20
0.0
 30
0.0
  3
*MODEL_SPACE
  1

  0
ENDBLK
  5
21
330
1F
100
AcDbEntity
  8
0
100
AcDbBlockEnd
  0
BLOCK
  5
1C
330
1B
100
AcDbEntity
 67
     1
  8
0
100
AcDbBlockBegin
  2
*PAPER_SPACE
  1

  0
ENDBLK
  5
1D
330
1B
100
AcDbEntity
 67
     1
  8
0
100
AcDbBlockEnd
  0
ENDSEC
  0
SECTION
  2
ENTITIES
  0
LINE
  5
100
100
AcDbEntity
  8
Layer_1
 62
7
100
AcDbLine
 10
17.339880
 20
45.780784
 30
0.0
 11
17.120238
 21
47.006870
 31
0.0
  0
LINE
  5
101
100
AcDbEntity
  8
Layer_1
 62
7
100
AcDbLine
 10
17.120238
 20
47.006870
 30
0.0
 11
17.608477
 21
50.694569
 31
0.0
  0
LINE
  5
102
100
AcDbEntity
  8
Layer_1
 62
7
100
AcDbLine
 10
17.608477
 20
50.694569
 30
0.0
 11
18.993562
 21
51.104638
 31
0.0
  0
LINE
  5
103
100
AcDbEntity
  8
Layer_1
 62
7
100
AcDbLine
 10
18.993562
 20
51.104638
 30
0.0
 11
20.399113
 21
51.437869
 31
0.0
  0
LINE
  5
104
100
AcDbEntity
  8
Layer_1
 62
7
100
AcDbLine
 10
20.399113
 20
51.437869
 30
0.0
 11
22.657000
 21
48.481611
 31
0.0
  0
LINE
  5
105
100
AcDbEntity
  8
Layer_1
 62
7
100
AcDbLine
 10
22.657000
 20
48.481611
 30
0.0
 11
23.076337
 21
47.308715
 31
0.0
  0
LINE
  5
106
100
AcDbEntity
  8
Layer_1
 62
7
100
AcDbLine
 10
23.076337
 20
47.308715
 30
0.0
 11
23.259675
 21
45.828866
 31
0.0
  0
LINE
  5
107
100
AcDbEntity
  8
Layer_1
 62
7
100
AcDbLine
 10
23.259675
 20
45.828866
 30
0.0
 11
23.443013
 21
44.349017
 31
0.0
  0
LINE
  5
108
100
AcDbEntity
  8
Layer_1
 62
7
100
AcDbLine
 10
23.443013
 20
44.349017
 30
0.0
 11
25.775441
 21
44.491206
 31
0.0
  0
LINE
  5
109
100
AcDbEntity
  8
Layer_1
 62
7
100
AcDbLine
 10
25.775441
 20
44.491206
 30
0.0
 11
28.107435
 21
44.342074
 31
0.0
  0
LINE
  5
10a
100
AcDbEntity
  8
Layer_1
 62
7
100
AcDbLine
 10
28.107435
 20
44.342074
 30
0.0
 11
28.295177
 21
45.821373
 31
0.0
  0
LINE
  5
10b
100
AcDbEntity
  8
Layer_1
 62
7
100
AcDbLine
 10
28.295177
 20
45.821373
 30
0.0
 11
28.482919
 21
47.300669
 31
0.0
  0
LINE
  5
10c
100
AcDbEntity
  8
Layer_1
 62
7
100
AcDbLine
 10
28.482919
 20
47.300669
 30
0.0
 11
28.905745
 21
48.472311
 31
0.0
  0
LINE
  5
10d
100
AcDbEntity
  8
Layer_1
 62
7
100
AcDbLine
 10
28.905745
 20
48.472311
 30
0.0
 11
31.172424
 21
51.421833
 31
0.0
  0
LINE
  5
10e
100
AcDbEntity
  8
Layer_1
 62
7
100
AcDbLine
 10
31.172424
 20
51.421833
 30
0.0
 11
32.576976
 21
51.084419
 31
0.0
  0
LINE
  5
10f
100
AcDbEntity
  8
Layer_1
 62
7
100
AcDbLine
 10
32.576976
 20
51.084419
 30
0.0
 11
33.960836
 21
50.670230
 31
0.0
  0
LINE
  5
110
100
AcDbEntity
  8
Layer_1
 62
7
100
AcDbLine
 10
33.960836
 20
50.670230
 30
0.0
 11
34.438093
 21
46.981094
 31
0.0
  0
LINE
  5
111
100
AcDbEntity
  8
Layer_1
 62
7
100
AcDbLine
 10
34.438093
 20
46.981094
 30
0.0
 11
34.214802
 21
45.755669
 31
0.0
  0
LINE
  5
112
100
AcDbEntity
  8
Layer_1
 62
7
100
AcDbLine
 10
34.214802
 20
45.755669
 30
0.0
 11
33.633653
 21
44.382412
 31
0.0
  0
LINE
  5
113
100
AcDbEntity
  8
Layer_1
 62
7
100
AcDbLine
 10
33.633653
 20
44.382412
 30
0.0
 11
33.052504
 21
43.009155
 31
0.0
  0
LINE
  5
114
100
AcDbEntity
  8
Layer_1
 62
7
100
AcDbLine
 10
33.052504
 20
43.009155
 30
0.0
 11
35.143539
 21
41.966079
 31
0.0
  0
LINE
  5
115
100
AcDbEntity
  8
Layer_1
 62
7
100
AcDbLine
 10
35.143539
 20
41.966079
 30
0.0
 11
37.088538
 21
40.670930
 31
0.0
  0
LINE
  5
116
100
AcDbEntity
  8
Layer_1
 62
7
100
AcDbLine
 10
37.088538
 20
40.670930
 30
0.0
 11
37.990777
 21
41.858168
 31
0.0
  0
LINE
  5
117
100
AcDbEntity
  8
Layer_1
 62
7
100
AcDbLine
 10
37.990777
 20
41.858168
 30
0.0
 11
38.893016
 21
43.045407
 31
0.0
  0
LINE
  5
118
100
AcDbEntity
  8
Layer_1
 62
7
100
AcDbLine
 10
38.893016
 20
43.045407
 30
0.0
 11
39.845014
 21
43.848665
 31
0.0
  0
LINE
  5
119
100
AcDbEntity
  8
Layer_1
 62
7
100
AcDbLine
 10
39.845014
 20
43.848665
 30
0.0
 11
43.282777
 21
45.269688
 31
0.0
  0
LINE
  5
11a
100
AcDbEntity
  8
Layer_1
 62
7
100
AcDbLine
 10
43.282777
 20
45.269688
 30
0.0
 11
44.330448
 21
44.275204
 31
0.0
  0
LINE
  5
11b
100
AcDbEntity
  8
Layer_1
 62
7
100
AcDbLine
 10
44.330448
 20
44.275204
 30
0.0
 11
45.321810
 21
43.224576
 31
0.0
  0
LINE
  5
11c
100
AcDbEntity
  8
Layer_1
 62
7
100
AcDbLine
 10
45.321810
 20
43.224576
 30
0.0
 11
43.890562
 21
39.791060
 31
0.0
  0
LINE
  5
11d
100
AcDbEntity
  8
Layer_1
 62
7
100
AcDbLine
 10
43.890562
 20
39.791060
 30
0.0
 11
43.084473
 21
38.841456
 31
0.0
  0
LINE
  5
11e
100
AcDbEntity
  8
Layer_1
 62
7
100
AcDbLine
 10
43.084473
 20
38.841456
 30
0.0
 11
41.894554
 21
37.942756
 31
0.0
  0
LINE
  5
11f
100
AcDbEntity
  8
Layer_1
 62
7
100
AcDbLine
 10
41.894554
 20
37.942756
 30
0.0
 11
40.704635
 21
37.044056
 31
0.0
  0
LINE
  5
120
100
AcDbEntity
  8
Layer_1
 62
7
100
AcDbLine
 10
40.704635
 20
37.044056
 30
0.0
 11
41.993987
 21
35.095210
 31
0.0
  0
LINE
  5
121
100
AcDbEntity
  8
Layer_1
 62
7
100
AcDbLine
 10
41.993987
 20
35.095210
 30
0.0
 11
43.030831
 21
33.001076
 31
0.0
  0
LINE
  5
122
100
AcDbEntity
  8
Layer_1
 62
7
100
AcDbLine
 10
43.030831
 20
33.001076
 30
0.0
 11
44.405812
 21
33.578135
 31
0.0
  0
LINE
  5
123
100
AcDbEntity
  8
Layer_1
 62
7
100
AcDbLine
 10
44.405812
 20
33.578135
 30
0.0
 11
45.780793
 21
34.155195
 31
0.0
  0
LINE
  5
124
100
AcDbEntity
  8
Layer_1
 62
7
100
AcDbLine
 10
45.780793
 20
34.155195
 30
0.0
 11
47.006877
 21
34.374837
 31
0.0
  0
LINE
  5
125
100
AcDbEntity
  8
Layer_1
 62
7
100
AcDbLine
 10
47.006877
 20
34.374837
 30
0.0
 11
50.694579
 21
33.886599
 31
0.0
  0
LINE
  5
126
100
AcDbEntity
  8
Layer_1
 62
7
100
AcDbLine
 10
50.694579
 20
33.886599
 30
0.0
 11
51.104648
 21
32.501514
 31
0.0
  0
LINE
  5
127
100
AcDbEntity
  8
Layer_1
 62
7
100
AcDbLine
 10
51.104648
 20
32.501514
 30
0.0
 11
51.437876
 21
31.095963
 31
0.0
  0
LINE
  5
128
100
AcDbEntity
  8
Layer_1
 62
7
100
AcDbLine
 10
51.437876
 20
31.095963
 30
0.0
 11
48.481621
 21
28.838075
 31
0.0
  0
LINE
  5
129
100
AcDbEntity
  8
Layer_1
 62
7
100
AcDbLine
 10
48.481621
 20
28.838075
 30
0.0
 11
47.308725
 21
28.418738
 31
0.0
  0
LINE
  5
12a
100
AcDbEntity
  8
Layer_1
 62
7
100
AcDbLine
 10
47.308725
 20
28.418738
 30
0.0
 11
45.828873
 21
28.235401
 31
0.0
  0
LINE
  5
12b
100
AcDbEntity
  8
Layer_1
 62
7
100
AcDbLine
 10
45.828873
 20
28.235401
 30
0.0
 11
44.349024
 21
28.052063
 31
0.0
  0
LINE
  5
12c
100
AcDbEntity
  8
Layer_1
 62
7
100
AcDbLine
 10
44.349024
 20
28.052063
 30
0.0
 11
44.491213
 21
25.719635
 31
0.0
  0
LINE
  5
12d
100
AcDbEntity
  8
Layer_1
 62
7
100
AcDbLine
 10
44.491213
 20
25.719635
 30
0.0
 11
44.342081
 21
23.387641
 31
0.0
  0
LINE
  5
12e
100
AcDbEntity
  8
Layer_1
 62
7
100
AcDbLine
 10
44.342081
 20
23.387641
 30
0.0
 11
45.821377
 21
23.199898
 31
0.0
  0
LINE
  5
12f
100
AcDbEntity
  8
Layer_1
 62
7
100
AcDbLine
 10
45.821377
 20
23.199898
 30
0.0
 11
47.300676
 21
23.012156
 31
0.0
  0
LINE
  5
130
100
AcDbEntity
  8
Layer_1
 62
7
100
AcDbLine
 10
47.300676
 20
23.012156
 30
0.0
 11
48.472319
 21
22.589330
 31
0.0
  0
LINE
  5
131
100
AcDbEntity
  8
Layer_1
 62
7
100
AcDbLine
 10
48.472319
 20
22.589330
 30
0.0
 11
51.421840
 21
20.322651
 31
0.0
  0
LINE
  5
132
100
AcDbEntity
  8
Layer_1
 62
7
100
AcDbLine
 10
51.421840
 20
20.322651
 30
0.0
 11
51.084426
 21
18.918099
 31
0.0
  0
LINE
  5
133
100
AcDbEntity
  8
Layer_1
 62
7
100
AcDbLine
 10
51.084426
 20
18.918099
 30
0.0
 11
50.670237
 21
17.534239
 31
0.0
  0
LINE
  5
134
100
AcDbEntity
  8
Layer_1
 62
7
100
AcDbLine
 10
50.670237
 20
17.534239
 30
0.0
 11
46.981102
 21
17.056982
 31
0.0
  0
LINE
  5
135
100
AcDbEntity
  8
Layer_1
 62
7
100
AcDbLine
 10
46.981102
 20
17.056982
 30
0.0
 11
45.755676
 21
17.280273
 31
0.0
  0
LINE
  5
136
100
AcDbEntity
  8
Layer_1
 62
7
100
AcDbLine
 10
45.755676
 20
17.280273
 30
0.0
 11
44.382416
 21
17.861422
 31
0.0
  0
LINE
  5
137
100
AcDbEntity
  8
Layer_1
 62
7
100
AcDbLine
 10
44.382416
 20
17.861422
 30
0.0
 11
43.009160
 21
18.442572
 31
0.0
  0
LINE
  5
138
100
AcDbEntity
  8
Layer_1
 62
7
100
AcDbLine
 10
43.009160
 20
18.442572
 30
0.0
 11
41.966086
 21
16.351536
 31
0.0
  0
LINE
  5
139
100
AcDbEntity
  8
Layer_1
 62
7
100
AcDbLine
 10
41.966086
 20
16.351536
 30
0.0
 11
40.670937
 21
14.406543
 31
0.0
  0
LINE
  5
13a
100
AcDbEntity
  8
Layer_1
 62
7
100
AcDbLine
 10
40.670937
 20
14.406543
 30
0.0
 11
41.858176
 21
13.504306
 31
0.0
  0
LINE
  5
13b
100
AcDbEntity
  8
Layer_1
 62
7
100
AcDbLine
 10
41.858176
 20
13.504306
 30
0.0
 11
43.045414
 21
12.602070
 31
0.0
  0
LINE
  5
13c
100
AcDbEntity
  8
Layer_1
 62
7
100
AcDbLine
 10
43.045414
 20
12.602070
 30
0.0
 11
43.848672
 21
11.650050
 31
0.0
  0
LINE
  5
13d
100
AcDbEntity
  8
Layer_1
 62
7
100
AcDbLine
 10
43.848672
 20
11.650050
 30
0.0
 11
45.269695
 21
8.212301
 31
0.0
  0
LINE
  5
13e
100
AcDbEntity
  8
Layer_1
 62
7
100
AcDbLine
 10
45.269695
 20
8.212301
 30
0.0
 11
44.275211
 21
7.164636
 31
0.0
  0
LINE
  5
13f
100
AcDbEntity
  8
Layer_1
 62
7
100
AcDbLine
 10
44.275211
 20
7.164636
 30
0.0
 11
43.224583
 21
6.173274
 31
0.0
  0
LINE
  5
140
100
AcDbEntity
  8
Layer_1
 62
7
100
AcDbLine
 10
43.224583
 20
6.173274
 30
0.0
 11
39.791067
 21
7.604507
 31
0.0
  0
LINE
  5
141
100
AcDbEntity
  8
Layer_1
 62
7
100
AcDbLine
 10
39.791067
 20
7.604507
 30
0.0
 11
38.841463
 21
8.410590
 31
0.0
  0
LINE
  5
142
100
AcDbEntity
  8
Layer_1
 62
7
100
AcDbLine
 10
38.841463
 20
8.410590
 30
0.0
 11
37.942763
 21
9.600524
 31
0.0
  0
LINE
  5
143
100
AcDbEntity
  8
Layer_1
 62
7
100
AcDbLine
 10
37.942763
 20
9.600524
 30
0.0
 11
37.044063
 21
10.790429
 31
0.0
  0
LINE
  5
144
100
AcDbEntity
  8
Layer_1
 62
7
100
AcDbLine
 10
37.044063
 20
10.790429
 30
0.0
 11
35.095214
 21
9.501097
 31
0.0
  0
LINE
  5
145
100
AcDbEntity
  8
Layer_1
 62
7
100
AcDbLine
 10
35.095214
 20
9.501097
 30
0.0
 11
33.001083
 21
8.464241
 31
0.0
  0
LINE
  5
146
100
AcDbEntity
  8
Layer_1
 62
7
100
AcDbLine
 10
33.001083
 20
8.464241
 30
0.0
 11
33.578142
 21
7.089254
 31
0.0
  0
LINE
  5
147
100
AcDbEntity
  8
Layer_1
 62
7
100
AcDbLine
 10
33.578142
 20
7.089254
 30
0.0
 11
34.155202
 21
5.714268
 31
0.0
  0
LINE
  5
148
100
AcDbEntity
  8
Layer_1
 62
7
100
AcDbLine
 10
34.155202
 20
5.714268
 30
0.0
 11
34.374844
 21
4.488181
 31
0.0
  0
LINE
  5
149
100
AcDbEntity
  8
Layer_1
 62
7
100
AcDbLine
 10
34.374844
 20
4.488181
 30
0.0
 11
33.886606
 21
0.800496
 31
0.0
  0
LINE
  5
14a
100
AcDbEntity
  8
Layer_1
 62
7
100
AcDbLine
 10
33.886606
 20
0.800496
 30
0.0
 11
32.501518
 21
0.390428
 31
0.0
  0
LINE
  5
14b
100
AcDbEntity
  8
Layer_1
 62
7
100
AcDbLine
 10
32.501518
 20
0.390428
 30
0.0
 11
31.095967
 21
0.057208
 31
0.0
  0
LINE
  5
14c
100
AcDbEntity
  8
Layer_1
 62
7
100
AcDbLine
 10
31.095967
 20
0.057208
 30
0.0
 11
28.838082
 21
3.013457
 31
0.0
  0
LINE
  5
14d
100
AcDbEntity
  8
Layer_1
 62
7
100
AcDbLine
 10
28.838082
 20
3.013457
 30
0.0
 11
28.418745
 21
4.186345
 31
0.0
  0
LINE
  5
14e
100
AcDbEntity
  8
Layer_1
 62
7
100
AcDbLine
 10
28.418745
 20
4.186345
 30
0.0
 11
28.235408
 21
5.666177
 31
0.0
  0
LINE
  5
14f
100
AcDbEntity
  8
Layer_1
 62
7
100
AcDbLine
 10
28.235408
 20
5.666177
 30
0.0
 11
28.052069
 21
7.146037
 31
0.0
  0
LINE
  5
150
100
AcDbEntity
  8
Layer_1
 62
7
100
AcDbLine
 10
28.052069
 20
7.146037
 30
0.0
 11
25.719641
 21
7.003882
 31
0.0
  0
LINE
  5
151
100
AcDbEntity
  8
Layer_1
 62
7
100
AcDbLine
 10
25.719641
 20
7.003882
 30
0.0
 11
23.387647
 21
7.153093
 31
0.0
  0
LINE
  5
152
100
AcDbEntity
  8
Layer_1
 62
7
100
AcDbLine
 10
23.387647
 20
7.153093
 30
0.0
 11
23.199905
 21
5.673797
 31
0.0
  0
LINE
  5
153
100
AcDbEntity
  8
Layer_1
 62
7
100
AcDbLine
 10
23.199905
 20
5.673797
 30
0.0
 11
23.012162
 21
4.194501
 31
0.0
  0
LINE
  5
154
100
AcDbEntity
  8
Layer_1
 62
7
100
AcDbLine
 10
23.012162
 20
4.194501
 30
0.0
 11
22.589336
 21
3.022855
 31
0.0
  0
LINE
  5
155
100
AcDbEntity
  8
Layer_1
 62
7
100
AcDbLine
 10
22.589336
 20
3.022855
 30
0.0
 11
20.322659
 21
0.073351
 31
0.0
  0
LINE
  5
156
100
AcDbEntity
  8
Layer_1
 62
7
100
AcDbLine
 10
20.322659
 20
0.073351
 30
0.0
 11
18.918106
 21
0.410748
 31
0.0
  0
LINE
  5
157
100
AcDbEntity
  8
Layer_1
 62
7
100
AcDbLine
 10
18.918106
 20
0.410748
 30
0.0
 11
17.534247
 21
0.824937
 31
0.0
  0
LINE
  5
158
100
AcDbEntity
  8
Layer_1
 62
7
100
AcDbLine
 10
17.534247
 20
0.824937
 30
0.0
 11
17.056988
 21
4.514089
 31
0.0
  0
LINE
  5
159
100
AcDbEntity
  8
Layer_1
 62
7
100
AcDbLine
 10
17.056988
 20
4.514089
 30
0.0
 11
17.280280
 21
5.739498
 31
0.0
  0
LINE
  5
15a
100
AcDbEntity
  8
Layer_1
 62
7
100
AcDbLine
 10
17.280280
 20
5.739498
 30
0.0
 11
17.861429
 21
7.112763
 31
0.0
  0
LINE
  5
15b
100
AcDbEntity
  8
Layer_1
 62
7
100
AcDbLine
 10
17.861429
 20
7.112763
 30
0.0
 11
18.442579
 21
8.486028
 31
0.0
  0
LINE
  5
15c
100
AcDbEntity
  8
Layer_1
 62
7
100
AcDbLine
 10
18.442579
 20
8.486028
 30
0.0
 11
16.351543
 21
9.529094
 31
0.0
  0
LINE
  5
15d
100
AcDbEntity
  8
Layer_1
 62
7
100
AcDbLine
 10
16.351543
 20
9.529094
 30
0.0
 11
14.406543
 21
10.824240
 31
0.0
  0
LINE
  5
15e
100
AcDbEntity
  8
Layer_1
 62
7
100
AcDbLine
 10
14.406543
 20
10.824240
 30
0.0
 11
13.504304
 21
9.637015
 31
0.0
  0
LINE
  5
15f
100
AcDbEntity
  8
Layer_1
 62
7
100
AcDbLine
 10
13.504304
 20
9.637015
 30
0.0
 11
12.602066
 21
8.449763
 31
0.0
  0
LINE
  5
160
100
AcDbEntity
  8
Layer_1
 62
7
100
AcDbLine
 10
12.602066
 20
8.449763
 30
0.0
 11
11.650066
 21
7.646502
 31
0.0
  0
LINE
  5
161
100
AcDbEntity
  8
Layer_1
 62
7
100
AcDbLine
 10
11.650066
 20
7.646502
 30
0.0
 11
8.212305
 21
6.225485
 31
0.0
  0
LINE
  5
162
100
AcDbEntity
  8
Layer_1
 62
7
100
AcDbLine
 10
8.212305
 20
6.225485
 30
0.0
 11
7.164633
 21
7.219980
 31
0.0
  0
LINE
  5
163
100
AcDbEntity
  8
Layer_1
 62
7
100
AcDbLine
 10
7.164633
 20
7.219980
 30
0.0
 11
6.173271
 21
8.270608
 31
0.0
  0
LINE
  5
164
100
AcDbEntity
  8
Layer_1
 62
7
100
AcDbLine
 10
6.173271
 20
8.270608
 30
0.0
 11
7.604521
 21
11.704124
 31
0.0
  0
LINE
  5
165
100
AcDbEntity
  8
Layer_1
 62
7
100
AcDbLine
 10
7.604521
 20
11.704124
 30
0.0
 11
8.410610
 21
12.653717
 31
0.0
  0
LINE
  5
166
100
AcDbEntity
  8
Layer_1
 62
7
100
AcDbLine
 10
8.410610
 20
12.653717
 30
0.0
 11
9.600529
 21
13.552425
 31
0.0
  0
LINE
  5
167
100
AcDbEntity
  8
Layer_1
 62
7
100
AcDbLine
 10
9.600529
 20
13.552425
 30
0.0
 11
10.790447
 21
14.451134
 31
0.0
  0
LINE
  5
168
100
AcDbEntity
  8
Layer_1
 62
7
100
AcDbLine
 10
10.790447
 20
14.451134
 30
0.0
 11
9.501094
 21
16.399971
 31
0.0
  0
LINE
  5
169
100
AcDbEntity
  8
Layer_1
 62
7
100
AcDbLine
 10
9.501094
 20
16.399971
 30
0.0
 11
8.464249
 21
18.494103
 31
0.0
  0
LINE
  5
16a
100
AcDbEntity
  8
Layer_1
 62
7
100
AcDbLine
 10
8.464249
 20
18.494103
 30
0.0
 11
7.089268
 21
17.917043
 31
0.0
  0
LINE
  5
16b
100
AcDbEntity
  8
Layer_1
 62
7
100
AcDbLine
 10
7.089268
 20
17.917043
 30
0.0
 11
5.714288
 21
17.339983
 31
0.0
  0
LINE
  5
16c
100
AcDbEntity
  8
Layer_1
 62
7
100
AcDbLine
 10
5.714288
 20
17.339983
 30
0.0
 11
4.488203
 21
17.120341
 31
0.0
  0
LINE
  5
16d
100
AcDbEntity
  8
Layer_1
 62
7
100
AcDbLine
 10
4.488203
 20
17.120341
 30
0.0
 11
0.800503
 21
17.608580
 31
0.0
  0
LINE
  5
16e
100
AcDbEntity
  8
Layer_1
 62
7
100
AcDbLine
 10
0.800503
 20
17.608580
 30
0.0
 11
0.390435
 21
18.993667
 31
0.0
  0
LINE
  5
16f
100
AcDbEntity
  8
Layer_1
 62
7
100
AcDbLine
 10
0.390435
 20
18.993667
 30
0.0
 11
0.057205
 21
20.399215
 31
0.0
  0
LINE
  5
170
100
AcDbEntity
  8
Layer_1
 62
7
100
AcDbLine
 10
0.057205
 20
20.399215
 30
0.0
 11
3.013461
 21
22.657103
 31
0.0
  0
LINE
  5
171
100
AcDbEntity
  8
Layer_1
 62
7
100
AcDbLine
 10
3.013461
 20
22.657103
 30
0.0
 11
4.186356
 21
23.076440
 31
0.0
  0
LINE
  5
172
100
AcDbEntity
  8
Layer_1
 62
7
100
AcDbLine
 10
4.186356
 20
23.076440
 30
0.0
 11
5.666206
 21
23.259778
 31
0.0
  0
LINE
  5
173
100
AcDbEntity
  8
Layer_1
 62
7
100
AcDbLine
 10
5.666206
 20
23.259778
 30
0.0
 11
7.146057
 21
23.443115
 31
0.0
  0
LINE
  5
174
100
AcDbEntity
  8
Layer_1
 62
7
100
AcDbLine
 10
7.146057
 20
23.443115
 30
0.0
 11
7.003867
 21
25.775543
 31
0.0
  0
LINE
  5
175
100
AcDbEntity
  8
Layer_1
 62
7
100
AcDbLine
 10
7.003867
 20
25.775543
 30
0.0
 11
7.152999
 21
28.107537
 31
0.0
  0
LINE
  5
176
100
AcDbEntity
  8
Layer_1
 62
7
100
AcDbLine
 10
7.152999
 20
28.107537
 30
0.0
 11
5.673703
 21
28.295223
 31
0.0
  0
LINE
  5
177
100
AcDbEntity
  8
Layer_1
 62
7
100
AcDbLine
 10
5.673703
 20
28.295223
 30
0.0
 11
4.194406
 21
28.482909
 31
0.0
  0
LINE
  5
178
100
AcDbEntity
  8
Layer_1
 62
7
100
AcDbLine
 10
4.194406
 20
28.482909
 30
0.0
 11
3.022764
 21
28.905735
 31
0.0
  0
LINE
  5
179
100
AcDbEntity
  8
Layer_1
 62
7
100
AcDbLine
 10
3.022764
 20
28.905735
 30
0.0
 11
0.073243
 21
31.172414
 31
0.0
  0
LINE
  5
17a
100
AcDbEntity
  8
Layer_1
 62
7
100
AcDbLine
 10
0.073243
 20
31.172414
 30
0.0
 11
0.410656
 21
32.576966
 31
0.0
  0
LINE
  5
17b
100
AcDbEntity
  8
Layer_1
 62
7
100
AcDbLine
 10
0.410656
 20
32.576966
 30
0.0
 11
0.824845
 21
33.960826
 31
0.0
  0
LINE
  5
17c
100
AcDbEntity
  8
Layer_1
 62
7
100
AcDbLine
 10
0.824845
 20
33.960826
 30
0.0
 11
4.513982
 21
34.438083
 31
0.0
  0
LINE
  5
17d
100
AcDbEntity
  8
Layer_1
 62
7
100
AcDbLine
 10
4.513982
 20
34.438083
 30
0.0
 11
5.739407
 21
34.214792
 31
0.0
  0
LINE
  5
17e
100
AcDbEntity
  8
Layer_1
 62
7
100
AcDbLine
 10
5.739407
 20
34.214792
 30
0.0
 11
7.112664
 21
33.633643
 31
0.0
  0
LINE
  5
17f
100
AcDbEntity
  8
Layer_1
 62
7
100
AcDbLine
 10
7.112664
 20
33.633643
 30
0.0
 11
8.485921
 21
33.052494
 31
0.0
  0
LINE
  5
180
100
AcDbEntity
  8
Layer_1
 62
7
100
AcDbLine
 10
8.485921
 20
33.052494
 30
0.0
 11
9.528995
 21
35.143529
 31
0.0
  0
LINE
  5
181
100
AcDbEntity
  8
Layer_1
 62
7
100
AcDbLine
 10
9.528995
 20
35.143529
 30
0.0
 11
10.824144
 21
37.088528
 31
0.0
  0
LINE
  5
182
100
AcDbEntity
  8
Layer_1
 62
7
100
AcDbLine
 10
10.824144
 20
37.088528
 30
0.0
 11
9.636906
 21
37.990767
 31
0.0
  0
LINE
  5
183
100
AcDbEntity
  8
Layer_1
 62
7
100
AcDbLine
 10
9.636906
 20
37.990767
 30
0.0
 11
8.449668
 21
38.893006
 31
0.0
  0
LINE
  5
184
100
AcDbEntity
  8
Layer_1
 62
7
100
AcDbLine
 10
8.449668
 20
38.893006
 30
0.0
 11
7.646409
 21
39.845007
 31
0.0
  0
LINE
  5
185
100
AcDbEntity
  8
Layer_1
 62
7
100
AcDbLine
 10
7.646409
 20
39.845007
 30
0.0
 11
6.225387
 21
43.282767
 31
0.0
  0
LINE
  5
186
100
AcDbEntity
  8
Layer_1
 62
7
100
AcDbLine
 10
6.225387
 20
43.282767
 30
0.0
 11
7.219872
 21
44.330441
 31
0.0
  0
LINE
  5
187
100
AcDbEntity
  8
Layer_1
 62
7
100
AcDbLine
 10
7.219872
 20
44.330441
 30
0.0
 11
8.270500
 21
45.321800
 31
0.0
  0
LINE
  5
188
100
AcDbEntity
  8
Layer_1
 62
7
100
AcDbLine
 10
8.270500
 20
45.321800
 30
0.0
 11
11.704015
 21
43.890552
 31
0.0
  0
LINE
  5
189
100
AcDbEntity
  8
Layer_1
 62
7
100
AcDbLine
 10
11.704015
 20
43.890552
 30
0.0
 11
12.653619
 21
43.084463
 31
0.0
  0
LINE
  5
18a
100
AcDbEntity
  8
Layer_1
 62
7
100
AcDbLine
 10
12.653619
 20
43.084463
 30
0.0
 11
13.552320
 21
41.894544
 31
0.0
  0
LINE
  5
18b
100
AcDbEntity
  8
Layer_1
 62
7
100
AcDbLine
 10
13.552320
 20
41.894544
 30
0.0
 11
14.451020
 21
40.704625
 31
0.0
  0
LINE
  5
18c
100
AcDbEntity
  8
Layer_1
 62
7
100
AcDbLine
 10
14.451020
 20
40.704625
 30
0.0
 11
16.399867
 21
41.993979
 31
0.0
  0
LINE
  5
18d
100
AcDbEntity
  8
Layer_1
 62
7
100
AcDbLine
 10
16.399867
 20
41.993979
 30
0.0
 11
18.493999
 21
43.030824
 31
0.0
  0
LINE
  5
18e
100
AcDbEntity
  8
Layer_1
 62
7
100
AcDbLine
 10
18.493999
 20
43.030824
 30
0.0
 11
17.916940
 21
44.405805
 31
0.0
  0
LINE
  5
18f
100
AcDbEntity
  8
Layer_1
 62
7
100
AcDbLine
 10
17.916940
 20
44.405805
 30
0.0
 11
17.339880
 21
45.780784
 31
0.0
  0
ENDSEC
  0
SECTION
  2
OBJECTS
  0
DICTIONARY
  5
C
330
0
100
AcDbDictionary
  3
ACAD_GROUP
350
D
  3
ACAD_MLINESTYLE
350
17
  0
DICTIONARY
  5
D
330
C
100
AcDbDictionary
  0
DICTIONARY
  5
1A
330
C
100
AcDbDictionary
  0
DICTIONARY
  5
17
330
C
100
AcDbDictionary
  3
STANDARD
350
18
  0
DICTIONARY
  5
19
330
C
100
AcDbDictionary
  0
ENDSEC
  0
EOF
