  0
SECTION
  2
HEADER
  9
$ACADVER
  1
AC1014
  9
$HANDSEED
  5
FFFF
  9
$MEASUREMENT
 70
     1
  0
ENDSEC
  0
SECTION
  2
TABLES
  0
TABLE
  2
VPORT
  5
8
330
0
100
AcDbSymbolTable
 70
     4
  0
VPORT
  5
2E
330
8
100
AcDbSymbolTableRecord
100
AcDbViewportTableRecord
  2
*ACTIVE
 70
     0
 10
0.0
 20
0.0
 11
1.0
 21
1.0
 12
210.0
 22
148.5
 13
0.0
 23
0.0
 14
10.0
 24
10.0
 15
10.0
 25
10.0
 16
0.0
 26
0.0
 36
1.0
 17
0.0
 27
0.0
 37
0.0
 40
341.0
 41
1.24
 42
50.0
 43
0.0
 44
0.0
 50
0.0
 51
0.0
 71
     0
 72
   100
 73
     1
 74
     3
 75
     0
 76
     0
 77
     0
 78
     0
  0
ENDTAB
  0
TABLE
  2
LTYPE
  5
5
330
0
100
AcDbSymbolTable
 70
     1
  0
LTYPE
  5
14
330
5
100
AcDbSymbolTableRecord
100
AcDbLinetypeTableRecord
  2
BYBLOCK
 70
     0
  3

 72
    65
 73
     0
 40
0.0
  0
LTYPE
  5
15
330
5
100
AcDbSymbolTableRecord
100
AcDbLinetypeTableRecord
  2
BYLAYER
 70
     0
  3

 72
    65
 73
     0
 40
0.0
  0
LTYPE
  5
16
330
5
100
AcDbSymbolTableRecord
100
AcDbLinetypeTableRecord
  2
CONTINUOUS
 70
     0
  3
Solid line
 72
    65
 73
     0
 40
0.0
  0
ENDTAB
  0
TABLE
  2
LAYER
  5
2
100
AcDbSymbolTable
 70
2
  0
LAYER
  5
50
100
AcDbSymbolTableRecord
100
AcDbLayerTableRecord
  2
0
 70
0
  6
CONTINUOUS
  0
LAYER
  5
51
100
AcDbSymbolTableRecord
100
AcDbLayerTableRecord
  2
Layer_1
 70
0
  6
CONTINUOUS
  0
ENDTAB
  0
TABLE
  2
STYLE
  5
3
330
0
100
AcDbSymbolTable
 70
     1
  0
STYLE
  5
11
330
3
100
AcDbSymbolTableRecord
100
AcDbTextStyleTableRecord
  2
STANDARD
 70
     0
 40
0.0
 41
1.0
 50
0.0
 71
     0
 42
2.5
  3
txt
  4

  0
ENDTAB
  0
TABLE
  2
VIEW
  5
6
330
0
100
AcDbSymbolTable
 70
     0
  0
ENDTAB
  0
TABLE
  2
UCS
  5
7
330
0
100
AcDbSymbolTable
 70
     0
  0
ENDTAB
  0
TABLE
  2
APPID
  5
9
330
0
100
AcDbSymbolTable
 70
     2
  0
APPID
  5
12
330
9
100
AcDbSymbolTableRecord
100
AcDbRegAppTableRecord
  2
ACAD
 70
     0
  0
ENDTAB
  0
TABLE
  2
DIMSTYLE
  5
A
330
0
100
AcDbSymbolTable
 70
     1
  0
DIMSTYLE
105
27
330
A
100
AcDbSymbolTableRecord
100
AcDbDimStyleTableRecord
  2
ISO-25
 70
     0
  3

  4

  5

  6

  7

 40
1.0
 41
2.5
 42
0.625
 43
3.75
 44
1.25
 45
0.0
 46
0.0
 47
0.0
 48
0.0
140
2.5
141
2.5
142
0.0
143
0.03937007874016
144
1.0
145
0.0
146
1.0
147
0.625
 71
     0
 72
     0
 73
     0
 74
     0
 75
     0
 76
     0
 77
     1
 78
     8
170
     0
171
     3
172
     1
173
     0
174
     0
175
     0
176
     0
177
     0
178
     0
270
     2
271
     2
272
     2
273
     2
274
     3
340
11
275
     0
280
     0
281
     0
282
     0
283
     0
284
     8
285
     0
286
     0
287
     3
288
     0
  0
ENDTAB
  0
TABLE
  2
BLOCK_RECORD
  5
1
330
0
100
AcDbSymbolTable
 70
     1
  0
BLOCK_RECORD
  5
1F
330
1
100
AcDbSymbolTableRecord
100
AcDbBlockTableRecord
  2
*MODEL_SPACE
  0
BLOCK_RECORD
  5
1B
330
1
100
AcDbSymbolTableRecord
100
AcDbBlockTableRecord
  2
*PAPER_SPACE
  0
ENDTAB
  0
ENDSEC
  0
SECTION
  2
BLOCKS
  0
BLOCK
  5
20
330
1F
100
AcDbEntity
  8
0
100
AcDbBlockBegin
  2
*MODEL_SPACE
 70
     0
 10
0.0
 20
0.0
 30
0.0
  3
*MODEL_SPACE
  1

  0
ENDBLK
  5
21
330
1F
100
AcDbEntity
  8
0
100
AcDbBlockEnd
  0
BLOCK
  5
1C
330
1B
100
AcDbEntity
 67
     1
  8
0
100
AcDbBlockBegin
  2
*PAPER_SPACE
  1

  0
ENDBLK
  5
1D
330
1B
100
AcDbEntity
 67
     1
  8
0
100
AcDbBlockEnd
  0
ENDSEC
  0
SECTION
  2
ENTITIES
  0
SPLINE
  5
100
100
AcDbEntity
  8
Layer_1
 62
7
100
AcDbSpline
 70
8
 71
3
 72
8
 73
4
 74
0
 40
0
 40
0
 40
0
 40
0
 40
1
 40
1
 40
1
 40
1
 10
572.434861
 20
950.667051
 30
0.0
 10
547.827990
 20
950.778190
 30
0.0
 10
524.366942
 20
933.265511
 30
0.0
 10
517.499036
 20
909.661799
 30
0.0
  0
SPLINE
  5
101
100
AcDbEntity
  8
Layer_1
 62
7
100
AcDbSpline
 70
8
 71
3
 72
8
 73
4
 74
0
 40
0
 40
0
 40
0
 40
0
 40
1
 40
1
 40
1
 40
1
 10
517.499036
 20
909.661799
 30
0.0
 10
510.884085
 20
888.788841
 30
0.0
 10
517.330577
 20
864.185639
 30
0.0
 10
533.823333
 20
849.649135
 30
0.0
  0
SPLINE
  5
102
100
AcDbEntity
  8
Layer_1
 62
7
100
AcDbSpline
 70
8
 71
3
 72
8
 73
4
 74
0
 40
0
 40
0
 40
0
 40
0
 40
1
 40
1
 40
1
 40
1
 10
533.823333
 20
849.649135
 30
0.0
 10
537.146077
 20
846.562865
 30
0.0
 10
540.854166
 20
843.915141
 30
0.0
 10
544.785917
 20
841.658718
 30
0.0
  0
SPLINE
  5
103
100
AcDbEntity
  8
Layer_1
 62
7
100
AcDbSpline
 70
8
 71
3
 72
8
 73
4
 74
0
 40
0
 40
0
 40
0
 40
0
 40
1
 40
1
 40
1
 40
1
 10
544.785917
 20
841.658718
 30
0.0
 10
544.738870
 20
802.185820
 30
0.0
 10
544.691824
 20
762.712922
 30
0.0
 10
544.644806
 20
723.240023
 30
0.0
  0
SPLINE
  5
104
100
AcDbEntity
  8
Layer_1
 62
7
100
AcDbSpline
 70
8
 71
3
 72
8
 73
4
 74
0
 40
0
 40
0
 40
0
 40
0
 40
1
 40
1
 40
1
 40
1
 10
544.644806
 20
723.240023
 30
0.0
 10
491.869504
 20
693.354976
 30
0.0
 10
439.117571
 20
663.447069
 30
0.0
 10
386.274028
 20
633.713857
 30
0.0
  0
SPLINE
  5
105
100
AcDbEntity
  8
Layer_1
 62
7
100
AcDbSpline
 70
8
 71
3
 72
8
 73
4
 74
0
 40
0
 40
0
 40
0
 40
0
 40
1
 40
1
 40
1
 40
1
 10
386.274028
 20
633.713857
 30
0.0
 10
321.970090
 20
655.887803
 30
0.0
 10
257.848851
 20
678.610474
 30
0.0
 10
193.428056
 20
700.415301
 30
0.0
  0
SPLINE
  5
106
100
AcDbEntity
  8
Layer_1
 62
7
100
AcDbSpline
 70
8
 71
3
 72
8
 73
4
 74
0
 40
0
 40
0
 40
0
 40
0
 40
1
 40
1
 40
1
 40
1
 10
193.428056
 20
700.415301
 30
0.0
 10
180.961146
 20
703.384730
 30
0.0
 10
167.022314
 20
697.134186
 30
0.0
 10
160.831919
 20
685.935608
 30
0.0
  0
SPLINE
  5
107
100
AcDbEntity
  8
Layer_1
 62
7
100
AcDbSpline
 70
8
 71
3
 72
8
 73
4
 74
0
 40
0
 40
0
 40
0
 40
0
 40
1
 40
1
 40
1
 40
1
 10
160.831919
 20
685.935608
 30
0.0
 10
118.764270
 20
628.597253
 30
0.0
 10
76.558569
 20
571.364183
 30
0.0
 10
35.159721
 20
513.553445
 30
0.0
  0
SPLINE
  5
108
100
AcDbEntity
  8
Layer_1
 62
7
100
AcDbSpline
 70
8
 71
3
 72
8
 73
4
 74
0
 40
0
 40
0
 40
0
 40
0
 40
1
 40
1
 40
1
 40
1
 10
35.159721
 20
513.553445
 30
0.0
 10
28.721101
 20
502.768145
 30
0.0
 10
30.529245
 20
488.109037
 30
0.0
 10
38.706261
 20
478.730299
 30
0.0
  0
SPLINE
  5
109
100
AcDbEntity
  8
Layer_1
 62
7
100
AcDbSpline
 70
8
 71
3
 72
8
 73
4
 74
0
 40
0
 40
0
 40
0
 40
0
 40
1
 40
1
 40
1
 40
1
 10
38.706261
 20
478.730299
 30
0.0
 10
77.812237
 20
424.568891
 30
0.0
 10
117.013129
 20
370.476139
 30
0.0
 10
156.174722
 20
316.354956
 30
0.0
  0
SPLINE
  5
10a
100
AcDbEntity
  8
Layer_1
 62
7
100
AcDbSpline
 70
8
 71
3
 72
8
 73
4
 74
0
 40
0
 40
0
 40
0
 40
0
 40
1
 40
1
 40
1
 40
1
 10
156.174722
 20
316.354956
 30
0.0
 10
143.454143
 20
277.196623
 30
0.0
 10
130.733566
 20
238.038290
 30
0.0
 10
118.012986
 20
198.879957
 30
0.0
  0
SPLINE
  5
10b
100
AcDbEntity
  8
Layer_1
 62
7
100
AcDbSpline
 70
8
 71
3
 72
8
 73
4
 74
0
 40
0
 40
0
 40
0
 40
0
 40
1
 40
1
 40
1
 40
1
 10
118.012986
 20
198.879957
 30
0.0
 10
96.607991
 20
193.244961
 30
0.0
 10
79.108063
 20
174.407723
 30
0.0
 10
75.693259
 20
152.484994
 30
0.0
  0
SPLINE
  5
10c
100
AcDbEntity
  8
Layer_1
 62
7
100
AcDbSpline
 70
8
 71
3
 72
8
 73
4
 74
0
 40
0
 40
0
 40
0
 40
0
 40
1
 40
1
 40
1
 40
1
 10
75.693259
 20
152.484994
 30
0.0
 10
71.995414
 20
131.445929
 30
0.0
 10
80.810868
 20
108.590461
 30
0.0
 10
98.156889
 20
95.981734
 30
0.0
  0
SPLINE
  5
10d
100
AcDbEntity
  8
Layer_1
 62
7
100
AcDbSpline
 70
8
 71
3
 72
8
 73
4
 74
0
 40
0
 40
0
 40
0
 40
0
 40
1
 40
1
 40
1
 40
1
 10
98.156889
 20
95.981734
 30
0.0
 10
115.182119
 20
83.087360
 30
0.0
 10
139.565177
 20
80.572269
 30
0.0
 10
158.661806
 20
90.312596
 30
0.0
  0
SPLINE
  5
10e
100
AcDbEntity
  8
Layer_1
 62
7
100
AcDbSpline
 70
8
 71
3
 72
8
 73
4
 74
0
 40
0
 40
0
 40
0
 40
0
 40
1
 40
1
 40
1
 40
1
 10
158.661806
 20
90.312596
 30
0.0
 10
176.113115
 20
98.839830
 30
0.0
 10
189.067607
 20
116.496970
 30
0.0
 10
190.920514
 20
135.940323
 30
0.0
  0
SPLINE
  5
10f
100
AcDbEntity
  8
Layer_1
 62
7
100
AcDbSpline
 70
8
 71
3
 72
8
 73
4
 74
0
 40
0
 40
0
 40
0
 40
0
 40
1
 40
1
 40
1
 40
1
 10
190.920514
 20
135.940323
 30
0.0
 10
192.823866
 20
152.634244
 30
0.0
 10
187.204804
 20
170.116252
 30
0.0
 10
175.621597
 20
182.334679
 30
0.0
  0
SPLINE
  5
110
100
AcDbEntity
  8
Layer_1
 62
7
100
AcDbSpline
 70
8
 71
3
 72
8
 73
4
 74
0
 40
0
 40
0
 40
0
 40
0
 40
1
 40
1
 40
1
 40
1
 10
175.621597
 20
182.334679
 30
0.0
 10
188.783513
 20
222.761993
 30
0.0
 10
201.882827
 20
263.210427
 30
0.0
 10
215.070972
 20
303.628498
 30
0.0
  0
SPLINE
  5
111
100
AcDbEntity
  8
Layer_1
 62
7
100
AcDbSpline
 70
8
 71
3
 72
8
 73
4
 74
0
 40
0
 40
0
 40
0
 40
0
 40
1
 40
1
 40
1
 40
1
 10
215.070972
 20
303.628498
 30
0.0
 10
271.536109
 20
321.899917
 30
0.0
 10
328.019015
 20
340.116349
 30
0.0
 10
384.492500
 20
358.361971
 30
0.0
  0
SPLINE
  5
112
100
AcDbEntity
  8
Layer_1
 62
7
100
AcDbSpline
 70
8
 71
3
 72
8
 73
4
 74
0
 40
0
 40
0
 40
0
 40
0
 40
1
 40
1
 40
1
 40
1
 10
384.492500
 20
358.361971
 30
0.0
 10
436.802474
 20
327.592312
 30
0.0
 10
489.101469
 20
296.803986
 30
0.0
 10
541.399250
 20
266.013568
 30
0.0
  0
SPLINE
  5
113
100
AcDbEntity
  8
Layer_1
 62
7
100
AcDbSpline
 70
8
 71
3
 72
8
 73
4
 74
0
 40
0
 40
0
 40
0
 40
0
 40
1
 40
1
 40
1
 40
1
 10
541.399250
 20
266.013568
 30
0.0
 10
541.578659
 20
206.838841
 30
0.0
 10
541.017037
 20
147.656465
 30
0.0
 10
541.778472
 20
88.486971
 30
0.0
  0
SPLINE
  5
114
100
AcDbEntity
  8
Layer_1
 62
7
100
AcDbSpline
 70
8
 71
3
 72
8
 73
4
 74
0
 40
0
 40
0
 40
0
 40
0
 40
1
 40
1
 40
1
 40
1
 10
541.778472
 20
88.486971
 30
0.0
 10
543.518993
 20
72.815100
 30
0.0
 10
559.802002
 20
60.606960
 30
0.0
 10
575.318805
 20
63.095790
 30
0.0
  0
SPLINE
  5
115
100
AcDbEntity
  8
Layer_1
 62
7
100
AcDbSpline
 70
8
 71
3
 72
8
 73
4
 74
0
 40
0
 40
0
 40
0
 40
0
 40
1
 40
1
 40
1
 40
1
 10
575.318805
 20
63.095790
 30
0.0
 10
589.531037
 20
64.866672
 30
0.0
 10
601.575773
 20
78.174243
 30
0.0
 10
601.027500
 20
92.649748
 30
0.0
  0
SPLINE
  5
116
100
AcDbEntity
  8
Layer_1
 62
7
100
AcDbSpline
 70
8
 71
3
 72
8
 73
4
 74
0
 40
0
 40
0
 40
0
 40
0
 40
1
 40
1
 40
1
 40
1
 10
601.027500
 20
92.649748
 30
0.0
 10
601.478152
 20
139.167393
 30
0.0
 10
601.286749
 20
185.695517
 30
0.0
 10
601.454502
 20
232.217434
 30
0.0
  0
SPLINE
  5
117
100
AcDbEntity
  8
Layer_1
 62
7
100
AcDbSpline
 70
8
 71
3
 72
8
 73
4
 74
0
 40
0
 40
0
 40
0
 40
0
 40
1
 40
1
 40
1
 40
1
 10
601.454502
 20
232.217434
 30
0.0
 10
601.472564
 20
243.941425
 30
0.0
 10
601.493138
 20
255.665413
 30
0.0
 10
601.512584
 20
267.389401
 30
0.0
  0
SPLINE
  5
118
100
AcDbEntity
  8
Layer_1
 62
7
100
AcDbSpline
 70
8
 71
3
 72
8
 73
4
 74
0
 40
0
 40
0
 40
0
 40
0
 40
1
 40
1
 40
1
 40
1
 10
601.512584
 20
267.389401
 30
0.0
 10
652.908016
 20
296.507348
 30
0.0
 10
704.274944
 20
325.660097
 30
0.0
 10
755.755833
 20
354.596068
 30
0.0
  0
SPLINE
  5
119
100
AcDbEntity
  8
Layer_1
 62
7
100
AcDbSpline
 70
8
 71
3
 72
8
 73
4
 74
0
 40
0
 40
0
 40
0
 40
0
 40
1
 40
1
 40
1
 40
1
 10
755.755833
 20
354.596068
 30
0.0
 10
790.119296
 20
334.877938
 30
0.0
 10
824.456399
 20
315.065669
 30
0.0
 10
858.722861
 20
295.205928
 30
0.0
  0
SPLINE
  5
11a
100
AcDbEntity
  8
Layer_1
 62
7
100
AcDbSpline
 70
8
 71
3
 72
8
 73
4
 74
0
 40
0
 40
0
 40
0
 40
0
 40
1
 40
1
 40
1
 40
1
 10
858.722861
 20
295.205928
 30
0.0
 10
859.632464
 20
274.429476
 30
0.0
 10
872.860755
 20
254.889150
 30
0.0
 10
891.589022
 20
245.984782
 30
0.0
  0
SPLINE
  5
11b
100
AcDbEntity
  8
Layer_1
 62
7
100
AcDbSpline
 70
8
 71
3
 72
8
 73
4
 74
0
 40
0
 40
0
 40
0
 40
0
 40
1
 40
1
 40
1
 40
1
 10
891.589022
 20
245.984782
 30
0.0
 10
906.858627
 20
238.515302
 30
0.0
 10
925.456225
 20
238.269786
 30
0.0
 10
940.876706
 20
245.449663
 30
0.0
  0
SPLINE
  5
11c
100
AcDbEntity
  8
Layer_1
 62
7
100
AcDbSpline
 70
8
 71
3
 72
8
 73
4
 74
0
 40
0
 40
0
 40
0
 40
0
 40
1
 40
1
 40
1
 40
1
 10
940.876706
 20
245.449663
 30
0.0
 10
956.698451
 20
252.599509
 30
0.0
 10
969.099972
 20
267.084847
 30
0.0
 10
973.181357
 20
284.022650
 30
0.0
  0
SPLINE
  5
11d
100
AcDbEntity
  8
Layer_1
 62
7
100
AcDbSpline
 70
8
 71
3
 72
8
 73
4
 74
0
 40
0
 40
0
 40
0
 40
0
 40
1
 40
1
 40
1
 40
1
 10
973.181357
 20
284.022650
 30
0.0
 10
977.845390
 20
302.420586
 30
0.0
 10
973.117970
 20
323.111691
 30
0.0
 10
960.190556
 20
337.142387
 30
0.0
  0
SPLINE
  5
11e
100
AcDbEntity
  8
Layer_1
 62
7
100
AcDbSpline
 70
8
 71
3
 72
8
 73
4
 74
0
 40
0
 40
0
 40
0
 40
0
 40
1
 40
1
 40
1
 40
1
 10
960.190556
 20
337.142387
 30
0.0
 10
947.778084
 20
351.072707
 30
0.0
 10
928.435476
 20
358.608300
 30
0.0
 10
909.866806
 20
356.095373
 30
0.0
  0
SPLINE
  5
11f
100
AcDbEntity
  8
Layer_1
 62
7
100
AcDbSpline
 70
8
 71
3
 72
8
 73
4
 74
0
 40
0
 40
0
 40
0
 40
0
 40
1
 40
1
 40
1
 40
1
 10
909.866806
 20
356.095373
 30
0.0
 10
901.757122
 20
355.147110
 30
0.0
 10
893.880412
 20
352.423583
 30
0.0
 10
886.865694
 20
348.263707
 30
0.0
  0
SPLINE
  5
120
100
AcDbEntity
  8
Layer_1
 62
7
100
AcDbSpline
 70
8
 71
3
 72
8
 73
4
 74
0
 40
0
 40
0
 40
0
 40
0
 40
1
 40
1
 40
1
 40
1
 10
886.865694
 20
348.263707
 30
0.0
 10
852.430435
 20
368.128293
 30
0.0
 10
817.997179
 20
387.996405
 30
0.0
 10
783.590000
 20
407.909609
 30
0.0
  0
SPLINE
  5
121
100
AcDbEntity
  8
Layer_1
 62
7
100
AcDbSpline
 70
8
 71
3
 72
8
 73
4
 74
0
 40
0
 40
0
 40
0
 40
0
 40
1
 40
1
 40
1
 40
1
 10
783.590000
 20
407.909609
 30
0.0
 10
783.866352
 20
465.407728
 30
0.0
 10
784.323721
 20
522.904920
 30
0.0
 10
784.948194
 20
580.400301
 30
0.0
  0
SPLINE
  5
122
100
AcDbEntity
  8
Layer_1
 62
7
100
AcDbSpline
 70
8
 71
3
 72
8
 73
4
 74
0
 40
0
 40
0
 40
0
 40
0
 40
1
 40
1
 40
1
 40
1
 10
784.948194
 20
580.400301
 30
0.0
 10
832.969463
 20
608.464310
 30
0.0
 10
881.458514
 20
635.748792
 30
0.0
 10
929.243139
 20
664.193857
 30
0.0
  0
SPLINE
  5
123
100
AcDbEntity
  8
Layer_1
 62
7
100
AcDbSpline
 70
8
 71
3
 72
8
 73
4
 74
0
 40
0
 40
0
 40
0
 40
0
 40
1
 40
1
 40
1
 40
1
 10
929.243139
 20
664.193857
 30
0.0
 10
941.926206
 20
673.573992
 30
0.0
 10
944.532302
 20
693.712044
 30
0.0
 10
934.605361
 20
705.980385
 30
0.0
  0
SPLINE
  5
124
100
AcDbEntity
  8
Layer_1
 62
7
100
AcDbSpline
 70
8
 71
3
 72
8
 73
4
 74
0
 40
0
 40
0
 40
0
 40
0
 40
1
 40
1
 40
1
 40
1
 10
934.605361
 20
705.980385
 30
0.0
 10
925.884864
 20
717.841197
 30
0.0
 10
907.657401
 20
721.407103
 30
0.0
 10
895.323528
 20
713.185857
 30
0.0
  0
SPLINE
  5
125
100
AcDbEntity
  8
Layer_1
 62
7
100
AcDbSpline
 70
8
 71
3
 72
8
 73
4
 74
0
 40
0
 40
0
 40
0
 40
0
 40
1
 40
1
 40
1
 40
1
 10
895.323528
 20
713.185857
 30
0.0
 10
848.671235
 20
686.692697
 30
0.0
 10
802.286093
 20
659.713833
 30
0.0
 10
755.791111
 20
632.928912
 30
0.0
  0
SPLINE
  5
126
100
AcDbEntity
  8
Layer_1
 62
7
100
AcDbSpline
 70
8
 71
3
 72
8
 73
4
 74
0
 40
0
 40
0
 40
0
 40
0
 40
1
 40
1
 40
1
 40
1
 10
755.791111
 20
632.928912
 30
0.0
 10
705.393842
 20
662.060257
 30
0.0
 10
655.429361
 20
691.940168
 30
0.0
 10
605.181472
 20
721.343857
 30
0.0
  0
SPLINE
  5
127
100
AcDbEntity
  8
Layer_1
 62
7
100
AcDbSpline
 70
8
 71
3
 72
8
 73
4
 74
0
 40
0
 40
0
 40
0
 40
0
 40
1
 40
1
 40
1
 40
1
 10
605.181472
 20
721.343857
 30
0.0
 10
605.136035
 20
762.139672
 30
0.0
 10
605.086053
 20
802.935487
 30
0.0
 10
605.031528
 20
843.731302
 30
0.0
  0
SPLINE
  5
128
100
AcDbEntity
  8
Layer_1
 62
7
100
AcDbSpline
 70
8
 71
3
 72
8
 73
4
 74
0
 40
0
 40
0
 40
0
 40
0
 40
1
 40
1
 40
1
 40
1
 10
605.031528
 20
843.731302
 30
0.0
 10
622.310809
 20
854.982655
 30
0.0
 10
632.936532
 20
875.859903
 30
0.0
 10
631.198805
 20
896.489190
 30
0.0
  0
SPLINE
  5
129
100
AcDbEntity
  8
Layer_1
 62
7
100
AcDbSpline
 70
8
 71
3
 72
8
 73
4
 74
0
 40
0
 40
0
 40
0
 40
0
 40
1
 40
1
 40
1
 40
1
 10
631.198805
 20
896.489190
 30
0.0
 10
629.980650
 20
918.595177
 30
0.0
 10
614.673650
 20
939.089506
 30
0.0
 10
593.984955
 20
946.835151
 30
0.0
  0
SPLINE
  5
12a
100
AcDbEntity
  8
Layer_1
 62
7
100
AcDbSpline
 70
8
 71
3
 72
8
 73
4
 74
0
 40
0
 40
0
 40
0
 40
0
 40
1
 40
1
 40
1
 40
1
 10
593.984955
 20
946.835151
 30
0.0
 10
587.139260
 20
949.471868
 30
0.0
 10
579.779017
 20
950.793318
 30
0.0
 10
572.434861
 20
950.667051
 30
0.0
  0
SPLINE
  5
12b
100
AcDbEntity
  8
Layer_1
 62
7
100
AcDbSpline
 70
8
 71
3
 72
8
 73
4
 74
0
 40
0
 40
0
 40
0
 40
0
 40
1
 40
1
 40
1
 40
1
 10
590.161944
 20
660.604357
 30
0.0
 10
635.053284
 20
634.141621
 30
0.0
 10
680.007586
 20
607.785678
 30
0.0
 10
724.843695
 20
581.229329
 30
0.0
  0
SPLINE
  5
12c
100
AcDbEntity
  8
Layer_1
 62
7
100
AcDbSpline
 70
8
 71
3
 72
8
 73
4
 74
0
 40
0
 40
0
 40
0
 40
0
 40
1
 40
1
 40
1
 40
1
 10
724.843695
 20
581.229329
 30
0.0
 10
724.513100
 20
523.460909
 30
0.0
 10
724.013369
 20
465.692922
 30
0.0
 10
723.336882
 20
407.927677
 30
0.0
  0
SPLINE
  5
12d
100
AcDbEntity
  8
Layer_1
 62
7
100
AcDbSpline
 70
8
 71
3
 72
8
 73
4
 74
0
 40
0
 40
0
 40
0
 40
0
 40
1
 40
1
 40
1
 40
1
 10
723.336882
 20
407.927677
 30
0.0
 10
723.681306
 20
405.947623
 30
0.0
 10
723.099702
 20
404.517835
 30
0.0
 10
721.081023
 20
403.942005
 30
0.0
  0
SPLINE
  5
12e
100
AcDbEntity
  8
Layer_1
 62
7
100
AcDbSpline
 70
8
 71
3
 72
8
 73
4
 74
0
 40
0
 40
0
 40
0
 40
0
 40
1
 40
1
 40
1
 40
1
 10
721.081023
 20
403.942005
 30
0.0
 10
670.816399
 20
375.490472
 30
0.0
 10
620.573506
 20
347.019973
 30
0.0
 10
570.256472
 20
318.692109
 30
0.0
  0
SPLINE
  5
12f
100
AcDbEntity
  8
Layer_1
 62
7
100
AcDbSpline
 70
8
 71
3
 72
8
 73
4
 74
0
 40
0
 40
0
 40
0
 40
0
 40
1
 40
1
 40
1
 40
1
 10
570.256472
 20
318.692109
 30
0.0
 10
519.638111
 20
348.222037
 30
0.0
 10
469.217022
 20
378.147597
 30
0.0
 10
418.676667
 20
407.847873
 30
0.0
  0
SPLINE
  5
130
100
AcDbEntity
  8
Layer_1
 62
7
100
AcDbSpline
 70
8
 71
3
 72
8
 73
4
 74
0
 40
0
 40
0
 40
0
 40
0
 40
1
 40
1
 40
1
 40
1
 10
418.676667
 20
407.847873
 30
0.0
 10
419.055211
 20
466.610658
 30
0.0
 10
419.581048
 20
525.372813
 30
0.0
 10
420.422917
 20
584.130940
 30
0.0
  0
SPLINE
  5
131
100
AcDbEntity
  8
Layer_1
 62
7
100
AcDbSpline
 70
8
 71
3
 72
8
 73
4
 74
0
 40
0
 40
0
 40
0
 40
0
 40
1
 40
1
 40
1
 40
1
 10
420.422917
 20
584.130940
 30
0.0
 10
471.512815
 20
612.772827
 30
0.0
 10
522.277481
 20
641.975546
 30
0.0
 10
573.457917
 20
670.446857
 30
0.0
  0
SPLINE
  5
132
100
AcDbEntity
  8
Layer_1
 62
7
100
AcDbSpline
 70
8
 71
3
 72
8
 73
4
 74
0
 40
0
 40
0
 40
0
 40
0
 40
1
 40
1
 40
1
 40
1
 10
573.457917
 20
670.446857
 30
0.0
 10
579.025935
 20
667.165996
 30
0.0
 10
584.593926
 20
663.885162
 30
0.0
 10
590.161944
 20
660.604357
 30
0.0
  0
LWPOLYLINE
  5
133
100
AcDbEntity
  8
Layer_1
 62
7
100
AcDbPolyline
 90
2
 70
0
 10
572.434861
 20
950.667051
 30
0.0
 10
572.434861
 20
950.667051
 30
0.0
  0
SPLINE
  5
134
100
AcDbEntity
  8
Layer_1
 62
7
100
AcDbSpline
 70
8
 71
3
 72
8
 73
4
 74
0
 40
0
 40
0
 40
0
 40
0
 40
1
 40
1
 40
1
 40
1
 10
236.281736
 20
622.336774
 30
0.0
 10
277.544973
 20
608.007730
 30
0.0
 10
318.805475
 20
593.670870
 30
0.0
 10
360.062639
 20
579.324329
 30
0.0
  0
SPLINE
  5
135
100
AcDbEntity
  8
Layer_1
 62
7
100
AcDbSpline
 70
8
 71
3
 72
8
 73
4
 74
0
 40
0
 40
0
 40
0
 40
0
 40
1
 40
1
 40
1
 40
1
 10
360.062639
 20
579.324329
 30
0.0
 10
359.629146
 20
523.899455
 30
0.0
 10
359.108446
 20
468.475311
 30
0.0
 10
358.572139
 20
413.051346
 30
0.0
  0
SPLINE
  5
136
100
AcDbEntity
  8
Layer_1
 62
7
100
AcDbSpline
 70
8
 71
3
 72
8
 73
4
 74
0
 40
0
 40
0
 40
0
 40
0
 40
1
 40
1
 40
1
 40
1
 10
358.572139
 20
413.051346
 30
0.0
 10
305.043727
 20
395.752904
 30
0.0
 10
251.507935
 20
378.478198
 30
0.0
 10
197.970069
 20
361.210651
 30
0.0
  0
SPLINE
  5
137
100
AcDbEntity
  8
Layer_1
 62
7
100
AcDbSpline
 70
8
 71
3
 72
8
 73
4
 74
0
 40
0
 40
0
 40
0
 40
0
 40
1
 40
1
 40
1
 40
1
 10
197.970069
 20
361.210651
 30
0.0
 10
165.978888
 20
404.709201
 30
0.0
 10
134.565593
 20
448.685728
 30
0.0
 10
102.865707
 20
492.369661
 30
0.0
  0
SPLINE
  5
138
100
AcDbEntity
  8
Layer_1
 62
7
100
AcDbSpline
 70
8
 71
3
 72
8
 73
4
 74
0
 40
0
 40
0
 40
0
 40
0
 40
1
 40
1
 40
1
 40
1
 10
102.865707
 20
492.369661
 30
0.0
 10
101.344315
 20
494.478764
 30
0.0
 10
99.822920
 20
496.587867
 30
0.0
 10
98.301528
 20
498.696971
 30
0.0
  0
SPLINE
  5
139
100
AcDbEntity
  8
Layer_1
 62
7
100
AcDbSpline
 70
8
 71
3
 72
8
 73
4
 74
0
 40
0
 40
0
 40
0
 40
0
 40
1
 40
1
 40
1
 40
1
 10
98.301528
 20
498.696971
 30
0.0
 10
131.450800
 20
544.405081
 30
0.0
 10
164.768674
 20
589.999018
 30
0.0
 10
198.031806
 20
635.627690
 30
0.0
  0
SPLINE
  5
13a
100
AcDbEntity
  8
Layer_1
 62
7
100
AcDbSpline
 70
8
 71
3
 72
8
 73
4
 74
0
 40
0
 40
0
 40
0
 40
0
 40
1
 40
1
 40
1
 40
1
 10
198.031806
 20
635.627690
 30
0.0
 10
210.781781
 20
631.197366
 30
0.0
 10
223.531760
 20
626.767070
 30
0.0
 10
236.281736
 20
622.336774
 30
0.0
  0
LWPOLYLINE
  5
13b
100
AcDbEntity
  8
Layer_1
 62
7
100
AcDbPolyline
 90
2
 70
0
 10
590.161944
 20
660.604357
 30
0.0
 10
590.161944
 20
660.604357
 30
0.0
  0
LWPOLYLINE
  5
13c
100
AcDbEntity
  8
Layer_1
 62
7
100
AcDbPolyline
 90
2
 70
0
 10
236.281736
 20
622.336774
 30
0.0
 10
236.281736
 20
622.336774
 30
0.0
  0
ENDSEC
  0
SECTION
  2
OBJECTS
  0
DICTIONARY
  5
C
330
0
100
AcDbDictionary
  3
ACAD_GROUP
350
D
  3
ACAD_MLINESTYLE
350
17
  0
DICTIONARY
  5
D
330
C
100
AcDbDictionary
  0
DICTIONARY
  5
1A
330
C
100
AcDbDictionary
  0
DICTIONARY
  5
17
330
C
100
AcDbDictionary
  3
STANDARD
350
18
  0
DICTIONARY
  5
19
330
C
100
AcDbDictionary
  0
ENDSEC
  0
EOF
