  0
SECTION
  2
HEADER
  9
$ACADVER
  1
AC1014
  9
$HANDSEED
  5
FFFF
  9
$MEASUREMENT
 70
     1
  0
ENDSEC
  0
SECTION
  2
TABLES
  0
TABLE
  2
VPORT
  5
8
330
0
100
AcDbSymbolTable
 70
     4
  0
VPORT
  5
2E
330
8
100
AcDbSymbolTableRecord
100
AcDbViewportTableRecord
  2
*ACTIVE
 70
     0
 10
0.0
 20
0.0
 11
1.0
 21
1.0
 12
210.0
 22
148.5
 13
0.0
 23
0.0
 14
10.0
 24
10.0
 15
10.0
 25
10.0
 16
0.0
 26
0.0
 36
1.0
 17
0.0
 27
0.0
 37
0.0
 40
341.0
 41
1.24
 42
50.0
 43
0.0
 44
0.0
 50
0.0
 51
0.0
 71
     0
 72
   100
 73
     1
 74
     3
 75
     0
 76
     0
 77
     0
 78
     0
  0
ENDTAB
  0
TABLE
  2
LTYPE
  5
5
330
0
100
AcDbSymbolTable
 70
     1
  0
LTYPE
  5
14
330
5
100
AcDbSymbolTableRecord
100
AcDbLinetypeTableRecord
  2
BYBLOCK
 70
     0
  3

 72
    65
 73
     0
 40
0.0
  0
LTYPE
  5
15
330
5
100
AcDbSymbolTableRecord
100
AcDbLinetypeTableRecord
  2
BYLAYER
 70
     0
  3

 72
    65
 73
     0
 40
0.0
  0
LTYPE
  5
16
330
5
100
AcDbSymbolTableRecord
100
AcDbLinetypeTableRecord
  2
CONTINUOUS
 70
     0
  3
Solid line
 72
    65
 73
     0
 40
0.0
  0
ENDTAB
  0
TABLE
  2
LAYER
  5
2
100
AcDbSymbolTable
 70
3
  0
LAYER
  5
50
100
AcDbSymbolTableRecord
100
AcDbLayerTableRecord
  2
0
 70
0
  6
CONTINUOUS
  0
LAYER
  5
51
100
AcDbSymbolTableRecord
100
AcDbLayerTableRecord
  2
6.35mm
 70
0
  6
CONTINUOUS
  0
LAYER
  5
52
100
AcDbSymbolTableRecord
100
AcDbLayerTableRecord
  2
3.1mm
 70
0
  6
CONTINUOUS
  0
ENDTAB
  0
TABLE
  2
STYLE
  5
3
330
0
100
AcDbSymbolTable
 70
     1
  0
STYLE
  5
11
330
3
100
AcDbSymbolTableRecord
100
AcDbTextStyleTableRecord
  2
STANDARD
 70
     0
 40
0.0
 41
1.0
 50
0.0
 71
     0
 42
2.5
  3
txt
  4

  0
ENDTAB
  0
TABLE
  2
VIEW
  5
6
330
0
100
AcDbSymbolTable
 70
     0
  0
ENDTAB
  0
TABLE
  2
UCS
  5
7
330
0
100
AcDbSymbolTable
 70
     0
  0
ENDTAB
  0
TABLE
  2
APPID
  5
9
330
0
100
AcDbSymbolTable
 70
     2
  0
APPID
  5
12
330
9
100
AcDbSymbolTableRecord
100
AcDbRegAppTableRecord
  2
ACAD
 70
     0
  0
ENDTAB
  0
TABLE
  2
DIMSTYLE
  5
A
330
0
100
AcDbSymbolTable
 70
     1
  0
DIMSTYLE
105
27
330
A
100
AcDbSymbolTableRecord
100
AcDbDimStyleTableRecord
  2
ISO-25
 70
     0
  3

  4

  5

  6

  7

 40
1.0
 41
2.5
 42
0.625
 43
3.75
 44
1.25
 45
0.0
 46
0.0
 47
0.0
 48
0.0
140
2.5
141
2.5
142
0.0
143
0.03937007874016
144
1.0
145
0.0
146
1.0
147
0.625
 71
     0
 72
     0
 73
     0
 74
     0
 75
     0
 76
     0
 77
     1
 78
     8
170
     0
171
     3
172
     1
173
     0
174
     0
175
     0
176
     0
177
     0
178
     0
270
     2
271
     2
272
     2
273
     2
274
     3
340
11
275
     0
280
     0
281
     0
282
     0
283
     0
284
     8
285
     0
286
     0
287
     3
288
     0
  0
ENDTAB
  0
TABLE
  2
BLOCK_RECORD
  5
1
330
0
100
AcDbSymbolTable
 70
     1
  0
BLOCK_RECORD
  5
1F
330
1
100
AcDbSymbolTableRecord
100
AcDbBlockTableRecord
  2
*MODEL_SPACE
  0
BLOCK_RECORD
  5
1B
330
1
100
AcDbSymbolTableRecord
100
AcDbBlockTableRecord
  2
*PAPER_SPACE
  0
ENDTAB
  0
ENDSEC
  0
SECTION
  2
BLOCKS
  0
BLOCK
  5
20
330
1F
100
AcDbEntity
  8
0
100
AcDbBlockBegin
  2
*MODEL_SPACE
 70
     0
 10
0.0
 20
0.0
 30
0.0
  3
*MODEL_SPACE
  1

  0
ENDBLK
  5
21
330
1F
100
AcDbEntity
  8
0
100
AcDbBlockEnd
  0
BLOCK
  5
1C
330
1B
100
AcDbEntity
 67
     1
  8
0
100
AcDbBlockBegin
  2
*PAPER_SPACE
  1

  0
ENDBLK
  5
1D
330
1B
100
AcDbEntity
 67
     1
  8
0
100
AcDbBlockEnd
  0
ENDSEC
  0
SECTION
  2
ENTITIES
  0
LINE
  5
100
100
AcDbEntity
  8
6.35mm
 62
5
100
AcDbLine
 10
37.453557
 20
68.030284
 30
0.0
 11
37.453557
 21
126.854925
 31
0.0
  0
LINE
  5
101
100
AcDbEntity
  8
6.35mm
 62
5
100
AcDbLine
 10
37.453557
 20
126.854925
 30
0.0
 11
35.547521
 21
126.854925
 31
0.0
  0
SPLINE
  5
102
100
AcDbEntity
  8
6.35mm
 62
5
100
AcDbSpline
 70
0
 71
3
 72
10
 73
6
 74
4
 40
0.000000
 40
0.000000
 40
0.000000
 40
0.000000
 40
8.327398
 40
29.648477
 40
59.349969
 40
59.349969
 40
59.349969
 40
59.349969
 10
37.974314
 20
8.685351
 30
0.0
 10
37.877906
 20
11.459585
 30
0.0
 10
37.534660
 20
21.336836
 30
0.0
 10
37.533437
 20
41.123432
 30
0.0
 10
37.482948
 20
58.130217
 30
0.0
 10
37.453557
 20
68.030284
 30
0.0
 11
37.974314
 21
8.685351
 31
0.0
 11
37.712121
 21
17.008620
 31
0.0
 11
37.524977
 21
38.328878
 31
0.0
 11
37.453557
 21
68.030284
 31
0.0
  0
LINE
  5
103
100
AcDbEntity
  8
6.35mm
 62
5
100
AcDbLine
 10
60.480216
 20
225.603188
 30
0.0
 11
73.315646
 21
225.538616
 31
0.0
  0
SPLINE
  5
104
100
AcDbEntity
  8
6.35mm
 62
5
100
AcDbSpline
 70
0
 71
3
 72
16
 73
12
 74
10
 40
0.000000
 40
0.000000
 40
0.000000
 40
0.000000
 40
4.270817
 40
11.104123
 40
14.676083
 40
41.608970
 40
91.972559
 40
120.115093
 40
120.707939
 40
121.560060
 40
122.562041
 40
122.562041
 40
122.562041
 40
122.562041
 10
35.547521
 20
126.854925
 30
0.0
 10
34.115461
 20
126.824267
 30
0.0
 10
30.392103
 20
126.744557
 30
0.0
 10
25.703616
 20
126.786255
 30
0.0
 10
11.976315
 20
125.591426
 30
0.0
 10
42.071920
 20
166.443299
 30
0.0
 10
47.190993
 20
188.031099
 30
0.0
 10
50.452455
 20
219.774233
 30
0.0
 10
58.686381
 20
225.607967
 30
0.0
 10
59.537219
 20
225.596337
 30
0.0
 10
60.149391
 20
225.600784
 30
0.0
 10
60.480216
 20
225.603188
 30
0.0
 11
35.547521
 21
126.854925
 31
0.0
 11
31.277372
 21
126.779410
 31
0.0
 11
24.445505
 21
126.639169
 31
0.0
 11
20.874344
 21
126.563654
 31
0.0
 11
30.315227
 21
151.787654
 31
0.0
 11
48.033406
 21
198.931659
 31
0.0
 11
58.122176
 21
225.203677
 31
0.0
 11
58.631113
 21
225.507732
 31
0.0
 11
59.478240
 21
225.599850
 31
0.0
 11
60.480216
 21
225.603188
 31
0.0
  0
LINE
  5
105
100
AcDbEntity
  8
6.35mm
 62
5
100
AcDbLine
 10
73.181857
 20
240.682843
 30
0.0
 11
73.048532
 21
250.261335
 31
0.0
  0
LINE
  5
106
100
AcDbEntity
  8
6.35mm
 62
5
100
AcDbLine
 10
73.048532
 20
250.261335
 30
0.0
 11
90.194492
 21
250.050431
 31
0.0
  0
LINE
  5
107
100
AcDbEntity
  8
6.35mm
 62
5
100
AcDbLine
 10
90.194492
 20
250.050431
 30
0.0
 11
107.340452
 21
249.839527
 31
0.0
  0
LINE
  5
108
100
AcDbEntity
  8
6.35mm
 62
5
100
AcDbLine
 10
107.340452
 20
249.839527
 30
0.0
 11
107.556002
 21
237.931332
 31
0.0
  0
LINE
  5
109
100
AcDbEntity
  8
6.35mm
 62
5
100
AcDbLine
 10
107.556002
 20
237.931332
 30
0.0
 11
107.771552
 21
226.023138
 31
0.0
  0
LINE
  5
10a
100
AcDbEntity
  8
6.35mm
 62
5
100
AcDbLine
 10
107.771552
 20
226.023138
 30
0.0
 11
182.295554
 21
226.023138
 31
0.0
  0
SPLINE
  5
10b
100
AcDbEntity
  8
6.35mm
 62
5
100
AcDbSpline
 70
0
 71
3
 72
10
 73
6
 74
4
 40
0.000000
 40
0.000000
 40
0.000000
 40
0.000000
 40
3.607408
 40
8.329774
 40
15.144937
 40
15.144937
 40
15.144937
 40
15.144937
 10
73.315646
 20
225.538616
 30
0.0
 10
73.313879
 20
226.741087
 30
0.0
 10
73.309799
 20
229.517683
 30
0.0
 10
73.263699
 20
234.565829
 30
0.0
 10
73.212248
 20
238.411326
 30
0.0
 10
73.181857
 20
240.682843
 30
0.0
 11
73.315646
 21
225.538616
 31
0.0
 11
73.306355
 21
229.146011
 31
0.0
 11
73.267333
 21
233.868216
 31
0.0
 11
73.181857
 21
240.682843
 31
0.0
  0
LINE
  5
10c
100
AcDbEntity
  8
6.35mm
 62
5
100
AcDbLine
 10
268.876405
 20
190.051416
 30
0.0
 11
279.519173
 21
156.812159
 31
0.0
  0
LINE
  5
10d
100
AcDbEntity
  8
6.35mm
 62
5
100
AcDbLine
 10
279.519173
 20
156.812159
 30
0.0
 11
279.511741
 21
106.109191
 31
0.0
  0
LINE
  5
10e
100
AcDbEntity
  8
6.35mm
 62
5
100
AcDbLine
 10
279.511741
 20
106.109191
 30
0.0
 11
279.503843
 21
55.406223
 31
0.0
  0
LINE
  5
10f
100
AcDbEntity
  8
6.35mm
 62
5
100
AcDbLine
 10
279.503843
 20
55.406223
 30
0.0
 11
255.942026
 21
31.784944
 31
0.0
  0
LINE
  5
110
100
AcDbEntity
  8
6.35mm
 62
5
100
AcDbLine
 10
255.942026
 20
31.784944
 30
0.0
 11
232.380209
 21
8.164130
 31
0.0
  0
LINE
  5
111
100
AcDbEntity
  8
6.35mm
 62
5
100
AcDbLine
 10
232.380209
 20
8.164130
 30
0.0
 11
135.437176
 21
8.164130
 31
0.0
  0
SPLINE
  5
112
100
AcDbEntity
  8
6.35mm
 62
5
100
AcDbSpline
 70
0
 71
3
 72
13
 73
9
 74
7
 40
0.000000
 40
0.000000
 40
0.000000
 40
0.000000
 40
50.550057
 40
71.031055
 40
75.335279
 40
80.883711
 40
93.967648
 40
111.755438
 40
111.755438
 40
111.755438
 40
111.755438
 10
182.295554
 20
226.023138
 30
0.0
 10
199.482509
 20
226.026395
 30
0.0
 10
223.632977
 20
226.030971
 30
0.0
 10
247.130017
 20
225.872431
 30
0.0
 10
258.648009
 20
225.350900
 30
0.0
 10
259.440998
 20
216.230191
 30
0.0
 10
264.241210
 20
205.867357
 30
0.0
 10
267.181980
 20
195.833032
 30
0.0
 10
268.876405
 20
190.051416
 30
0.0
 11
182.295554
 21
226.023138
 31
0.0
 11
232.845565
 21
225.954884
 31
0.0
 11
253.323186
 21
225.583023
 31
0.0
 11
257.526596
 21
224.656906
 31
0.0
 11
259.341116
 21
219.413565
 31
0.0
 11
263.418598
 21
206.981207
 31
0.0
 11
268.876405
 21
190.051416
 31
0.0
  0
LINE
  5
113
100
AcDbEntity
  8
6.35mm
 62
5
100
AcDbLine
 10
37.974314
 20
8.685351
 30
0.0
 11
37.974314
 21
8.685351
 31
0.0
  0
LINE
  5
114
100
AcDbEntity
  8
6.35mm
 62
5
100
AcDbLine
 10
37.974314
 20
8.685351
 30
0.0
 11
37.974314
 21
8.685351
 31
0.0
  0
LINE
  5
115
100
AcDbEntity
  8
3.1mm
 62
7
100
AcDbLine
 10
37.198512
 20
126.282100
 30
0.0
 11
231.665258
 21
126.282100
 31
0.0
  0
LINE
  5
116
100
AcDbEntity
  8
3.1mm
 62
7
100
AcDbLine
 10
232.416929
 20
8.061427
 30
0.0
 11
232.416929
 21
62.345587
 31
0.0
  0
LINE
  5
117
100
AcDbEntity
  8
3.1mm
 62
7
100
AcDbLine
 10
232.416929
 20
62.345587
 30
0.0
 11
232.063389
 21
126.400560
 31
0.0
  0
LINE
  5
118
100
AcDbEntity
  8
3.1mm
 62
7
100
AcDbLine
 10
232.063389
 20
126.400560
 30
0.0
 11
279.474577
 21
156.292293
 31
0.0
  0
SPLINE
  5
119
100
AcDbEntity
  8
6.35mm
 62
5
100
AcDbSpline
 70
0
 71
3
 72
10
 73
6
 74
4
 40
0.000000
 40
0.000000
 40
0.000000
 40
0.000000
 40
48.901765
 40
83.916815
 40
97.465956
 40
97.465956
 40
97.465956
 40
97.465956
 10
135.437176
 20
8.164130
 30
0.0
 10
119.136858
 20
8.194046
 30
0.0
 10
91.165050
 20
8.245383
 30
0.0
 10
58.674342
 20
8.243085
 30
0.0
 10
42.489731
 20
8.588877
 30
0.0
 10
37.974314
 20
8.685351
 30
0.0
 11
135.437176
 21
8.164130
 31
0.0
 11
86.535463
 21
8.235773
 31
0.0
 11
51.520914
 21
8.422934
 31
0.0
 11
37.974314
 21
8.685351
 31
0.0
  0
SPLINE
  5
11a
100
AcDbEntity
  8
3.1mm
 62
7
100
AcDbSpline
 70
0
 71
3
 72
10
 73
6
 74
4
 40
0.000000
 40
0.000000
 40
0.000000
 40
0.000000
 40
7.288180
 40
14.160156
 40
20.323352
 40
20.323352
 40
20.323352
 40
20.323352
 10
110.943909
 20
120.668124
 30
0.0
 10
108.521743
 20
120.465414
 30
0.0
 10
103.815731
 20
120.071570
 30
0.0
 10
97.321421
 20
117.354479
 30
0.0
 10
94.538044
 20
113.950641
 30
0.0
 10
93.222027
 20
112.341262
 30
0.0
 11
110.943909
 21
120.668124
 31
0.0
 11
103.725397
 21
119.662819
 31
0.0
 11
97.479026
 21
116.798049
 31
0.0
 11
93.222027
 21
112.341262
 31
0.0
  0
SPLINE
  5
11b
100
AcDbEntity
  8
3.1mm
 62
7
100
AcDbSpline
 70
0
 71
3
 72
10
 73
6
 74
4
 40
0.000000
 40
0.000000
 40
0.000000
 40
0.000000
 40
5.404916
 40
10.662581
 40
16.021163
 40
16.021163
 40
16.021163
 40
16.021163
 10
93.222027
 20
112.341262
 30
0.0
 10
92.452579
 20
110.696457
 30
0.0
 10
90.934644
 20
107.451658
 30
0.0
 10
90.872801
 20
101.906036
 30
0.0
 10
92.232827
 20
98.615241
 30
0.0
 10
92.919304
 20
96.954202
 30
0.0
 11
93.222027
 21
112.341262
 31
0.0
 11
91.293143
 21
107.292250
 31
0.0
 11
91.216815
 21
102.035139
 31
0.0
 11
92.919304
 21
96.954202
 31
0.0
  0
SPLINE
  5
11c
100
AcDbEntity
  8
3.1mm
 62
7
100
AcDbSpline
 70
0
 71
3
 72
10
 73
6
 74
4
 40
0.000000
 40
0.000000
 40
0.000000
 40
0.000000
 40
5.417127
 40
11.421202
 40
17.868493
 40
17.868493
 40
17.868493
 40
17.868493
 10
92.919304
 20
96.954202
 30
0.0
 10
93.981200
 20
95.470670
 30
0.0
 10
96.220048
 20
92.342866
 30
0.0
 10
101.669507
 20
89.445979
 30
0.0
 10
105.763679
 20
88.732735
 30
0.0
 10
107.883633
 20
88.363419
 30
0.0
 11
92.919304
 21
96.954202
 31
0.0
 11
96.384924
 21
92.790700
 31
0.0
 11
101.603350
 21
89.821365
 31
0.0
 11
107.883633
 21
88.363419
 31
0.0
  0
SPLINE
  5
11d
100
AcDbEntity
  8
3.1mm
 62
7
100
AcDbSpline
 70
0
 71
3
 72
10
 73
6
 74
4
 40
0.000000
 40
0.000000
 40
0.000000
 40
0.000000
 40
7.734625
 40
15.196238
 40
21.972461
 40
21.972461
 40
21.972461
 40
21.972461
 10
107.883633
 20
88.363419
 30
0.0
 10
110.459385
 20
88.258622
 30
0.0
 10
115.519972
 20
88.052727
 30
0.0
 10
122.876618
 20
89.887796
 30
0.0
 10
126.499642
 20
93.035759
 30
0.0
 10
128.223950
 20
94.533971
 30
0.0
 11
107.883633
 21
88.363419
 31
0.0
 11
115.617961
 21
88.431156
 31
0.0
 11
122.791904
 21
90.483037
 31
0.0
 11
128.223950
 21
94.533971
 31
0.0
  0
SPLINE
  5
11e
100
AcDbEntity
  8
3.1mm
 62
7
100
AcDbSpline
 70
0
 71
3
 72
10
 73
6
 74
4
 40
0.000000
 40
0.000000
 40
0.000000
 40
0.000000
 40
6.013502
 40
11.715290
 40
17.494164
 40
17.494164
 40
17.494164
 40
17.494164
 10
128.223950
 20
94.533971
 30
0.0
 10
129.336748
 20
96.226936
 30
0.0
 10
131.504662
 20
99.525108
 30
0.0
 10
132.137364
 20
105.587900
 30
0.0
 10
130.913494
 20
109.240581
 30
0.0
 10
130.297451
 20
111.079184
 30
0.0
 11
128.223950
 21
94.533971
 31
0.0
 11
131.102778
 21
99.813607
 31
0.0
 11
131.730289
 21
105.480759
 31
0.0
 11
130.297451
 21
111.079184
 31
0.0
  0
SPLINE
  5
11f
100
AcDbEntity
  8
3.1mm
 62
7
100
AcDbSpline
 70
0
 71
3
 72
10
 73
6
 74
4
 40
0.000000
 40
0.000000
 40
0.000000
 40
0.000000
 40
5.718404
 40
12.074538
 40
18.975954
 40
18.975954
 40
18.975954
 40
18.975954
 10
130.297451
 20
111.079184
 30
0.0
 10
129.249038
 20
112.695587
 30
0.0
 10
127.035290
 20
116.108659
 30
0.0
 10
121.322341
 20
119.374448
 30
0.0
 10
116.955489
 20
120.120159
 30
0.0
 10
114.682259
 20
120.508350
 30
0.0
 11
130.297451
 21
111.079184
 31
0.0
 11
126.833397
 21
115.628962
 31
0.0
 11
121.400193
 21
118.927558
 31
0.0
 11
114.682259
 21
120.508350
 31
0.0
  0
LINE
  5
120
100
AcDbEntity
  8
3.1mm
 62
7
100
AcDbLine
 10
110.943909
 20
120.668124
 30
0.0
 11
110.943909
 21
120.668124
 31
0.0
  0
SPLINE
  5
121
100
AcDbEntity
  8
3.1mm
 62
7
100
AcDbSpline
 70
0
 71
3
 72
10
 73
6
 74
4
 40
0.000000
 40
0.000000
 40
0.000000
 40
0.000000
 40
1.253882
 40
2.491116
 40
3.743745
 40
3.743745
 40
3.743745
 40
3.743745
 10
114.682259
 20
120.508350
 30
0.0
 10
114.266000
 20
120.546534
 30
0.0
 10
113.439008
 20
120.622396
 30
0.0
 10
112.191475
 20
120.673233
 30
0.0
 10
111.361475
 20
120.669834
 30
0.0
 10
110.943909
 20
120.668124
 30
0.0
 11
114.682259
 21
120.508350
 31
0.0
 11
113.432689
 21
120.612253
 31
0.0
 11
112.196530
 21
120.663836
 31
0.0
 11
110.943909
 21
120.668124
 31
0.0
  0
SPLINE
  5
122
100
AcDbEntity
  8
3.1mm
 62
7
100
AcDbSpline
 70
0
 71
3
 72
10
 73
6
 74
4
 40
0.000000
 40
0.000000
 40
0.000000
 40
0.000000
 40
2.186918
 40
4.373836
 40
6.560752
 40
6.560752
 40
6.560752
 40
6.560752
 10
47.905207
 20
88.859416
 30
0.0
 10
48.634180
 20
88.859416
 30
0.0
 10
50.092125
 20
88.859416
 30
0.0
 10
52.279043
 20
88.859416
 30
0.0
 10
53.736987
 20
88.859416
 30
0.0
 10
54.465959
 20
88.859416
 30
0.0
 11
47.905207
 21
88.859416
 31
0.0
 11
50.092125
 21
88.859416
 31
0.0
 11
52.279043
 21
88.859416
 31
0.0
 11
54.465959
 21
88.859416
 31
0.0
  0
SPLINE
  5
123
100
AcDbEntity
  8
3.1mm
 62
7
100
AcDbSpline
 70
0
 71
3
 72
10
 73
6
 74
4
 40
0.000000
 40
0.000000
 40
0.000000
 40
0.000000
 40
4.731877
 40
9.463755
 40
14.195634
 40
14.195634
 40
14.195634
 40
14.195634
 10
54.465959
 20
88.859416
 30
0.0
 10
54.465959
 20
90.436709
 30
0.0
 10
54.465959
 20
93.591294
 30
0.0
 10
54.465959
 20
98.323172
 30
0.0
 10
54.465959
 20
101.477757
 30
0.0
 10
54.465959
 20
103.055050
 30
0.0
 11
54.465959
 21
88.859416
 31
0.0
 11
54.465959
 21
93.591293
 31
0.0
 11
54.465959
 21
98.323172
 31
0.0
 11
54.465959
 21
103.055050
 31
0.0
  0
SPLINE
  5
124
100
AcDbEntity
  8
3.1mm
 62
7
100
AcDbSpline
 70
0
 71
3
 72
10
 73
6
 74
4
 40
0.000000
 40
0.000000
 40
0.000000
 40
0.000000
 40
6.706631
 40
13.413262
 40
20.119893
 40
20.119893
 40
20.119893
 40
20.119893
 10
54.465959
 20
103.055050
 30
0.0
 10
56.701503
 20
103.055050
 30
0.0
 10
61.172590
 20
103.055050
 30
0.0
 10
67.879222
 20
103.055050
 30
0.0
 10
72.350309
 20
103.055050
 30
0.0
 10
74.585853
 20
103.055050
 30
0.0
 11
54.465959
 21
103.055050
 31
0.0
 11
61.172590
 21
103.055050
 31
0.0
 11
67.879222
 21
103.055050
 31
0.0
 11
74.585853
 21
103.055050
 31
0.0
  0
SPLINE
  5
125
100
AcDbEntity
  8
3.1mm
 62
7
100
AcDbSpline
 70
0
 71
3
 72
10
 73
6
 74
4
 40
0.000000
 40
0.000000
 40
0.000000
 40
0.000000
 40
4.731879
 40
9.463757
 40
14.195634
 40
14.195634
 40
14.195634
 40
14.195634
 10
74.585853
 20
103.055050
 30
0.0
 10
74.585853
 20
101.477757
 30
0.0
 10
74.585853
 20
98.323172
 30
0.0
 10
74.585853
 20
93.591294
 30
0.0
 10
74.585853
 20
90.436709
 30
0.0
 10
74.585853
 20
88.859416
 30
0.0
 11
74.585853
 21
103.055050
 31
0.0
 11
74.585853
 21
98.323172
 31
0.0
 11
74.585853
 21
93.591293
 31
0.0
 11
74.585853
 21
88.859416
 31
0.0
  0
SPLINE
  5
126
100
AcDbEntity
  8
3.1mm
 62
7
100
AcDbSpline
 70
0
 71
3
 72
10
 73
6
 74
4
 40
0.000000
 40
0.000000
 40
0.000000
 40
0.000000
 40
2.186916
 40
4.373833
 40
6.560749
 40
6.560749
 40
6.560749
 40
6.560749
 10
74.585853
 20
88.859416
 30
0.0
 10
75.314825
 20
88.859416
 30
0.0
 10
76.772769
 20
88.859416
 30
0.0
 10
78.959686
 20
88.859416
 30
0.0
 10
80.417630
 20
88.859416
 30
0.0
 10
81.146602
 20
88.859416
 30
0.0
 11
74.585853
 21
88.859416
 31
0.0
 11
76.772769
 21
88.859416
 31
0.0
 11
78.959686
 21
88.859416
 31
0.0
 11
81.146602
 21
88.859416
 31
0.0
  0
SPLINE
  5
127
100
AcDbEntity
  8
3.1mm
 62
7
100
AcDbSpline
 70
0
 71
3
 72
10
 73
6
 74
4
 40
0.000000
 40
0.000000
 40
0.000000
 40
0.000000
 40
10.357750
 40
20.715498
 40
31.073248
 40
31.073248
 40
31.073248
 40
31.073248
 10
81.146602
 20
88.859416
 30
0.0
 10
81.146602
 20
92.312000
 30
0.0
 10
81.146602
 20
99.217166
 30
0.0
 10
81.146602
 20
109.574915
 30
0.0
 10
81.146602
 20
116.480081
 30
0.0
 10
81.146602
 20
119.932664
 30
0.0
 11
81.146602
 21
88.859416
 31
0.0
 11
81.146602
 21
99.217166
 31
0.0
 11
81.146602
 21
109.574915
 31
0.0
 11
81.146602
 21
119.932664
 31
0.0
  0
SPLINE
  5
128
100
AcDbEntity
  8
3.1mm
 62
7
100
AcDbSpline
 70
0
 71
3
 72
10
 73
6
 74
4
 40
0.000000
 40
0.000000
 40
0.000000
 40
0.000000
 40
2.186916
 40
4.373833
 40
6.560749
 40
6.560749
 40
6.560749
 40
6.560749
 10
81.146602
 20
119.932664
 30
0.0
 10
80.417630
 20
119.932664
 30
0.0
 10
78.959686
 20
119.932664
 30
0.0
 10
76.772769
 20
119.932664
 30
0.0
 10
75.314825
 20
119.932664
 30
0.0
 10
74.585853
 20
119.932664
 30
0.0
 11
81.146602
 21
119.932664
 31
0.0
 11
78.959686
 21
119.932664
 31
0.0
 11
76.772769
 21
119.932664
 31
0.0
 11
74.585853
 21
119.932664
 31
0.0
  0
SPLINE
  5
129
100
AcDbEntity
  8
3.1mm
 62
7
100
AcDbSpline
 70
0
 71
3
 72
10
 73
6
 74
4
 40
0.000000
 40
0.000000
 40
0.000000
 40
0.000000
 40
4.269549
 40
8.539097
 40
12.808644
 40
12.808644
 40
12.808644
 40
12.808644
 10
74.585853
 20
119.932664
 30
0.0
 10
74.585853
 20
118.509482
 30
0.0
 10
74.585853
 20
115.663116
 30
0.0
 10
74.585853
 20
111.393568
 30
0.0
 10
74.585853
 20
108.547203
 30
0.0
 10
74.585853
 20
107.124020
 30
0.0
 11
74.585853
 21
119.932664
 31
0.0
 11
74.585853
 21
115.663116
 31
0.0
 11
74.585853
 21
111.393567
 31
0.0
 11
74.585853
 21
107.124020
 31
0.0
  0
SPLINE
  5
12a
100
AcDbEntity
  8
3.1mm
 62
7
100
AcDbSpline
 70
0
 71
3
 72
10
 73
6
 74
4
 40
0.000000
 40
0.000000
 40
0.000000
 40
0.000000
 40
6.706631
 40
13.413262
 40
20.119893
 40
20.119893
 40
20.119893
 40
20.119893
 10
74.585853
 20
107.124020
 30
0.0
 10
72.350309
 20
107.124020
 30
0.0
 10
67.879222
 20
107.124020
 30
0.0
 10
61.172590
 20
107.124020
 30
0.0
 10
56.701503
 20
107.124020
 30
0.0
 10
54.465959
 20
107.124020
 30
0.0
 11
74.585853
 21
107.124020
 31
0.0
 11
67.879222
 21
107.124020
 31
0.0
 11
61.172590
 21
107.124020
 31
0.0
 11
54.465959
 21
107.124020
 31
0.0
  0
SPLINE
  5
12b
100
AcDbEntity
  8
3.1mm
 62
7
100
AcDbSpline
 70
0
 71
3
 72
10
 73
6
 74
4
 40
0.000000
 40
0.000000
 40
0.000000
 40
0.000000
 40
4.269547
 40
8.539096
 40
12.808644
 40
12.808644
 40
12.808644
 40
12.808644
 10
54.465959
 20
107.124020
 30
0.0
 10
54.465959
 20
108.547203
 30
0.0
 10
54.465959
 20
111.393568
 30
0.0
 10
54.465959
 20
115.663116
 30
0.0
 10
54.465959
 20
118.509482
 30
0.0
 10
54.465959
 20
119.932664
 30
0.0
 11
54.465959
 21
107.124020
 31
0.0
 11
54.465959
 21
111.393567
 31
0.0
 11
54.465959
 21
115.663116
 31
0.0
 11
54.465959
 21
119.932664
 31
0.0
  0
SPLINE
  5
12c
100
AcDbEntity
  8
3.1mm
 62
7
100
AcDbSpline
 70
0
 71
3
 72
10
 73
6
 74
4
 40
0.000000
 40
0.000000
 40
0.000000
 40
0.000000
 40
2.186916
 40
4.373834
 40
6.560752
 40
6.560752
 40
6.560752
 40
6.560752
 10
54.465959
 20
119.932664
 30
0.0
 10
53.736987
 20
119.932664
 30
0.0
 10
52.279043
 20
119.932664
 30
0.0
 10
50.092125
 20
119.932664
 30
0.0
 10
48.634180
 20
119.932664
 30
0.0
 10
47.905207
 20
119.932664
 30
0.0
 11
54.465959
 21
119.932664
 31
0.0
 11
52.279043
 21
119.932664
 31
0.0
 11
50.092125
 21
119.932664
 31
0.0
 11
47.905207
 21
119.932664
 31
0.0
  0
LINE
  5
12d
100
AcDbEntity
  8
3.1mm
 62
7
100
AcDbLine
 10
47.905207
 20
88.859416
 30
0.0
 11
47.905207
 21
88.859416
 31
0.0
  0
SPLINE
  5
12e
100
AcDbEntity
  8
3.1mm
 62
7
100
AcDbSpline
 70
0
 71
3
 72
10
 73
6
 74
4
 40
0.000000
 40
0.000000
 40
0.000000
 40
0.000000
 40
10.357750
 40
20.715498
 40
31.073248
 40
31.073248
 40
31.073248
 40
31.073248
 10
47.905207
 20
119.932664
 30
0.0
 10
47.905207
 20
116.480081
 30
0.0
 10
47.905207
 20
109.574915
 30
0.0
 10
47.905207
 20
99.217166
 30
0.0
 10
47.905207
 20
92.312000
 30
0.0
 10
47.905207
 20
88.859416
 30
0.0
 11
47.905207
 21
119.932664
 31
0.0
 11
47.905207
 21
109.574915
 31
0.0
 11
47.905207
 21
99.217166
 31
0.0
 11
47.905207
 21
88.859416
 31
0.0
  0
SPLINE
  5
12f
100
AcDbEntity
  8
3.1mm
 62
7
100
AcDbSpline
 70
0
 71
3
 72
10
 73
6
 74
4
 40
0.000000
 40
0.000000
 40
0.000000
 40
0.000000
 40
10.287570
 40
20.562457
 40
30.830160
 40
30.830160
 40
30.830160
 40
30.830160
 10
143.611179
 20
119.519652
 30
0.0
 10
143.122940
 20
116.124953
 30
0.0
 10
142.147064
 20
109.339740
 30
0.0
 10
141.178061
 20
99.105323
 30
0.0
 10
140.709498
 20
92.273922
 30
0.0
 10
140.475298
 20
88.859416
 30
0.0
 11
143.611179
 21
119.519652
 31
0.0
 11
142.228961
 21
109.325361
 31
0.0
 11
141.222140
 21
99.099922
 31
0.0
 11
140.475298
 21
88.859416
 31
0.0
  0
SPLINE
  5
130
100
AcDbEntity
  8
3.1mm
 62
7
100
AcDbSpline
 70
0
 71
3
 72
10
 73
6
 74
4
 40
0.000000
 40
0.000000
 40
0.000000
 40
0.000000
 40
2.141849
 40
4.283700
 40
6.425551
 40
6.425551
 40
6.425551
 40
6.425551
 10
140.475298
 20
88.859416
 30
0.0
 10
141.189248
 20
88.859416
 30
0.0
 10
142.617148
 20
88.859416
 30
0.0
 10
144.758998
 20
88.859416
 30
0.0
 10
146.186899
 20
88.859416
 30
0.0
 10
146.900849
 20
88.859416
 30
0.0
 11
140.475298
 21
88.859416
 31
0.0
 11
142.617148
 21
88.859416
 31
0.0
 11
144.758998
 21
88.859416
 31
0.0
 11
146.900849
 21
88.859416
 31
0.0
  0
SPLINE
  5
131
100
AcDbEntity
  8
3.1mm
 62
7
100
AcDbSpline
 70
0
 71
3
 72
10
 73
6
 74
4
 40
0.000000
 40
0.000000
 40
0.000000
 40
0.000000
 40
8.107297
 40
16.218408
 40
24.342651
 40
24.342651
 40
24.342651
 40
24.342651
 10
146.900849
 20
88.859416
 30
0.0
 10
147.020334
 20
91.559082
 30
0.0
 10
147.259360
 20
96.959682
 30
0.0
 10
147.761224
 20
105.061290
 30
0.0
 10
148.395518
 20
110.436787
 30
0.0
 10
148.712922
 20
113.126709
 30
0.0
 11
146.900849
 21
88.859416
 31
0.0
 11
147.283129
 21
96.957696
 31
0.0
 11
147.835726
 21
105.049961
 31
0.0
 11
148.712922
 21
113.126709
 31
0.0
  0
SPLINE
  5
132
100
AcDbEntity
  8
3.1mm
 62
7
100
AcDbSpline
 70
0
 71
3
 72
10
 73
6
 74
4
 40
0.000000
 40
0.000000
 40
0.000000
 40
0.000000
 40
7.852928
 40
15.653358
 40
23.435743
 40
23.435743
 40
23.435743
 40
23.435743
 10
148.712922
 20
113.126709
 30
0.0
 10
150.140753
 20
110.932414
 30
0.0
 10
152.986871
 20
106.558493
 30
0.0
 10
156.966176
 20
99.834443
 30
0.0
 10
159.590295
 20
95.351961
 30
0.0
 10
160.900835
 20
93.113315
 30
0.0
 11
148.712922
 21
113.126709
 31
0.0
 11
152.949041
 21
106.514314
 31
0.0
 11
156.963781
 21
99.826371
 31
0.0
 11
160.900835
 21
93.113315
 31
0.0
  0
SPLINE
  5
133
100
AcDbEntity
  8
3.1mm
 62
7
100
AcDbSpline
 70
0
 71
3
 72
10
 73
6
 74
4
 40
0.000000
 40
0.000000
 40
0.000000
 40
0.000000
 40
1.989516
 40
4.052029
 40
5.589976
 40
5.589976
 40
5.589976
 40
5.589976
 10
160.900835
 20
93.113315
 30
0.0
 10
161.558140
 20
93.149274
 30
0.0
 10
162.896866
 20
93.222510
 30
0.0
 10
164.844279
 20
92.766104
 30
0.0
 10
165.868821
 20
93.477158
 30
0.0
 10
166.306458
 20
93.780887
 30
0.0
 11
160.900835
 21
93.113315
 31
0.0
 11
162.890324
 21
93.123779
 31
0.0
 11
164.951624
 21
93.053076
 31
0.0
 11
166.306458
 21
93.780887
 31
0.0
  0
SPLINE
  5
134
100
AcDbEntity
  8
3.1mm
 62
7
100
AcDbSpline
 70
0
 71
3
 72
10
 73
6
 74
4
 40
0.000000
 40
0.000000
 40
0.000000
 40
0.000000
 40
7.537332
 40
15.098570
 40
22.697608
 40
22.697608
 40
22.697608
 40
22.697608
 10
166.306458
 20
93.780887
 30
0.0
 10
167.570474
 20
95.952191
 30
0.0
 10
170.102516
 20
100.301685
 30
0.0
 10
174.000907
 20
106.786887
 30
0.0
 10
176.727617
 20
111.041825
 30
0.0
 10
178.094372
 20
113.174599
 30
0.0
 11
166.306458
 21
93.780887
 31
0.0
 11
170.113756
 21
100.285951
 31
0.0
 11
174.024982
 21
106.757011
 31
0.0
 11
178.094372
 21
113.174599
 31
0.0
  0
SPLINE
  5
135
100
AcDbEntity
  8
3.1mm
 62
7
100
AcDbSpline
 70
0
 71
3
 72
10
 73
6
 74
4
 40
0.000000
 40
0.000000
 40
0.000000
 40
0.000000
 40
8.138509
 40
16.265349
 40
24.389083
 40
24.389083
 40
24.389083
 40
24.389083
 10
178.094372
 20
113.174599
 30
0.0
 10
178.403788
 20
110.478948
 30
0.0
 10
179.022175
 20
105.091510
 30
0.0
 10
179.504185
 20
96.973583
 30
0.0
 10
179.774936
 20
91.563794
 30
0.0
 10
179.910286
 20
88.859416
 30
0.0
 11
178.094372
 21
113.174599
 31
0.0
 11
178.948280
 21
105.081011
 31
0.0
 11
179.491638
 21
96.972356
 31
0.0
 11
179.910286
 21
88.859416
 31
0.0
  0
SPLINE
  5
136
100
AcDbEntity
  8
3.1mm
 62
7
100
AcDbSpline
 70
0
 71
3
 72
10
 73
6
 74
4
 40
0.000000
 40
0.000000
 40
0.000000
 40
0.000000
 40
2.141637
 40
4.283273
 40
6.424910
 40
6.424910
 40
6.424910
 40
6.424910
 10
179.910286
 20
88.859416
 30
0.0
 10
180.624165
 20
88.859416
 30
0.0
 10
182.051922
 20
88.859416
 30
0.0
 10
184.193559
 20
88.859416
 30
0.0
 10
185.621317
 20
88.859416
 30
0.0
 10
186.335196
 20
88.859416
 30
0.0
 11
179.910286
 21
88.859416
 31
0.0
 11
182.051923
 21
88.859416
 31
0.0
 11
184.193559
 21
88.859416
 31
0.0
 11
186.335196
 21
88.859416
 31
0.0
  0
SPLINE
  5
137
100
AcDbEntity
  8
3.1mm
 62
7
100
AcDbSpline
 70
0
 71
3
 72
10
 73
6
 74
4
 40
0.000000
 40
0.000000
 40
0.000000
 40
0.000000
 40
10.405298
 40
20.817311
 40
31.246238
 40
31.246238
 40
31.246238
 40
31.246238
 10
186.335196
 20
88.859416
 30
0.0
 10
186.074589
 20
92.317939
 30
0.0
 10
185.553208
 20
99.237216
 30
0.0
 10
184.589051
 20
109.610829
 30
0.0
 10
183.615406
 20
116.490191
 30
0.0
 10
183.128189
 20
119.932664
 30
0.0
 11
186.335196
 21
88.859416
 31
0.0
 11
185.523152
 21
99.232980
 31
0.0
 11
184.507067
 21
109.595295
 31
0.0
 11
183.128189
 21
119.932664
 31
0.0
  0
SPLINE
  5
138
100
AcDbEntity
  8
3.1mm
 62
7
100
AcDbSpline
 70
0
 71
3
 72
10
 73
6
 74
4
 40
0.000000
 40
0.000000
 40
0.000000
 40
0.000000
 40
2.153776
 40
4.345224
 40
6.332046
 40
6.332046
 40
6.332046
 40
6.332046
 10
183.128189
 20
119.932664
 30
0.0
 10
182.410593
 20
119.918963
 30
0.0
 10
180.962850
 20
119.891320
 30
0.0
 10
178.847362
 20
120.047742
 30
0.0
 10
177.467208
 20
119.829312
 30
0.0
 10
176.810927
 20
119.725446
 30
0.0
 11
183.128189
 21
119.932664
 31
0.0
 11
180.974428
 21
119.924723
 31
0.0
 11
178.783338
 21
119.964316
 31
0.0
 11
176.810927
 21
119.725446
 31
0.0
  0
SPLINE
  5
139
100
AcDbEntity
  8
3.1mm
 62
7
100
AcDbSpline
 70
0
 71
3
 72
10
 73
6
 74
4
 40
0.000000
 40
0.000000
 40
0.000000
 40
0.000000
 40
8.417408
 40
16.731398
 40
25.018596
 40
25.018596
 40
25.018596
 40
25.018596
 10
176.810927
 20
119.725446
 30
0.0
 10
175.202243
 20
117.425466
 30
0.0
 10
172.004640
 20
112.853763
 30
0.0
 10
167.727270
 20
105.689762
 30
0.0
 10
164.929211
 20
100.916176
 30
0.0
 10
163.532439
 20
98.533235
 30
0.0
 11
176.810927
 21
119.725446
 31
0.0
 11
172.070190
 21
112.770005
 31
0.0
 11
167.732773
 21
105.677103
 31
0.0
 11
163.532439
 21
98.533235
 31
0.0
  0
SPLINE
  5
13a
100
AcDbEntity
  8
3.1mm
 62
7
100
AcDbSpline
 70
0
 71
3
 72
10
 73
6
 74
4
 40
0.000000
 40
0.000000
 40
0.000000
 40
0.000000
 40
8.386373
 40
16.797133
 40
25.313145
 40
25.313145
 40
25.313145
 40
25.313145
 10
163.532439
 20
98.533235
 30
0.0
 10
162.102940
 20
100.935216
 30
0.0
 10
159.239786
 20
105.746164
 30
0.0
 10
154.909888
 20
112.993259
 30
0.0
 10
151.662720
 20
117.609960
 30
0.0
 10
150.029040
 20
119.932664
 30
0.0
 11
163.532439
 21
98.533235
 31
0.0
 11
159.241437
 21
105.738689
 31
0.0
 11
154.841035
 21
112.906488
 31
0.0
 11
150.029040
 21
119.932664
 31
0.0
  0
LINE
  5
13b
100
AcDbEntity
  8
3.1mm
 62
7
100
AcDbLine
 10
143.679099
 20
119.932664
 30
0.0
 11
143.639469
 21
119.691661
 31
0.0
  0
LINE
  5
13c
100
AcDbEntity
  8
3.1mm
 62
7
100
AcDbLine
 10
143.639469
 20
119.691661
 30
0.0
 11
143.611179
 21
119.519652
 31
0.0
  0
LINE
  5
13d
100
AcDbEntity
  8
3.1mm
 62
7
100
AcDbLine
 10
143.611179
 20
119.519652
 30
0.0
 11
143.611179
 21
119.519652
 31
0.0
  0
SPLINE
  5
13e
100
AcDbEntity
  8
3.1mm
 62
7
100
AcDbSpline
 70
0
 71
3
 72
10
 73
6
 74
4
 40
0.000000
 40
0.000000
 40
0.000000
 40
0.000000
 40
2.116645
 40
4.233292
 40
6.349941
 40
6.349941
 40
6.349941
 40
6.349941
 10
150.029040
 20
119.932664
 30
0.0
 10
149.323491
 20
119.932664
 30
0.0
 10
147.912394
 20
119.932664
 30
0.0
 10
145.795747
 20
119.932664
 30
0.0
 10
144.384649
 20
119.932664
 30
0.0
 10
143.679099
 20
119.932664
 30
0.0
 11
150.029040
 21
119.932664
 31
0.0
 11
147.912395
 21
119.932664
 31
0.0
 11
145.795748
 21
119.932664
 31
0.0
 11
143.679099
 21
119.932664
 31
0.0
  0
SPLINE
  5
13f
100
AcDbEntity
  8
3.1mm
 62
7
100
AcDbSpline
 70
0
 71
3
 72
10
 73
6
 74
4
 40
0.000000
 40
0.000000
 40
0.000000
 40
0.000000
 40
9.330762
 40
18.661523
 40
27.992282
 40
27.992282
 40
27.992282
 40
27.992282
 10
196.914158
 20
88.859416
 30
0.0
 10
200.024412
 20
88.859416
 30
0.0
 10
206.244919
 20
88.859416
 30
0.0
 10
215.575680
 20
88.859416
 30
0.0
 10
221.796186
 20
88.859416
 30
0.0
 10
224.906439
 20
88.859416
 30
0.0
 11
196.914158
 21
88.859416
 31
0.0
 11
206.244920
 21
88.859416
 31
0.0
 11
215.575681
 21
88.859416
 31
0.0
 11
224.906439
 21
88.859416
 31
0.0
  0
SPLINE
  5
140
100
AcDbEntity
  8
3.1mm
 62
7
100
AcDbSpline
 70
0
 71
3
 72
10
 73
6
 74
4
 40
0.000000
 40
0.000000
 40
0.000000
 40
0.000000
 40
1.472314
 40
3.045316
 40
4.241684
 40
4.241684
 40
4.241684
 40
4.241684
 10
224.906439
 20
88.859416
 30
0.0
 10
224.863594
 20
89.342597
 30
0.0
 10
224.774974
 20
90.342001
 30
0.0
 10
225.295206
 20
91.868877
 30
0.0
 10
224.565524
 20
92.544186
 30
0.0
 10
224.250301
 20
92.835919
 30
0.0
 11
224.906439
 21
88.859416
 31
0.0
 11
224.885921
 21
90.331587
 31
0.0
 11
224.996405
 21
91.900704
 31
0.0
 11
224.250301
 21
92.835919
 31
0.0
  0
SPLINE
  5
141
100
AcDbEntity
  8
3.1mm
 62
7
100
AcDbSpline
 70
0
 71
3
 72
10
 73
6
 74
4
 40
0.000000
 40
0.000000
 40
0.000000
 40
0.000000
 40
6.925343
 40
13.850686
 40
20.776029
 40
20.776029
 40
20.776029
 40
20.776029
 10
224.250301
 20
92.835919
 30
0.0
 10
221.941853
 20
92.835919
 30
0.0
 10
217.324958
 20
92.835919
 30
0.0
 10
210.399615
 20
92.835919
 30
0.0
 10
205.782720
 20
92.835919
 30
0.0
 10
203.474272
 20
92.835919
 30
0.0
 11
224.250301
 21
92.835919
 31
0.0
 11
217.324958
 21
92.835919
 31
0.0
 11
210.399615
 21
92.835919
 31
0.0
 11
203.474272
 21
92.835919
 31
0.0
  0
SPLINE
  5
142
100
AcDbEntity
  8
3.1mm
 62
7
100
AcDbSpline
 70
0
 71
3
 72
10
 73
6
 74
4
 40
0.000000
 40
0.000000
 40
0.000000
 40
0.000000
 40
3.452689
 40
6.905377
 40
10.358066
 40
10.358066
 40
10.358066
 40
10.358066
 10
203.474272
 20
92.835919
 30
0.0
 10
203.474272
 20
93.986815
 30
0.0
 10
203.474272
 20
96.288608
 30
0.0
 10
203.474272
 20
99.741297
 30
0.0
 10
203.474272
 20
102.043089
 30
0.0
 10
203.474272
 20
103.193985
 30
0.0
 11
203.474272
 21
92.835919
 31
0.0
 11
203.474272
 21
96.288608
 31
0.0
 11
203.474272
 21
99.741296
 31
0.0
 11
203.474272
 21
103.193985
 31
0.0
  0
SPLINE
  5
143
100
AcDbEntity
  8
3.1mm
 62
7
100
AcDbSpline
 70
0
 71
3
 72
10
 73
6
 74
4
 40
0.000000
 40
0.000000
 40
0.000000
 40
0.000000
 40
5.915290
 40
11.830579
 40
17.745871
 40
17.745871
 40
17.745871
 40
17.745871
 10
203.474272
 20
103.193985
 30
0.0
 10
205.446035
 20
103.193985
 30
0.0
 10
209.389562
 20
103.193985
 30
0.0
 10
215.304852
 20
103.193985
 30
0.0
 10
219.248379
 20
103.193985
 30
0.0
 10
221.220143
 20
103.193985
 30
0.0
 11
203.474272
 21
103.193985
 31
0.0
 11
209.389562
 21
103.193985
 31
0.0
 11
215.304851
 21
103.193985
 31
0.0
 11
221.220143
 21
103.193985
 31
0.0
  0
SPLINE
  5
144
100
AcDbEntity
  8
3.1mm
 62
7
100
AcDbSpline
 70
0
 71
3
 72
10
 73
6
 74
4
 40
0.000000
 40
0.000000
 40
0.000000
 40
0.000000
 40
1.527999
 40
3.132551
 40
4.432335
 40
4.432335
 40
4.432335
 40
4.432335
 10
221.220143
 20
103.193985
 30
0.0
 10
221.175355
 20
103.688041
 30
0.0
 10
221.083535
 20
104.700906
 30
0.0
 10
221.676190
 20
106.406264
 30
0.0
 10
220.681215
 20
106.870334
 30
0.0
 10
220.235932
 20
107.078021
 30
0.0
 11
221.220143
 21
103.193985
 31
0.0
 11
221.207284
 21
104.721930
 31
0.0
 11
221.294723
 21
106.324099
 31
0.0
 11
220.235932
 21
107.078021
 31
0.0
  0
SPLINE
  5
145
100
AcDbEntity
  8
3.1mm
 62
7
100
AcDbSpline
 70
0
 71
3
 72
10
 73
6
 74
4
 40
0.000000
 40
0.000000
 40
0.000000
 40
0.000000
 40
5.587220
 40
11.174440
 40
16.761660
 40
16.761660
 40
16.761660
 40
16.761660
 10
220.235932
 20
107.078021
 30
0.0
 10
218.373526
 20
107.078021
 30
0.0
 10
214.648712
 20
107.078021
 30
0.0
 10
209.061492
 20
107.078021
 30
0.0
 10
205.336679
 20
107.078021
 30
0.0
 10
203.474272
 20
107.078021
 30
0.0
 11
220.235932
 21
107.078021
 31
0.0
 11
214.648712
 21
107.078021
 31
0.0
 11
209.061492
 21
107.078021
 31
0.0
 11
203.474272
 21
107.078021
 31
0.0
  0
SPLINE
  5
146
100
AcDbEntity
  8
3.1mm
 62
7
100
AcDbSpline
 70
0
 71
3
 72
10
 73
6
 74
4
 40
0.000000
 40
0.000000
 40
0.000000
 40
0.000000
 40
2.959381
 40
5.918761
 40
8.878138
 40
8.878138
 40
8.878138
 40
8.878138
 10
203.474272
 20
107.078021
 30
0.0
 10
203.474272
 20
108.064481
 30
0.0
 10
203.474272
 20
110.037401
 30
0.0
 10
203.474272
 20
112.996781
 30
0.0
 10
203.474272
 20
114.969700
 30
0.0
 10
203.474272
 20
115.956159
 30
0.0
 11
203.474272
 21
107.078021
 31
0.0
 11
203.474272
 21
110.037402
 31
0.0
 11
203.474272
 21
112.996782
 31
0.0
 11
203.474272
 21
115.956159
 31
0.0
  0
SPLINE
  5
147
100
AcDbEntity
  8
3.1mm
 62
7
100
AcDbSpline
 70
0
 71
3
 72
10
 73
6
 74
4
 40
0.000000
 40
0.000000
 40
0.000000
 40
0.000000
 40
6.644263
 40
13.288526
 40
19.932788
 40
19.932788
 40
19.932788
 40
19.932788
 10
203.474272
 20
115.956159
 30
0.0
 10
205.689026
 20
115.956159
 30
0.0
 10
210.118535
 20
115.956159
 30
0.0
 10
216.762798
 20
115.956159
 30
0.0
 10
221.192306
 20
115.956159
 30
0.0
 10
223.407060
 20
115.956159
 30
0.0
 11
203.474272
 21
115.956159
 31
0.0
 11
210.118535
 21
115.956159
 31
0.0
 11
216.762798
 21
115.956159
 31
0.0
 11
223.407060
 21
115.956159
 31
0.0
  0
SPLINE
  5
148
100
AcDbEntity
  8
3.1mm
 62
7
100
AcDbSpline
 70
0
 71
3
 72
10
 73
6
 74
4
 40
0.000000
 40
0.000000
 40
0.000000
 40
0.000000
 40
1.472314
 40
3.045318
 40
4.241687
 40
4.241687
 40
4.241687
 40
4.241687
 10
223.407060
 20
115.956159
 30
0.0
 10
223.364215
 20
116.439340
 30
0.0
 10
223.275595
 20
117.438744
 30
0.0
 10
223.795827
 20
118.965622
 30
0.0
 10
223.066145
 20
119.640931
 30
0.0
 10
222.750922
 20
119.932664
 30
0.0
 11
223.407060
 21
115.956159
 31
0.0
 11
223.386542
 21
117.428330
 31
0.0
 11
223.497026
 21
118.997449
 31
0.0
 11
222.750922
 21
119.932664
 31
0.0
  0
SPLINE
  5
149
100
AcDbEntity
  8
3.1mm
 62
7
100
AcDbSpline
 70
0
 71
3
 72
10
 73
6
 74
4
 40
0.000000
 40
0.000000
 40
0.000000
 40
0.000000
 40
8.612254
 40
17.224508
 40
25.836764
 40
25.836764
 40
25.836764
 40
25.836764
 10
222.750922
 20
119.932664
 30
0.0
 10
219.880171
 20
119.932664
 30
0.0
 10
214.138668
 20
119.932664
 30
0.0
 10
205.526413
 20
119.932664
 30
0.0
 10
199.784910
 20
119.932664
 30
0.0
 10
196.914158
 20
119.932664
 30
0.0
 11
222.750922
 21
119.932664
 31
0.0
 11
214.138668
 21
119.932664
 31
0.0
 11
205.526413
 21
119.932664
 31
0.0
 11
196.914158
 21
119.932664
 31
0.0
  0
LINE
  5
14a
100
AcDbEntity
  8
3.1mm
 62
7
100
AcDbLine
 10
196.914158
 20
88.859416
 30
0.0
 11
196.914158
 21
88.859416
 31
0.0
  0
SPLINE
  5
14b
100
AcDbEntity
  8
3.1mm
 62
7
100
AcDbSpline
 70
0
 71
3
 72
10
 73
6
 74
4
 40
0.000000
 40
0.000000
 40
0.000000
 40
0.000000
 40
10.357750
 40
20.715498
 40
31.073248
 40
31.073248
 40
31.073248
 40
31.073248
 10
196.914158
 20
119.932664
 30
0.0
 10
196.914158
 20
116.480081
 30
0.0
 10
196.914158
 20
109.574915
 30
0.0
 10
196.914158
 20
99.217166
 30
0.0
 10
196.914158
 20
92.312000
 30
0.0
 10
196.914158
 20
88.859416
 30
0.0
 11
196.914158
 21
119.932664
 31
0.0
 11
196.914158
 21
109.574915
 31
0.0
 11
196.914158
 21
99.217166
 31
0.0
 11
196.914158
 21
88.859416
 31
0.0
  0
SPLINE
  5
14c
100
AcDbEntity
  8
3.1mm
 62
7
100
AcDbSpline
 70
0
 71
3
 72
10
 73
6
 74
4
 40
0.000000
 40
0.000000
 40
0.000000
 40
0.000000
 40
5.345107
 40
10.269420
 40
14.652026
 40
14.652026
 40
14.652026
 40
14.652026
 10
111.403974
 20
116.510957
 30
0.0
 10
113.187373
 20
116.374439
 30
0.0
 10
116.613774
 20
116.112151
 30
0.0
 10
121.169626
 20
113.755548
 30
0.0
 10
122.867821
 20
111.112329
 30
0.0
 10
123.667497
 20
109.867644
 30
0.0
 11
111.403974
 21
116.510957
 31
0.0
 11
116.690980
 21
115.724998
 31
0.0
 11
121.003337
 21
113.347512
 31
0.0
 11
123.667497
 21
109.867644
 31
0.0
  0
SPLINE
  5
14d
100
AcDbEntity
  8
3.1mm
 62
7
100
AcDbSpline
 70
0
 71
3
 72
10
 73
6
 74
4
 40
0.000000
 40
0.000000
 40
0.000000
 40
0.000000
 40
4.485717
 40
8.927562
 40
13.540566
 40
13.540566
 40
13.540566
 40
13.540566
 10
123.667497
 20
109.867644
 30
0.0
 10
124.132375
 20
108.439370
 30
0.0
 10
125.057584
 20
105.596791
 30
0.0
 10
124.742352
 20
100.914422
 30
0.0
 10
123.208863
 20
98.278870
 30
0.0
 10
122.427625
 20
96.936185
 30
0.0
 11
123.667497
 21
109.867644
 31
0.0
 11
124.776078
 21
105.521070
 31
0.0
 11
124.428048
 21
101.092879
 31
0.0
 11
122.427625
 21
96.936185
 31
0.0
  0
SPLINE
  5
14e
100
AcDbEntity
  8
3.1mm
 62
7
100
AcDbSpline
 70
0
 71
3
 72
10
 73
6
 74
4
 40
0.000000
 40
0.000000
 40
0.000000
 40
0.000000
 40
4.892439
 40
10.346013
 40
15.982053
 40
15.982053
 40
15.982053
 40
15.982053
 10
122.427625
 20
96.936185
 30
0.0
 10
121.223550
 20
95.805200
 30
0.0
 10
118.677301
 20
93.413512
 30
0.0
 10
113.270573
 20
92.089299
 30
0.0
 10
109.589685
 20
92.474921
 30
0.0
 10
107.718959
 20
92.670904
 30
0.0
 11
122.427625
 21
96.936185
 31
0.0
 11
118.602114
 21
93.886360
 31
0.0
 11
113.349406
 21
92.419891
 31
0.0
 11
107.718959
 21
92.670904
 31
0.0
  0
SPLINE
  5
14f
100
AcDbEntity
  8
3.1mm
 62
7
100
AcDbSpline
 70
0
 71
3
 72
10
 73
6
 74
4
 40
0.000000
 40
0.000000
 40
0.000000
 40
0.000000
 40
4.826611
 40
9.141805
 40
13.071459
 40
13.071459
 40
13.071459
 40
13.071459
 10
107.718959
 20
92.670904
 30
0.0
 10
106.163580
 20
93.125176
 30
0.0
 10
103.217628
 20
93.985586
 30
0.0
 10
99.796810
 20
97.019784
 30
0.0
 10
98.836494
 20
99.625575
 30
0.0
 10
98.378789
 20
100.867546
 30
0.0
 11
107.718959
 21
92.670904
 31
0.0
 11
103.207122
 21
94.385402
 31
0.0
 11
100.023907
 21
97.298825
 31
0.0
 11
98.378789
 21
100.867546
 31
0.0
  0
SPLINE
  5
150
100
AcDbEntity
  8
3.1mm
 62
7
100
AcDbSpline
 70
0
 71
3
 72
10
 73
6
 74
4
 40
0.000000
 40
0.000000
 40
0.000000
 40
0.000000
 40
4.791636
 40
9.660789
 40
14.984126
 40
14.984126
 40
14.984126
 40
14.984126
 10
98.378789
 20
100.867546
 30
0.0
 10
98.135640
 20
102.451093
 30
0.0
 10
97.645408
 20
105.643805
 30
0.0
 10
98.961011
 20
110.748706
 30
0.0
 10
101.551803
 20
113.049394
 30
0.0
 10
102.904922
 20
114.250998
 30
0.0
 11
98.378789
 21
100.867546
 31
0.0
 11
97.978605
 21
105.642442
 31
0.0
 11
99.308164
 21
110.326556
 31
0.0
 11
102.904922
 21
114.250998
 31
0.0
  0
LINE
  5
151
100
AcDbEntity
  8
3.1mm
 62
7
100
AcDbLine
 10
111.403974
 20
116.510957
 30
0.0
 11
111.403974
 21
116.510957
 31
0.0
  0
SPLINE
  5
152
100
AcDbEntity
  8
3.1mm
 62
7
100
AcDbSpline
 70
0
 71
3
 72
10
 73
6
 74
4
 40
0.000000
 40
0.000000
 40
0.000000
 40
0.000000
 40
2.847606
 40
5.836338
 40
8.905211
 40
8.905211
 40
8.905211
 40
8.905211
 10
102.904922
 20
114.250998
 30
0.0
 10
103.737566
 20
114.713015
 30
0.0
 10
105.444119
 20
115.659947
 30
0.0
 10
108.361766
 20
116.384523
 30
0.0
 10
110.381000
 20
116.468442
 30
0.0
 10
111.403974
 20
116.510957
 30
0.0
 11
102.904922
 21
114.250998
 31
0.0
 11
105.451804
 21
115.524674
 31
0.0
 11
108.343921
 21
116.278450
 31
0.0
 11
111.403974
 21
116.510957
 31
0.0
  0
SPLINE
  5
153
100
AcDbEntity
  8
3.1mm
 62
7
100
AcDbSpline
 70
0
 71
3
 72
10
 73
6
 74
4
 40
0.000000
 40
0.000000
 40
0.000000
 40
0.000000
 40
5.086461
 40
9.911898
 40
14.000485
 40
14.000485
 40
14.000485
 40
14.000485
 10
60.052498
 20
83.910492
 30
0.0
 10
58.371267
 20
83.809869
 30
0.0
 10
55.095083
 20
83.613786
 30
0.0
 10
50.389333
 20
82.087219
 30
0.0
 10
48.715352
 20
79.542648
 30
0.0
 10
47.947549
 20
78.375533
 30
0.0
 11
60.052498
 21
83.910492
 31
0.0
 11
54.994234
 21
83.375651
 31
0.0
 11
50.529107
 21
81.546038
 31
0.0
 11
47.947549
 21
78.375533
 31
0.0
  0
SPLINE
  5
154
100
AcDbEntity
  8
3.1mm
 62
7
100
AcDbSpline
 70
0
 71
3
 72
10
 73
6
 74
4
 40
0.000000
 40
0.000000
 40
0.000000
 40
0.000000
 40
3.000427
 40
6.110965
 40
9.720445
 40
9.720445
 40
9.720445
 40
9.720445
 10
47.947549
 20
78.375533
 30
0.0
 10
47.734840
 20
77.374030
 30
0.0
 10
47.301617
 20
75.334271
 30
0.0
 10
48.927445
 20
72.207603
 30
0.0
 10
50.912590
 20
71.107157
 30
0.0
 10
51.978859
 20
70.516081
 30
0.0
 11
47.947549
 21
78.375533
 31
0.0
 11
47.660263
 21
75.388890
 31
0.0
 11
49.028501
 21
72.595439
 31
0.0
 11
51.978859
 21
70.516081
 31
0.0
  0
SPLINE
  5
155
100
AcDbEntity
  8
3.1mm
 62
7
100
AcDbSpline
 70
0
 71
3
 72
10
 73
6
 74
4
 40
0.000000
 40
0.000000
 40
0.000000
 40
0.000000
 40
4.936609
 40
9.980712
 40
14.585153
 40
14.585153
 40
14.585153
 40
14.585153
 10
51.978859
 20
70.516081
 30
0.0
 10
53.521173
 20
69.944080
 30
0.0
 10
56.639385
 20
68.787622
 30
0.0
 10
61.501853
 20
67.931104
 30
0.0
 10
64.223252
 20
66.157005
 30
0.0
 10
65.521947
 20
65.310377
 30
0.0
 11
51.978859
 21
70.516081
 31
0.0
 11
56.656982
 21
68.939607
 31
0.0
 11
61.513069
 21
67.575275
 31
0.0
 11
65.521947
 21
65.310377
 31
0.0
  0
SPLINE
  5
156
100
AcDbEntity
  8
3.1mm
 62
7
100
AcDbSpline
 70
0
 71
3
 72
10
 73
6
 74
4
 40
0.000000
 40
0.000000
 40
0.000000
 40
0.000000
 40
2.437785
 40
4.903780
 40
7.919160
 40
7.919160
 40
7.919160
 40
7.919160
 10
65.521947
 20
65.310377
 30
0.0
 10
65.954992
 20
64.565220
 30
0.0
 10
66.826092
 20
63.066283
 30
0.0
 10
65.368310
 20
60.349681
 30
0.0
 10
63.576797
 20
59.805838
 30
0.0
 10
62.591261
 20
59.506663
 30
0.0
 11
65.521947
 21
65.310377
 31
0.0
 11
66.382717
 21
63.029616
 31
0.0
 11
65.311069
 21
60.808647
 31
0.0
 11
62.591261
 21
59.506663
 31
0.0
  0
SPLINE
  5
157
100
AcDbEntity
  8
3.1mm
 62
7
100
AcDbSpline
 70
0
 71
3
 72
10
 73
6
 74
4
 40
0.000000
 40
0.000000
 40
0.000000
 40
0.000000
 40
4.759948
 40
9.529939
 40
14.179577
 40
14.179577
 40
14.179577
 40
14.179577
 10
62.591261
 20
59.506663
 30
0.0
 10
61.012716
 20
59.317642
 30
0.0
 10
57.852295
 20
58.939201
 30
0.0
 10
53.102605
 20
59.404976
 30
0.0
 10
50.089257
 20
60.299558
 30
0.0
 10
48.601833
 20
60.741134
 30
0.0
 11
62.591261
 21
59.506663
 31
0.0
 11
57.847694
 21
59.112107
 31
0.0
 11
53.098682
 21
59.558982
 31
0.0
 11
48.601833
 21
60.741134
 31
0.0
  0
SPLINE
  5
158
100
AcDbEntity
  8
3.1mm
 62
7
100
AcDbSpline
 70
0
 71
3
 72
10
 73
6
 74
4
 40
0.000000
 40
0.000000
 40
0.000000
 40
0.000000
 40
1.399106
 40
2.909818
 40
3.969064
 40
3.969064
 40
3.969064
 40
3.969064
 10
48.601833
 20
60.741134
 30
0.0
 10
48.442100
 20
60.315494
 30
0.0
 10
48.109893
 20
59.430262
 30
0.0
 10
46.903580
 20
58.318802
 30
0.0
 10
47.478621
 20
57.548462
 30
0.0
 10
47.715633
 20
57.230955
 30
0.0
 11
48.601833
 21
60.741134
 31
0.0
 11
47.994978
 21
59.480489
 31
0.0
 11
47.234976
 21
58.174868
 31
0.0
 11
47.715633
 21
57.230955
 31
0.0
  0
SPLINE
  5
159
100
AcDbEntity
  8
3.1mm
 62
7
100
AcDbSpline
 70
0
 71
3
 72
10
 73
6
 74
4
 40
0.000000
 40
0.000000
 40
0.000000
 40
0.000000
 40
6.234880
 40
12.589371
 40
18.885089
 40
18.885089
 40
18.885089
 40
18.885089
 10
47.715633
 20
57.230955
 30
0.0
 10
49.737631
 20
56.741424
 30
0.0
 10
53.820417
 20
55.752969
 30
0.0
 10
60.174819
 20
55.467704
 30
0.0
 10
64.329466
 20
56.243858
 30
0.0
 10
66.397138
 20
56.630133
 30
0.0
 11
47.715633
 21
57.230955
 31
0.0
 11
53.819215
 21
55.958158
 31
0.0
 11
60.168893
 21
55.710878
 31
0.0
 11
66.397138
 21
56.630133
 31
0.0
  0
SPLINE
  5
15a
100
AcDbEntity
  8
3.1mm
 62
7
100
AcDbSpline
 70
0
 71
3
 72
10
 73
6
 74
4
 40
0.000000
 40
0.000000
 40
0.000000
 40
0.000000
 40
3.826110
 40
7.126921
 40
10.144647
 40
10.144647
 40
10.144647
 40
10.144647
 10
66.397138
 20
56.630133
 30
0.0
 10
67.600198
 20
57.075758
 30
0.0
 10
69.841146
 20
57.905827
 30
0.0
 10
72.241922
 20
60.660956
 30
0.0
 10
72.291728
 20
62.818786
 30
0.0
 10
72.315516
 20
63.849363
 30
0.0
 11
66.397138
 21
56.630133
 31
0.0
 11
69.846554
 21
58.285623
 31
0.0
 11
71.914433
 21
60.858410
 31
0.0
 11
72.315516
 21
63.849363
 31
0.0
  0
SPLINE
  5
15b
100
AcDbEntity
  8
3.1mm
 62
7
100
AcDbSpline
 70
0
 71
3
 72
10
 73
6
 74
4
 40
0.000000
 40
0.000000
 40
0.000000
 40
0.000000
 40
3.049905
 40
6.505544
 40
10.379605
 40
10.379605
 40
10.379605
 40
10.379605
 10
72.315516
 20
63.849363
 30
0.0
 10
72.087643
 20
64.867225
 30
0.0
 10
71.601582
 20
67.038356
 30
0.0
 10
68.701443
 20
69.310699
 30
0.0
 10
66.407509
 20
70.121775
 30
0.0
 10
65.195066
 20
70.550464
 30
0.0
 11
72.315516
 21
63.849363
 31
0.0
 11
71.339218
 21
66.738785
 31
0.0
 11
68.763683
 21
69.042708
 31
0.0
 11
65.195066
 21
70.550464
 31
0.0
  0
SPLINE
  5
15c
100
AcDbEntity
  8
3.1mm
 62
7
100
AcDbSpline
 70
0
 71
3
 72
10
 73
6
 74
4
 40
0.000000
 40
0.000000
 40
0.000000
 40
0.000000
 40
4.181949
 40
8.403974
 40
12.167247
 40
12.167247
 40
12.167247
 40
12.167247
 10
65.195066
 20
70.550464
 30
0.0
 10
63.870651
 20
70.970226
 30
0.0
 10
61.209129
 20
71.813772
 30
0.0
 10
57.155732
 20
72.661459
 30
0.0
 10
55.057523
 20
74.358647
 30
0.0
 10
54.068689
 20
75.158490
 30
0.0
 11
65.195066
 21
70.550464
 31
0.0
 11
61.187605
 21
71.745852
 31
0.0
 11
57.160014
 21
73.012346
 31
0.0
 11
54.068689
 21
75.158490
 31
0.0
  0
SPLINE
  5
15d
100
AcDbEntity
  8
3.1mm
 62
7
100
AcDbSpline
 70
0
 71
3
 72
10
 73
6
 74
4
 40
0.000000
 40
0.000000
 40
0.000000
 40
0.000000
 40
2.118418
 40
4.341852
 40
7.044692
 40
7.044692
 40
7.044692
 40
7.044692
 10
54.068689
 20
75.158490
 30
0.0
 10
53.817992
 20
75.857471
 30
0.0
 10
53.304169
 20
77.290085
 30
0.0
 10
54.839759
 20
79.495244
 30
0.0
 10
56.444674
 20
79.946103
 30
0.0
 10
57.325223
 20
80.193470
 30
0.0
 11
54.068689
 21
75.158490
 31
0.0
 11
53.664214
 21
77.237935
 31
0.0
 11
54.843448
 21
79.122894
 31
0.0
 11
57.325223
 21
80.193470
 31
0.0
  0
SPLINE
  5
15e
100
AcDbEntity
  8
3.1mm
 62
7
100
AcDbSpline
 70
0
 71
3
 72
10
 73
6
 74
4
 40
0.000000
 40
0.000000
 40
0.000000
 40
0.000000
 40
3.888159
 40
7.787297
 40
11.586545
 40
11.586545
 40
11.586545
 40
11.586545
 10
57.325223
 20
80.193470
 30
0.0
 10
58.616472
 20
80.337027
 30
0.0
 10
61.202615
 20
80.624547
 30
0.0
 10
65.074513
 20
80.177004
 30
0.0
 10
67.539370
 20
79.458197
 30
0.0
 10
68.755808
 20
79.103457
 30
0.0
 11
57.325223
 21
80.193470
 31
0.0
 11
61.202996
 21
80.477478
 31
0.0
 11
65.080258
 21
80.065031
 31
0.0
 11
68.755808
 21
79.103457
 31
0.0
  0
SPLINE
  5
15f
100
AcDbEntity
  8
3.1mm
 62
7
100
AcDbSpline
 70
0
 71
3
 72
10
 73
6
 74
4
 40
0.000000
 40
0.000000
 40
0.000000
 40
0.000000
 40
1.288816
 40
2.688038
 40
3.683967
 40
3.683967
 40
3.683967
 40
3.683967
 10
68.755808
 20
79.103457
 30
0.0
 10
68.926908
 20
79.495646
 30
0.0
 10
69.283765
 20
80.313620
 30
0.0
 10
70.195585
 20
81.269131
 30
0.0
 10
70.139058
 20
82.095204
 30
0.0
 10
70.115554
 20
82.438694
 30
0.0
 11
68.755808
 21
79.103457
 31
0.0
 11
69.340018
 21
80.252259
 31
0.0
 11
70.073795
 21
81.443642
 31
0.0
 11
70.115554
 21
82.438694
 31
0.0
  0
LINE
  5
160
100
AcDbEntity
  8
3.1mm
 62
7
100
AcDbLine
 10
60.052498
 20
83.910492
 30
0.0
 11
60.052498
 21
83.910492
 31
0.0
  0
SPLINE
  5
161
100
AcDbEntity
  8
3.1mm
 62
7
100
AcDbSpline
 70
0
 71
3
 72
10
 73
6
 74
4
 40
0.000000
 40
0.000000
 40
0.000000
 40
0.000000
 40
3.377735
 40
6.789791
 40
10.211343
 40
10.211343
 40
10.211343
 40
10.211343
 10
70.115554
 20
82.438694
 30
0.0
 10
69.032243
 20
82.748291
 30
0.0
 10
66.854613
 20
83.370629
 30
0.0
 10
63.472646
 20
83.862687
 30
0.0
 10
61.193603
 20
83.894542
 30
0.0
 10
60.052498
 20
83.910492
 30
0.0
 11
70.115554
 21
82.438694
 31
0.0
 11
66.848017
 21
83.294438
 31
0.0
 11
63.471859
 21
83.788076
 31
0.0
 11
60.052498
 21
83.910492
 31
0.0
  0
SPLINE
  5
162
100
AcDbEntity
  8
3.1mm
 62
7
100
AcDbSpline
 70
0
 71
3
 72
10
 73
6
 74
4
 40
0.000000
 40
0.000000
 40
0.000000
 40
0.000000
 40
9.000861
 40
18.061061
 40
27.229985
 40
27.229985
 40
27.229985
 40
27.229985
 10
77.047759
 20
81.954658
 30
0.0
 10
77.849811
 20
79.063572
 30
0.0
 10
79.459202
 20
73.262341
 30
0.0
 10
82.366155
 20
64.651535
 30
0.0
 10
84.827327
 20
59.092979
 30
0.0
 10
86.065253
 20
56.297124
 30
0.0
 11
77.047759
 21
81.954658
 31
0.0
 11
79.533074
 21
73.303721
 31
0.0
 11
82.481794
 21
64.736792
 31
0.0
 11
86.065253
 21
56.297124
 31
0.0
  0
SPLINE
  5
163
100
AcDbEntity
  8
3.1mm
 62
7
100
AcDbSpline
 70
0
 71
3
 72
10
 73
6
 74
4
 40
0.000000
 40
0.000000
 40
0.000000
 40
0.000000
 40
2.015053
 40
4.086662
 40
5.877219
 40
5.877219
 40
5.877219
 40
5.877219
 10
86.065253
 20
56.297124
 30
0.0
 10
86.736469
 20
56.313588
 30
0.0
 10
88.097740
 20
56.346976
 30
0.0
 10
90.063610
 20
56.161792
 30
0.0
 10
91.333598
 20
56.408160
 30
0.0
 10
91.922383
 20
56.522380
 30
0.0
 11
86.065253
 21
56.297124
 31
0.0
 11
88.080281
 21
56.307090
 31
0.0
 11
90.151328
 21
56.258831
 31
0.0
 11
91.922383
 21
56.522380
 31
0.0
  0
SPLINE
  5
164
100
AcDbEntity
  8
3.1mm
 62
7
100
AcDbSpline
 70
0
 71
3
 72
10
 73
6
 74
4
 40
0.000000
 40
0.000000
 40
0.000000
 40
0.000000
 40
6.920660
 40
13.809746
 40
20.653512
 40
20.653512
 40
20.653512
 40
20.653512
 10
91.922383
 20
56.522380
 30
0.0
 10
92.964188
 20
58.580655
 30
0.0
 10
95.043045
 20
62.687813
 30
0.0
 10
97.984292
 20
68.914306
 30
0.0
 10
99.781122
 20
73.124877
 30
0.0
 10
100.676572
 20
75.223215
 30
0.0
 11
91.922383
 21
56.522380
 31
0.0
 11
95.019613
 21
62.711298
 31
0.0
 11
97.950770
 21
68.945704
 31
0.0
 11
100.676572
 21
75.223215
 31
0.0
  0
SPLINE
  5
165
100
AcDbEntity
  8
3.1mm
 62
7
100
AcDbSpline
 70
0
 71
3
 72
10
 73
6
 74
4
 40
0.000000
 40
0.000000
 40
0.000000
 40
0.000000
 40
6.928961
 40
13.892240
 40
20.904497
 40
20.904497
 40
20.904497
 40
20.904497
 10
100.676572
 20
75.223215
 30
0.0
 10
101.582362
 20
73.098553
 30
0.0
 10
103.398428
 20
68.838706
 30
0.0
 10
106.326465
 20
62.513114
 30
0.0
 10
108.464954
 20
58.373956
 30
0.0
 10
109.537946
 20
56.297124
 30
0.0
 11
100.676572
 21
75.223215
 31
0.0
 11
103.426227
 21
68.863192
 31
0.0
 11
106.364532
 21
62.550219
 31
0.0
 11
109.537946
 21
56.297124
 31
0.0
  0
SPLINE
  5
166
100
AcDbEntity
  8
3.1mm
 62
7
100
AcDbSpline
 70
0
 71
3
 72
10
 73
6
 74
4
 40
0.000000
 40
0.000000
 40
0.000000
 40
0.000000
 40
2.015719
 40
4.090467
 40
5.870949
 40
5.870949
 40
5.870949
 40
5.870949
 10
109.537946
 20
56.297124
 30
0.0
 10
110.209365
 20
56.313808
 30
0.0
 10
111.571866
 20
56.347664
 30
0.0
 10
113.535917
 20
56.159831
 30
0.0
 10
114.803042
 20
56.409594
 30
0.0
 10
115.388246
 20
56.524943
 30
0.0
 11
109.537946
 21
56.297124
 31
0.0
 11
111.553640
 21
56.307174
 31
0.0
 11
113.627816
 21
56.258475
 31
0.0
 11
115.388246
 21
56.524943
 31
0.0
  0
SPLINE
  5
167
100
AcDbEntity
  8
3.1mm
 62
7
100
AcDbSpline
 70
0
 71
3
 72
10
 73
6
 74
4
 40
0.000000
 40
0.000000
 40
0.000000
 40
0.000000
 40
9.538149
 40
18.969216
 40
28.332343
 40
28.332343
 40
28.332343
 40
28.332343
 10
115.388246
 20
56.524943
 30
0.0
 10
116.648796
 20
59.444981
 30
0.0
 10
119.155743
 20
65.252275
 30
0.0
 10
122.165684
 20
74.215402
 30
0.0
 10
123.822177
 20
80.257388
 30
0.0
 10
124.647429
 20
83.267460
 30
0.0
 11
115.388246
 21
56.524943
 31
0.0
 11
119.045574
 21
65.334042
 31
0.0
 11
122.087250
 21
74.261149
 31
0.0
 11
124.647429
 21
83.267460
 31
0.0
  0
SPLINE
  5
168
100
AcDbEntity
  8
3.1mm
 62
7
100
AcDbSpline
 70
0
 71
3
 72
10
 73
6
 74
4
 40
0.000000
 40
0.000000
 40
0.000000
 40
0.000000
 40
2.060039
 40
4.183928
 40
5.959447
 40
5.959447
 40
5.959447
 40
5.959447
 10
124.647429
 20
83.267460
 30
0.0
 10
123.961293
 20
83.251048
 30
0.0
 10
122.567753
 20
83.217716
 30
0.0
 10
120.573389
 20
83.405801
 30
0.0
 10
119.292718
 20
83.148249
 30
0.0
 10
118.709590
 20
83.030977
 30
0.0
 11
124.647429
 21
83.267460
 31
0.0
 11
122.587411
 21
83.258317
 31
0.0
 11
120.464011
 21
83.303879
 31
0.0
 11
118.709590
 21
83.030977
 31
0.0
  0
SPLINE
  5
169
100
AcDbEntity
  8
3.1mm
 62
7
100
AcDbSpline
 70
0
 71
3
 72
10
 73
6
 74
4
 40
0.000000
 40
0.000000
 40
0.000000
 40
0.000000
 40
7.683783
 40
15.388436
 40
23.153636
 40
23.153636
 40
23.153636
 40
23.153636
 10
118.709590
 20
83.030977
 30
0.0
 10
118.073702
 20
80.550240
 30
0.0
 10
116.800200
 20
75.582028
 30
0.0
 10
114.794968
 20
68.123710
 30
0.0
 10
113.048989
 20
63.269299
 30
0.0
 10
112.172583
 20
60.832594
 30
0.0
 11
118.709590
 21
83.030977
 31
0.0
 11
116.787162
 21
75.591569
 31
0.0
 11
114.699454
 21
68.175158
 31
0.0
 11
112.172583
 21
60.832594
 31
0.0
  0
SPLINE
  5
16a
100
AcDbEntity
  8
3.1mm
 62
7
100
AcDbSpline
 70
0
 71
3
 72
10
 73
6
 74
4
 40
0.000000
 40
0.000000
 40
0.000000
 40
0.000000
 40
7.111727
 40
14.184659
 40
21.216677
 40
21.216677
 40
21.216677
 40
21.216677
 10
112.172583
 20
60.832594
 30
0.0
 10
111.116296
 20
62.954887
 30
0.0
 10
109.009482
 20
67.187897
 30
0.0
 10
106.051783
 20
73.614109
 30
0.0
 10
104.251929
 20
77.957961
 30
0.0
 10
103.354612
 20
80.123586
 30
0.0
 11
112.172583
 21
60.832594
 31
0.0
 11
109.036250
 21
67.215389
 31
0.0
 11
106.087931
 21
73.644525
 31
0.0
 11
103.354612
 21
80.123586
 31
0.0
  0
SPLINE
  5
16b
100
AcDbEntity
  8
3.1mm
 62
7
100
AcDbSpline
 70
0
 71
3
 72
10
 73
6
 74
4
 40
0.000000
 40
0.000000
 40
0.000000
 40
0.000000
 40
1.991556
 40
4.076387
 40
5.504919
 40
5.504919
 40
5.504919
 40
5.504919
 10
103.354612
 20
80.123586
 30
0.0
 10
102.698565
 20
80.082785
 30
0.0
 10
101.355744
 20
79.999271
 30
0.0
 10
99.410060
 20
80.514446
 30
0.0
 10
98.456722
 20
79.743638
 30
0.0
 10
98.069095
 20
79.430228
 30
0.0
 11
103.354612
 21
80.123586
 31
0.0
 11
101.363089
 21
80.112173
 31
0.0
 11
99.279662
 21
80.188669
 31
0.0
 11
98.069095
 21
79.430228
 31
0.0
  0
SPLINE
  5
16c
100
AcDbEntity
  8
3.1mm
 62
7
100
AcDbSpline
 70
0
 71
3
 72
10
 73
6
 74
4
 40
0.000000
 40
0.000000
 40
0.000000
 40
0.000000
 40
6.763823
 40
13.569792
 40
20.422331
 40
20.422331
 40
20.422331
 40
20.422331
 10
98.069095
 20
79.430228
 30
0.0
 10
97.218181
 20
77.342217
 30
0.0
 10
95.511052
 20
73.153183
 30
0.0
 10
92.691888
 20
66.954152
 30
0.0
 10
90.641824
 20
62.888678
 30
0.0
 10
89.613297
 20
60.849010
 30
0.0
 11
98.069095
 21
79.430228
 31
0.0
 11
95.475090
 21
73.183594
 31
0.0
 11
92.657447
 21
66.988264
 31
0.0
 11
89.613297
 21
60.849010
 31
0.0
  0
SPLINE
  5
16d
100
AcDbEntity
  8
3.1mm
 62
7
100
AcDbSpline
 70
0
 71
3
 72
10
 73
6
 74
4
 40
0.000000
 40
0.000000
 40
0.000000
 40
0.000000
 40
7.859694
 40
15.662130
 40
23.427868
 40
23.427868
 40
23.427868
 40
23.427868
 10
89.613297
 20
60.849010
 30
0.0
 10
88.716298
 20
63.311195
 30
0.0
 10
86.928834
 20
68.217626
 30
0.0
 10
84.740338
 20
75.719411
 30
0.0
 10
83.487885
 20
80.755400
 30
0.0
 10
82.863134
 20
83.267460
 30
0.0
 11
89.613297
 21
60.849010
 31
0.0
 11
87.003993
 21
68.262938
 31
0.0
 11
84.787607
 21
75.743956
 31
0.0
 11
82.863134
 21
83.267460
 31
0.0
  0
SPLINE
  5
16e
100
AcDbEntity
  8
3.1mm
 62
7
100
AcDbSpline
 70
0
 71
3
 72
10
 73
6
 74
4
 40
0.000000
 40
0.000000
 40
0.000000
 40
0.000000
 40
2.052906
 40
4.105811
 40
6.158715
 40
6.158715
 40
6.158715
 40
6.158715
 10
82.863134
 20
83.267460
 30
0.0
 10
82.178832
 20
83.267460
 30
0.0
 10
80.810228
 20
83.267460
 30
0.0
 10
78.757323
 20
83.267460
 30
0.0
 10
77.388720
 20
83.267460
 30
0.0
 10
76.704419
 20
83.267460
 30
0.0
 11
82.863134
 21
83.267460
 31
0.0
 11
80.810228
 21
83.267460
 31
0.0
 11
78.757323
 21
83.267460
 31
0.0
 11
76.704419
 21
83.267460
 31
0.0
  0
LINE
  5
16f
100
AcDbEntity
  8
3.1mm
 62
7
100
AcDbLine
 10
77.047759
 20
81.954658
 30
0.0
 11
77.047759
 21
81.954658
 31
0.0
  0
SPLINE
  5
170
100
AcDbEntity
  8
3.1mm
 62
7
100
AcDbSpline
 70
0
 71
3
 72
10
 73
6
 74
4
 40
0.000000
 40
0.000000
 40
0.000000
 40
0.000000
 40
0.452319
 40
0.904637
 40
1.356957
 40
1.356957
 40
1.356957
 40
1.356957
 10
76.704419
 20
83.267460
 30
0.0
 10
76.742567
 20
83.121593
 30
0.0
 10
76.818863
 20
82.829859
 30
0.0
 10
76.933310
 20
82.392258
 30
0.0
 10
77.009609
 20
82.100525
 30
0.0
 10
77.047759
 20
81.954658
 30
0.0
 11
76.704419
 21
83.267460
 31
0.0
 11
76.818863
 21
82.829859
 31
0.0
 11
76.933310
 21
82.392259
 31
0.0
 11
77.047759
 21
81.954658
 31
0.0
  0
SPLINE
  5
171
100
AcDbEntity
  8
3.1mm
 62
7
100
AcDbSpline
 70
0
 71
3
 72
10
 73
6
 74
4
 40
0.000000
 40
0.000000
 40
0.000000
 40
0.000000
 40
8.260639
 40
16.521276
 40
24.781911
 40
24.781911
 40
24.781911
 40
24.781911
 10
131.984513
 20
56.297124
 30
0.0
 10
134.738059
 20
56.297124
 30
0.0
 10
140.245151
 20
56.297124
 30
0.0
 10
148.505788
 20
56.297124
 30
0.0
 10
154.012879
 20
56.297124
 30
0.0
 10
156.766424
 20
56.297124
 30
0.0
 11
131.984513
 21
56.297124
 31
0.0
 11
140.245152
 21
56.297124
 31
0.0
 11
148.505789
 21
56.297124
 31
0.0
 11
156.766424
 21
56.297124
 31
0.0
  0
SPLINE
  5
172
100
AcDbEntity
  8
3.1mm
 62
7
100
AcDbSpline
 70
0
 71
3
 72
10
 73
6
 74
4
 40
0.000000
 40
0.000000
 40
0.000000
 40
0.000000
 40
1.532311
 40
2.997873
 40
4.641307
 40
4.641307
 40
4.641307
 40
4.641307
 10
156.766424
 20
56.297124
 30
0.0
 10
156.751842
 20
56.782478
 30
0.0
 10
156.723314
 20
57.732042
 30
0.0
 10
157.058902
 20
59.653218
 30
0.0
 10
155.782663
 20
59.650312
 30
0.0
 10
155.108035
 20
59.648776
 30
0.0
 11
156.766424
 21
56.297124
 31
0.0
 11
156.786762
 21
57.829300
 31
0.0
 11
156.712493
 21
59.292979
 31
0.0
 11
155.108035
 21
59.648776
 31
0.0
  0
SPLINE
  5
173
100
AcDbEntity
  8
3.1mm
 62
7
100
AcDbSpline
 70
0
 71
3
 72
10
 73
6
 74
4
 40
0.000000
 40
0.000000
 40
0.000000
 40
0.000000
 40
5.811922
 40
11.623844
 40
17.435768
 40
17.435768
 40
17.435768
 40
17.435768
 10
155.108035
 20
59.648776
 30
0.0
 10
153.170728
 20
59.648776
 30
0.0
 10
149.296113
 20
59.648776
 30
0.0
 10
143.484190
 20
59.648776
 30
0.0
 10
139.609575
 20
59.648776
 30
0.0
 10
137.672267
 20
59.648776
 30
0.0
 11
155.108035
 21
59.648776
 31
0.0
 11
149.296114
 21
59.648776
 31
0.0
 11
143.484191
 21
59.648776
 31
0.0
 11
137.672267
 21
59.648776
 31
0.0
  0
SPLINE
  5
174
100
AcDbEntity
  8
3.1mm
 62
7
100
AcDbSpline
 70
0
 71
3
 72
10
 73
6
 74
4
 40
0.000000
 40
0.000000
 40
0.000000
 40
0.000000
 40
3.047567
 40
6.095134
 40
9.142702
 40
9.142702
 40
9.142702
 40
9.142702
 10
137.672267
 20
59.648776
 30
0.0
 10
137.672267
 20
60.664632
 30
0.0
 10
137.672267
 20
62.696343
 30
0.0
 10
137.672267
 20
65.743910
 30
0.0
 10
137.672267
 20
67.775622
 30
0.0
 10
137.672267
 20
68.791478
 30
0.0
 11
137.672267
 21
59.648776
 31
0.0
 11
137.672267
 21
62.696343
 31
0.0
 11
137.672267
 21
65.743910
 31
0.0
 11
137.672267
 21
68.791478
 31
0.0
  0
SPLINE
  5
175
100
AcDbEntity
  8
3.1mm
 62
7
100
AcDbSpline
 70
0
 71
3
 72
10
 73
6
 74
4
 40
0.000000
 40
0.000000
 40
0.000000
 40
0.000000
 40
5.269925
 40
10.539848
 40
15.809770
 40
15.809770
 40
15.809770
 40
15.809770
 10
137.672267
 20
68.791478
 30
0.0
 10
139.428909
 20
68.791478
 30
0.0
 10
142.942192
 20
68.791478
 30
0.0
 10
148.212115
 20
68.791478
 30
0.0
 10
151.725397
 20
68.791478
 30
0.0
 10
153.482037
 20
68.791478
 30
0.0
 11
137.672267
 21
68.791478
 31
0.0
 11
142.942193
 21
68.791478
 31
0.0
 11
148.212116
 21
68.791478
 31
0.0
 11
153.482037
 21
68.791478
 31
0.0
  0
SPLINE
  5
176
100
AcDbEntity
  8
3.1mm
 62
7
100
AcDbSpline
 70
0
 71
3
 72
10
 73
6
 74
4
 40
0.000000
 40
0.000000
 40
0.000000
 40
0.000000
 40
1.506773
 40
2.943788
 40
4.580692
 40
4.580692
 40
4.580692
 40
4.580692
 10
153.482037
 20
68.791478
 30
0.0
 10
153.469147
 20
69.268468
 30
0.0
 10
153.443964
 20
70.200365
 30
0.0
 10
153.764851
 20
72.099721
 30
0.0
 10
152.498170
 20
72.075712
 30
0.0
 10
151.823646
 20
72.062927
 30
0.0
 11
153.482037
 21
68.791478
 31
0.0
 11
153.503992
 21
70.298091
 31
0.0
 11
153.426964
 21
71.733039
 31
0.0
 11
151.823646
 21
72.062927
 31
0.0
  0
SPLINE
  5
177
100
AcDbEntity
  8
3.1mm
 62
7
100
AcDbSpline
 70
0
 71
3
 72
10
 73
6
 74
4
 40
0.000000
 40
0.000000
 40
0.000000
 40
0.000000
 40
4.717125
 40
9.434252
 40
14.151379
 40
14.151379
 40
14.151379
 40
14.151379
 10
151.823646
 20
72.062927
 30
0.0
 10
150.251271
 20
72.062927
 30
0.0
 10
147.106520
 20
72.062927
 30
0.0
 10
142.389394
 20
72.062927
 30
0.0
 10
139.244643
 20
72.062927
 30
0.0
 10
137.672267
 20
72.062927
 30
0.0
 11
151.823646
 21
72.062927
 31
0.0
 11
147.106521
 21
72.062927
 31
0.0
 11
142.389394
 21
72.062927
 31
0.0
 11
137.672267
 21
72.062927
 31
0.0
  0
SPLINE
  5
178
100
AcDbEntity
  8
3.1mm
 62
7
100
AcDbSpline
 70
0
 71
3
 72
10
 73
6
 74
4
 40
0.000000
 40
0.000000
 40
0.000000
 40
0.000000
 40
2.617471
 40
5.234942
 40
7.852413
 40
7.852413
 40
7.852413
 40
7.852413
 10
137.672267
 20
72.062927
 30
0.0
 10
137.672268
 20
72.935417
 30
0.0
 10
137.672269
 20
74.680398
 30
0.0
 10
137.672268
 20
77.297869
 30
0.0
 10
137.672267
 20
79.042850
 30
0.0
 10
137.672267
 20
79.915340
 30
0.0
 11
137.672267
 21
72.062927
 31
0.0
 11
137.672268
 21
74.680398
 31
0.0
 11
137.672268
 21
77.297869
 31
0.0
 11
137.672267
 21
79.915340
 31
0.0
  0
SPLINE
  5
179
100
AcDbEntity
  8
3.1mm
 62
7
100
AcDbSpline
 70
0
 71
3
 72
10
 73
6
 74
4
 40
0.000000
 40
0.000000
 40
0.000000
 40
0.000000
 40
5.919461
 40
11.838920
 40
17.758379
 40
17.758379
 40
17.758379
 40
17.758379
 10
137.672267
 20
79.915340
 30
0.0
 10
139.645421
 20
79.915340
 30
0.0
 10
143.591727
 20
79.915340
 30
0.0
 10
149.511187
 20
79.915340
 30
0.0
 10
153.457493
 20
79.915340
 30
0.0
 10
155.430646
 20
79.915340
 30
0.0
 11
137.672267
 21
79.915340
 31
0.0
 11
143.591728
 21
79.915340
 31
0.0
 11
149.511187
 21
79.915340
 31
0.0
 11
155.430646
 21
79.915340
 31
0.0
  0
SPLINE
  5
17a
100
AcDbEntity
  8
3.1mm
 62
7
100
AcDbSpline
 70
0
 71
3
 72
10
 73
6
 74
4
 40
0.000000
 40
0.000000
 40
0.000000
 40
0.000000
 40
1.532460
 40
2.998190
 40
4.641667
 40
4.641667
 40
4.641667
 40
4.641667
 10
155.430646
 20
79.915340
 30
0.0
 10
155.416054
 20
80.400742
 30
0.0
 10
155.387504
 20
81.350410
 30
0.0
 10
155.723182
 20
83.271716
 30
0.0
 10
154.446885
 20
83.268931
 30
0.0
 10
153.772255
 20
83.267460
 30
0.0
 11
155.430646
 21
79.915340
 31
0.0
 11
155.450973
 21
81.447665
 31
0.0
 11
155.376722
 21
82.911514
 31
0.0
 11
153.772255
 21
83.267460
 31
0.0
  0
SPLINE
  5
17b
100
AcDbEntity
  8
3.1mm
 62
7
100
AcDbSpline
 70
0
 71
3
 72
10
 73
6
 74
4
 40
0.000000
 40
0.000000
 40
0.000000
 40
0.000000
 40
7.262580
 40
14.525161
 40
21.787742
 40
21.787742
 40
21.787742
 40
21.787742
 10
153.772255
 20
83.267460
 30
0.0
 10
151.351395
 20
83.267460
 30
0.0
 10
146.509674
 20
83.267460
 30
0.0
 10
139.247094
 20
83.267460
 30
0.0
 10
134.405373
 20
83.267460
 30
0.0
 10
131.984513
 20
83.267460
 30
0.0
 11
153.772255
 21
83.267460
 31
0.0
 11
146.509674
 21
83.267460
 31
0.0
 11
139.247093
 21
83.267460
 31
0.0
 11
131.984513
 21
83.267460
 31
0.0
  0
LINE
  5
17c
100
AcDbEntity
  8
3.1mm
 62
7
100
AcDbLine
 10
131.984513
 20
56.297124
 30
0.0
 11
131.984513
 21
56.297124
 31
0.0
  0
SPLINE
  5
17d
100
AcDbEntity
  8
3.1mm
 62
7
100
AcDbSpline
 70
0
 71
3
 72
10
 73
6
 74
4
 40
0.000000
 40
0.000000
 40
0.000000
 40
0.000000
 40
8.990112
 40
17.980223
 40
26.970335
 40
26.970335
 40
26.970335
 40
26.970335
 10
131.984513
 20
83.267460
 30
0.0
 10
131.984513
 20
80.270756
 30
0.0
 10
131.984513
 20
74.277348
 30
0.0
 10
131.984513
 20
65.287236
 30
0.0
 10
131.984513
 20
59.293828
 30
0.0
 10
131.984513
 20
56.297124
 30
0.0
 11
131.984513
 21
83.267460
 31
0.0
 11
131.984513
 21
74.277348
 31
0.0
 11
131.984513
 21
65.287236
 31
0.0
 11
131.984513
 21
56.297124
 31
0.0
  0
SPLINE
  5
17e
100
AcDbEntity
  8
3.1mm
 62
7
100
AcDbSpline
 70
0
 71
3
 72
10
 73
6
 74
4
 40
0.000000
 40
0.000000
 40
0.000000
 40
0.000000
 40
8.260423
 40
16.520844
 40
24.781267
 40
24.781267
 40
24.781267
 40
24.781267
 10
164.602967
 20
56.297124
 30
0.0
 10
167.356441
 20
56.297124
 30
0.0
 10
172.863390
 20
56.297124
 30
0.0
 10
181.123812
 20
56.297124
 30
0.0
 10
186.630760
 20
56.297124
 30
0.0
 10
189.384234
 20
56.297124
 30
0.0
 11
164.602967
 21
56.297124
 31
0.0
 11
172.863390
 21
56.297124
 31
0.0
 11
181.123812
 21
56.297124
 31
0.0
 11
189.384234
 21
56.297124
 31
0.0
  0
SPLINE
  5
17f
100
AcDbEntity
  8
3.1mm
 62
7
100
AcDbSpline
 70
0
 71
3
 72
10
 73
6
 74
4
 40
0.000000
 40
0.000000
 40
0.000000
 40
0.000000
 40
1.532311
 40
2.997873
 40
4.641307
 40
4.641307
 40
4.641307
 40
4.641307
 10
189.384234
 20
56.297124
 30
0.0
 10
189.369652
 20
56.782478
 30
0.0
 10
189.341123
 20
57.732042
 30
0.0
 10
189.676710
 20
59.653218
 30
0.0
 10
188.400471
 20
59.650312
 30
0.0
 10
187.725843
 20
59.648776
 30
0.0
 11
189.384234
 21
56.297124
 31
0.0
 11
189.404571
 21
57.829300
 31
0.0
 11
189.330301
 21
59.292979
 31
0.0
 11
187.725843
 21
59.648776
 31
0.0
  0
SPLINE
  5
180
100
AcDbEntity
  8
3.1mm
 62
7
100
AcDbSpline
 70
0
 71
3
 72
10
 73
6
 74
4
 40
0.000000
 40
0.000000
 40
0.000000
 40
0.000000
 40
5.811923
 40
11.623844
 40
17.435765
 40
17.435765
 40
17.435765
 40
17.435765
 10
187.725843
 20
59.648776
 30
0.0
 10
185.788535
 20
59.648776
 30
0.0
 10
181.913921
 20
59.648776
 30
0.0
 10
176.101999
 20
59.648776
 30
0.0
 10
172.227385
 20
59.648776
 30
0.0
 10
170.290078
 20
59.648776
 30
0.0
 11
187.725843
 21
59.648776
 31
0.0
 11
181.913920
 21
59.648776
 31
0.0
 11
176.101999
 21
59.648776
 31
0.0
 11
170.290078
 21
59.648776
 31
0.0
  0
SPLINE
  5
181
100
AcDbEntity
  8
3.1mm
 62
7
100
AcDbSpline
 70
0
 71
3
 72
10
 73
6
 74
4
 40
0.000000
 40
0.000000
 40
0.000000
 40
0.000000
 40
3.047567
 40
6.095134
 40
9.142702
 40
9.142702
 40
9.142702
 40
9.142702
 10
170.290078
 20
59.648776
 30
0.0
 10
170.290078
 20
60.664632
 30
0.0
 10
170.290078
 20
62.696343
 30
0.0
 10
170.290078
 20
65.743910
 30
0.0
 10
170.290078
 20
67.775622
 30
0.0
 10
170.290078
 20
68.791478
 30
0.0
 11
170.290078
 21
59.648776
 31
0.0
 11
170.290078
 21
62.696343
 31
0.0
 11
170.290078
 21
65.743910
 31
0.0
 11
170.290078
 21
68.791478
 31
0.0
  0
SPLINE
  5
182
100
AcDbEntity
  8
3.1mm
 62
7
100
AcDbSpline
 70
0
 71
3
 72
10
 73
6
 74
4
 40
0.000000
 40
0.000000
 40
0.000000
 40
0.000000
 40
5.269922
 40
10.539845
 40
15.809767
 40
15.809767
 40
15.809767
 40
15.809767
 10
170.290078
 20
68.791478
 30
0.0
 10
172.046719
 20
68.791478
 30
0.0
 10
175.560000
 20
68.791478
 30
0.0
 10
180.829923
 20
68.791478
 30
0.0
 10
184.343204
 20
68.791478
 30
0.0
 10
186.099845
 20
68.791478
 30
0.0
 11
170.290078
 21
68.791478
 31
0.0
 11
175.560000
 21
68.791478
 31
0.0
 11
180.829923
 21
68.791478
 31
0.0
 11
186.099845
 21
68.791478
 31
0.0
  0
SPLINE
  5
183
100
AcDbEntity
  8
3.1mm
 62
7
100
AcDbSpline
 70
0
 71
3
 72
10
 73
6
 74
4
 40
0.000000
 40
0.000000
 40
0.000000
 40
0.000000
 40
1.506773
 40
2.943788
 40
4.580691
 40
4.580691
 40
4.580691
 40
4.580691
 10
186.099845
 20
68.791478
 30
0.0
 10
186.086955
 20
69.268468
 30
0.0
 10
186.061772
 20
70.200364
 30
0.0
 10
186.382661
 20
72.099720
 30
0.0
 10
185.115981
 20
72.075712
 30
0.0
 10
184.441457
 20
72.062927
 30
0.0
 11
186.099845
 21
68.791478
 31
0.0
 11
186.121801
 21
70.298091
 31
0.0
 11
186.044774
 21
71.733039
 31
0.0
 11
184.441457
 21
72.062927
 31
0.0
  0
SPLINE
  5
184
100
AcDbEntity
  8
3.1mm
 62
7
100
AcDbSpline
 70
0
 71
3
 72
10
 73
6
 74
4
 40
0.000000
 40
0.000000
 40
0.000000
 40
0.000000
 40
4.717126
 40
9.434252
 40
14.151379
 40
14.151379
 40
14.151379
 40
14.151379
 10
184.441457
 20
72.062927
 30
0.0
 10
182.869081
 20
72.062927
 30
0.0
 10
179.724330
 20
72.062927
 30
0.0
 10
175.007204
 20
72.062927
 30
0.0
 10
171.862453
 20
72.062927
 30
0.0
 10
170.290078
 20
72.062927
 30
0.0
 11
184.441457
 21
72.062927
 31
0.0
 11
179.724330
 21
72.062927
 31
0.0
 11
175.007204
 21
72.062927
 31
0.0
 11
170.290078
 21
72.062927
 31
0.0
  0
SPLINE
  5
185
100
AcDbEntity
  8
3.1mm
 62
7
100
AcDbSpline
 70
0
 71
3
 72
10
 73
6
 74
4
 40
0.000000
 40
0.000000
 40
0.000000
 40
0.000000
 40
2.617471
 40
5.234942
 40
7.852413
 40
7.852413
 40
7.852413
 40
7.852413
 10
170.290078
 20
72.062927
 30
0.0
 10
170.290078
 20
72.935417
 30
0.0
 10
170.290078
 20
74.680398
 30
0.0
 10
170.290078
 20
77.297869
 30
0.0
 10
170.290078
 20
79.042850
 30
0.0
 10
170.290078
 20
79.915340
 30
0.0
 11
170.290078
 21
72.062927
 31
0.0
 11
170.290078
 21
74.680398
 31
0.0
 11
170.290078
 21
77.297869
 31
0.0
 11
170.290078
 21
79.915340
 31
0.0
  0
SPLINE
  5
186
100
AcDbEntity
  8
3.1mm
 62
7
100
AcDbSpline
 70
0
 71
3
 72
10
 73
6
 74
4
 40
0.000000
 40
0.000000
 40
0.000000
 40
0.000000
 40
5.919458
 40
11.838916
 40
17.758376
 40
17.758376
 40
17.758376
 40
17.758376
 10
170.290078
 20
79.915340
 30
0.0
 10
172.263231
 20
79.915340
 30
0.0
 10
176.209536
 20
79.915340
 30
0.0
 10
182.128995
 20
79.915340
 30
0.0
 10
186.075301
 20
79.915340
 30
0.0
 10
188.048454
 20
79.915340
 30
0.0
 11
170.290078
 21
79.915340
 31
0.0
 11
176.209536
 21
79.915340
 31
0.0
 11
182.128994
 21
79.915340
 31
0.0
 11
188.048454
 21
79.915340
 31
0.0
  0
SPLINE
  5
187
100
AcDbEntity
  8
3.1mm
 62
7
100
AcDbSpline
 70
0
 71
3
 72
10
 73
6
 74
4
 40
0.000000
 40
0.000000
 40
0.000000
 40
0.000000
 40
1.532460
 40
2.998191
 40
4.641665
 40
4.641665
 40
4.641665
 40
4.641665
 10
188.048454
 20
79.915340
 30
0.0
 10
188.033862
 20
80.400742
 30
0.0
 10
188.005312
 20
81.350410
 30
0.0
 10
188.340988
 20
83.271715
 30
0.0
 10
187.064692
 20
83.268931
 30
0.0
 10
186.390063
 20
83.267460
 30
0.0
 11
188.048454
 21
79.915340
 31
0.0
 11
188.068781
 21
81.447665
 31
0.0
 11
187.994529
 21
82.911514
 31
0.0
 11
186.390063
 21
83.267460
 31
0.0
  0
SPLINE
  5
188
100
AcDbEntity
  8
3.1mm
 62
7
100
AcDbSpline
 70
0
 71
3
 72
10
 73
6
 74
4
 40
0.000000
 40
0.000000
 40
0.000000
 40
0.000000
 40
7.262366
 40
14.524731
 40
21.787096
 40
21.787096
 40
21.787096
 40
21.787096
 10
186.390063
 20
83.267460
 30
0.0
 10
183.969274
 20
83.267460
 30
0.0
 10
179.127697
 20
83.267460
 30
0.0
 10
171.865332
 20
83.267460
 30
0.0
 10
167.023755
 20
83.267460
 30
0.0
 10
164.602967
 20
83.267460
 30
0.0
 11
186.390063
 21
83.267460
 31
0.0
 11
179.127696
 21
83.267460
 31
0.0
 11
171.865332
 21
83.267460
 31
0.0
 11
164.602967
 21
83.267460
 31
0.0
  0
LINE
  5
189
100
AcDbEntity
  8
3.1mm
 62
7
100
AcDbLine
 10
164.602967
 20
56.297124
 30
0.0
 11
164.602967
 21
56.297124
 31
0.0
  0
SPLINE
  5
18a
100
AcDbEntity
  8
3.1mm
 62
7
100
AcDbSpline
 70
0
 71
3
 72
10
 73
6
 74
4
 40
0.000000
 40
0.000000
 40
0.000000
 40
0.000000
 40
8.990112
 40
17.980223
 40
26.970335
 40
26.970335
 40
26.970335
 40
26.970335
 10
164.602967
 20
83.267460
 30
0.0
 10
164.602967
 20
80.270756
 30
0.0
 10
164.602967
 20
74.277348
 30
0.0
 10
164.602967
 20
65.287236
 30
0.0
 10
164.602967
 20
59.293828
 30
0.0
 10
164.602967
 20
56.297124
 30
0.0
 11
164.602967
 21
83.267460
 31
0.0
 11
164.602967
 21
74.277348
 31
0.0
 11
164.602967
 21
65.287236
 31
0.0
 11
164.602967
 21
56.297124
 31
0.0
  0
SPLINE
  5
18b
100
AcDbEntity
  8
3.1mm
 62
7
100
AcDbSpline
 70
0
 71
3
 72
10
 73
6
 74
4
 40
0.000000
 40
0.000000
 40
0.000000
 40
0.000000
 40
3.952495
 40
7.904991
 40
11.857488
 40
11.857488
 40
11.857488
 40
11.857488
 10
193.324206
 20
79.835135
 30
0.0
 10
194.641705
 20
79.835135
 30
0.0
 10
197.276701
 20
79.835135
 30
0.0
 10
201.229197
 20
79.835135
 30
0.0
 10
203.864195
 20
79.835135
 30
0.0
 10
205.181694
 20
79.835135
 30
0.0
 11
193.324206
 21
79.835135
 31
0.0
 11
197.276701
 21
79.835135
 31
0.0
 11
201.229197
 21
79.835135
 31
0.0
 11
205.181694
 21
79.835135
 31
0.0
  0
SPLINE
  5
18c
100
AcDbEntity
  8
3.1mm
 62
7
100
AcDbSpline
 70
0
 71
3
 72
10
 73
6
 74
4
 40
0.000000
 40
0.000000
 40
0.000000
 40
0.000000
 40
7.846002
 40
15.692006
 40
23.538011
 40
23.538011
 40
23.538011
 40
23.538011
 10
205.181694
 20
79.835135
 30
0.0
 10
205.181694
 20
77.219801
 30
0.0
 10
205.181694
 20
71.989132
 30
0.0
 10
205.181694
 20
64.143129
 30
0.0
 10
205.181694
 20
58.912459
 30
0.0
 10
205.181694
 20
56.297124
 30
0.0
 11
205.181694
 21
79.835135
 31
0.0
 11
205.181694
 21
71.989133
 31
0.0
 11
205.181694
 21
64.143129
 31
0.0
 11
205.181694
 21
56.297124
 31
0.0
  0
SPLINE
  5
18d
100
AcDbEntity
  8
3.1mm
 62
7
100
AcDbSpline
 70
0
 71
3
 72
10
 73
6
 74
4
 40
0.000000
 40
0.000000
 40
0.000000
 40
0.000000
 40
2.010197
 40
4.106687
 40
5.767417
 40
5.767417
 40
5.767417
 40
5.767417
 10
205.181694
 20
56.297124
 30
0.0
 10
205.851106
 20
56.315469
 30
0.0
 10
207.218666
 20
56.352946
 30
0.0
 10
209.150596
 20
56.145234
 30
0.0
 10
210.380767
 20
56.417098
 30
0.0
 10
210.924515
 20
56.537265
 30
0.0
 11
205.181694
 21
56.297124
 31
0.0
 11
207.191863
 21
56.307741
 31
0.0
 11
209.287722
 21
56.256316
 31
0.0
 11
210.924515
 21
56.537265
 31
0.0
  0
SPLINE
  5
18e
100
AcDbEntity
  8
3.1mm
 62
7
100
AcDbSpline
 70
0
 71
3
 72
10
 73
6
 74
4
 40
0.000000
 40
0.000000
 40
0.000000
 40
0.000000
 40
7.765958
 40
15.531914
 40
23.297871
 40
23.297871
 40
23.297871
 40
23.297871
 10
210.924515
 20
56.537265
 30
0.0
 10
210.924515
 20
59.125917
 30
0.0
 10
210.924515
 20
64.303222
 30
0.0
 10
210.924515
 20
72.069179
 30
0.0
 10
210.924515
 20
77.246483
 30
0.0
 10
210.924515
 20
79.835135
 30
0.0
 11
210.924515
 21
56.537265
 31
0.0
 11
210.924515
 21
64.303223
 31
0.0
 11
210.924515
 21
72.069179
 31
0.0
 11
210.924515
 21
79.835135
 31
0.0
  0
SPLINE
  5
18f
100
AcDbEntity
  8
3.1mm
 62
7
100
AcDbSpline
 70
0
 71
3
 72
10
 73
6
 74
4
 40
0.000000
 40
0.000000
 40
0.000000
 40
0.000000
 40
3.952496
 40
7.904992
 40
11.857488
 40
11.857488
 40
11.857488
 40
11.857488
 10
210.924515
 20
79.835135
 30
0.0
 10
212.242014
 20
79.835135
 30
0.0
 10
214.877011
 20
79.835135
 30
0.0
 10
218.829507
 20
79.835135
 30
0.0
 10
221.464504
 20
79.835135
 30
0.0
 10
222.782003
 20
79.835135
 30
0.0
 11
210.924515
 21
79.835135
 31
0.0
 11
214.877011
 21
79.835135
 31
0.0
 11
218.829507
 21
79.835135
 31
0.0
 11
222.782003
 21
79.835135
 31
0.0
  0
SPLINE
  5
190
100
AcDbEntity
  8
3.1mm
 62
7
100
AcDbSpline
 70
0
 71
3
 72
10
 73
6
 74
4
 40
0.000000
 40
0.000000
 40
0.000000
 40
0.000000
 40
1.464751
 40
2.958431
 40
4.405598
 40
4.405598
 40
4.405598
 40
4.405598
 10
222.782003
 20
79.835135
 30
0.0
 10
222.746963
 20
80.301397
 30
0.0
 10
222.676191
 20
81.243130
 30
0.0
 10
223.213222
 20
83.046254
 30
0.0
 10
222.035057
 20
83.194506
 30
0.0
 10
221.455290
 20
83.267460
 30
0.0
 11
222.782003
 21
79.835135
 31
0.0
 11
222.782633
 21
81.299886
 31
0.0
 11
222.822482
 21
82.793034
 31
0.0
 11
221.455290
 21
83.267460
 31
0.0
  0
SPLINE
  5
191
100
AcDbEntity
  8
3.1mm
 62
7
100
AcDbSpline
 70
0
 71
3
 72
10
 73
6
 74
4
 40
0.000000
 40
0.000000
 40
0.000000
 40
0.000000
 40
9.377028
 40
18.754056
 40
28.131084
 40
28.131084
 40
28.131084
 40
28.131084
 10
221.455290
 20
83.267460
 30
0.0
 10
218.329614
 20
83.267460
 30
0.0
 10
212.078262
 20
83.267460
 30
0.0
 10
202.701234
 20
83.267460
 30
0.0
 10
196.449882
 20
83.267460
 30
0.0
 10
193.324206
 20
83.267460
 30
0.0
 11
221.455290
 21
83.267460
 31
0.0
 11
212.078262
 21
83.267460
 31
0.0
 11
202.701234
 21
83.267460
 31
0.0
 11
193.324206
 21
83.267460
 31
0.0
  0
LINE
  5
192
100
AcDbEntity
  8
3.1mm
 62
7
100
AcDbLine
 10
193.324206
 20
79.835135
 30
0.0
 11
193.324206
 21
79.835135
 31
0.0
  0
SPLINE
  5
193
100
AcDbEntity
  8
3.1mm
 62
7
100
AcDbSpline
 70
0
 71
3
 72
10
 73
6
 74
4
 40
0.000000
 40
0.000000
 40
0.000000
 40
0.000000
 40
1.144108
 40
2.288217
 40
3.432325
 40
3.432325
 40
3.432325
 40
3.432325
 10
193.324206
 20
83.267460
 30
0.0
 10
193.324206
 20
82.886090
 30
0.0
 10
193.324206
 20
82.123351
 30
0.0
 10
193.324206
 20
80.979243
 30
0.0
 10
193.324206
 20
80.216504
 30
0.0
 10
193.324206
 20
79.835135
 30
0.0
 11
193.324206
 21
83.267460
 31
0.0
 11
193.324206
 21
82.123352
 31
0.0
 11
193.324206
 21
80.979243
 31
0.0
 11
193.324206
 21
79.835135
 31
0.0
  0
SPLINE
  5
194
100
AcDbEntity
  8
3.1mm
 62
7
100
AcDbSpline
 70
0
 71
3
 72
10
 73
6
 74
4
 40
0.000000
 40
0.000000
 40
0.000000
 40
0.000000
 40
4.517705
 40
9.022790
 40
13.608006
 40
13.608006
 40
13.608006
 40
13.608006
 10
40.858316
 20
150.580640
 30
0.0
 10
42.364126
 20
150.591915
 30
0.0
 10
45.371539
 20
150.614434
 30
0.0
 10
49.908889
 20
150.486330
 30
0.0
 10
52.935002
 20
150.670089
 30
0.0
 10
54.461396
 20
150.762778
 30
0.0
 11
40.858316
 21
150.580640
 31
0.0
 11
45.376015
 21
150.587526
 31
0.0
 11
49.880970
 21
150.553236
 31
0.0
 11
54.461396
 21
150.762778
 31
0.0
  0
SPLINE
  5
195
100
AcDbEntity
  8
3.1mm
 62
7
100
AcDbSpline
 70
0
 71
3
 72
10
 73
6
 74
4
 40
0.000000
 40
0.000000
 40
0.000000
 40
0.000000
 40
2.960043
 40
6.201552
 40
9.485435
 40
9.485435
 40
9.485435
 40
9.485435
 10
54.461396
 20
150.762778
 30
0.0
 10
55.311723
 20
151.267598
 30
0.0
 10
57.093233
 20
152.325241
 30
0.0
 10
59.463245
 20
154.435559
 30
0.0
 10
61.076989
 20
155.891607
 30
0.0
 10
61.889101
 20
156.624359
 30
0.0
 11
54.461396
 21
150.762778
 31
0.0
 11
56.959521
 21
152.350614
 31
0.0
 11
59.448542
 21
154.427188
 31
0.0
 11
61.889101
 21
156.624359
 31
0.0
  0
SPLINE
  5
196
100
AcDbEntity
  8
3.1mm
 62
7
100
AcDbSpline
 70
0
 71
3
 72
10
 73
6
 74
4
 40
0.000000
 40
0.000000
 40
0.000000
 40
0.000000
 40
3.633171
 40
7.309812
 40
10.824875
 40
10.824875
 40
10.824875
 40
10.824875
 10
61.889101
 20
156.624359
 30
0.0
 10
62.751003
 20
157.474971
 30
0.0
 10
64.485119
 20
159.186374
 30
0.0
 10
66.608017
 20
162.161484
 30
0.0
 10
67.396417
 20
164.436039
 30
0.0
 10
67.781760
 20
165.547765
 30
0.0
 11
61.889101
 21
156.624359
 31
0.0
 11
64.400556
 21
159.249721
 31
0.0
 11
66.477142
 21
162.283774
 31
0.0
 11
67.781760
 21
165.547765
 31
0.0
  0
SPLINE
  5
197
100
AcDbEntity
  8
3.1mm
 62
7
100
AcDbSpline
 70
0
 71
3
 72
10
 73
6
 74
4
 40
0.000000
 40
0.000000
 40
0.000000
 40
0.000000
 40
2.829506
 40
5.324258
 40
7.609285
 40
7.609285
 40
7.609285
 40
7.609285
 10
67.781760
 20
165.547765
 30
0.0
 10
68.050335
 20
166.452902
 30
0.0
 10
68.555711
 20
168.156090
 30
0.0
 10
68.781546
 20
170.712621
 30
0.0
 10
68.519299
 20
172.288816
 30
0.0
 10
68.393928
 20
173.042334
 30
0.0
 11
67.781760
 21
165.547765
 31
0.0
 11
68.489383
 21
168.287359
 31
0.0
 11
68.677684
 21
170.774995
 31
0.0
 11
68.393928
 21
173.042334
 31
0.0
  0
SPLINE
  5
198
100
AcDbEntity
  8
3.1mm
 62
7
100
AcDbSpline
 70
0
 71
3
 72
10
 73
6
 74
4
 40
0.000000
 40
0.000000
 40
0.000000
 40
0.000000
 40
2.236076
 40
4.330429
 40
6.257217
 40
6.257217
 40
6.257217
 40
6.257217
 10
68.393928
 20
173.042334
 30
0.0
 10
68.251204
 20
173.772628
 30
0.0
 10
67.974800
 20
175.186929
 30
0.0
 10
67.262877
 20
177.185945
 30
0.0
 10
66.385178
 20
178.212176
 30
0.0
 10
65.964616
 20
178.703910
 30
0.0
 11
68.393928
 21
173.042334
 31
0.0
 11
67.908083
 21
175.224991
 31
0.0
 11
67.129828
 21
177.169377
 31
0.0
 11
65.964616
 21
178.703910
 31
0.0
  0
SPLINE
  5
199
100
AcDbEntity
  8
3.1mm
 62
7
100
AcDbSpline
 70
0
 71
3
 72
10
 73
6
 74
4
 40
0.000000
 40
0.000000
 40
0.000000
 40
0.000000
 40
1.399259
 40
2.570640
 40
3.996644
 40
3.996644
 40
3.996644
 40
3.996644
 10
65.964616
 20
178.703910
 30
0.0
 10
66.112380
 20
179.172257
 30
0.0
 10
66.383845
 20
180.032679
 30
0.0
 10
67.662934
 20
180.614174
 30
0.0
 10
68.350182
 20
181.129618
 30
0.0
 10
68.727492
 20
181.412605
 30
0.0
 11
65.964616
 21
178.703910
 31
0.0
 11
66.571237
 21
179.964837
 31
0.0
 11
67.552152
 21
180.605100
 31
0.0
 11
68.727492
 21
181.412605
 31
0.0
  0
SPLINE
  5
19a
100
AcDbEntity
  8
3.1mm
 62
7
100
AcDbSpline
 70
0
 71
3
 72
10
 73
6
 74
4
 40
0.000000
 40
0.000000
 40
0.000000
 40
0.000000
 40
6.459081
 40
13.286031
 40
19.857924
 40
19.857924
 40
19.857924
 40
19.857924
 10
68.727492
 20
181.412605
 30
0.0
 10
70.396735
 20
182.772026
 30
0.0
 10
73.830290
 20
185.568291
 30
0.0
 10
78.146321
 20
190.726022
 30
0.0
 10
79.808577
 20
194.896391
 30
0.0
 10
80.623884
 20
196.941883
 30
0.0
 11
68.727492
 21
181.412605
 31
0.0
 11
73.606199
 21
185.645565
 31
0.0
 11
77.877266
 21
190.971467
 31
0.0
 11
80.623884
 21
196.941883
 31
0.0
  0
SPLINE
  5
19b
100
AcDbEntity
  8
3.1mm
 62
7
100
AcDbSpline
 70
0
 71
3
 72
10
 73
6
 74
4
 40
0.000000
 40
0.000000
 40
0.000000
 40
0.000000
 40
2.928528
 40
5.583341
 40
8.143687
 40
8.143687
 40
8.143687
 40
8.143687
 10
80.623884
 20
196.941883
 30
0.0
 10
80.720217
 20
197.918830
 30
0.0
 10
80.903880
 20
199.781415
 30
0.0
 10
80.388342
 20
202.467787
 30
0.0
 10
80.013452
 20
204.162712
 30
0.0
 10
79.829403
 20
204.994823
 30
0.0
 11
80.623884
 21
196.941883
 31
0.0
 11
80.765116
 21
199.867003
 31
0.0
 11
80.370767
 21
202.492365
 31
0.0
 11
79.829403
 21
204.994823
 31
0.0
  0
SPLINE
  5
19c
100
AcDbEntity
  8
3.1mm
 62
7
100
AcDbSpline
 70
0
 71
3
 72
10
 73
6
 74
4
 40
0.000000
 40
0.000000
 40
0.000000
 40
0.000000
 40
1.889871
 40
3.562230
 40
5.419322
 40
5.419322
 40
5.419322
 40
5.419322
 10
79.829403
 20
204.994823
 30
0.0
 10
79.662697
 20
205.597220
 30
0.0
 10
79.348471
 20
206.732681
 30
0.0
 10
78.091712
 20
208.295241
 30
0.0
 10
76.842893
 20
208.182958
 30
0.0
 10
76.185801
 20
208.123877
 30
0.0
 11
79.829403
 21
204.994823
 31
0.0
 11
79.185213
 21
206.771514
 31
0.0
 11
78.037937
 21
207.988290
 31
0.0
 11
76.185801
 21
208.123877
 31
0.0
  0
SPLINE
  5
19d
100
AcDbEntity
  8
3.1mm
 62
7
100
AcDbSpline
 70
0
 71
3
 72
10
 73
6
 74
4
 40
0.000000
 40
0.000000
 40
0.000000
 40
0.000000
 40
3.894011
 40
7.788021
 40
11.682030
 40
11.682030
 40
11.682030
 40
11.682030
 10
76.185801
 20
208.123877
 30
0.0
 10
74.887798
 20
208.123877
 30
0.0
 10
72.291791
 20
208.123877
 30
0.0
 10
68.397781
 20
208.123877
 30
0.0
 10
65.801774
 20
208.123877
 30
0.0
 10
64.503771
 20
208.123877
 30
0.0
 11
76.185801
 21
208.123877
 31
0.0
 11
72.291790
 21
208.123877
 31
0.0
 11
68.397781
 21
208.123877
 31
0.0
 11
64.503771
 21
208.123877
 31
0.0
  0
LINE
  5
19e
100
AcDbEntity
  8
3.1mm
 62
7
100
AcDbLine
 10
40.858316
 20
150.580640
 30
0.0
 11
40.858316
 21
150.580640
 31
0.0
  0
SPLINE
  5
19f
100
AcDbEntity
  8
3.1mm
 62
7
100
AcDbSpline
 70
0
 71
3
 72
10
 73
6
 74
4
 40
0.000000
 40
0.000000
 40
0.000000
 40
0.000000
 40
20.737329
 40
41.474659
 40
62.211990
 40
62.211990
 40
62.211990
 40
62.211990
 10
64.503771
 20
208.123877
 30
0.0
 10
61.876499
 20
201.730185
 30
0.0
 10
56.621954
 20
188.942799
 30
0.0
 10
48.740135
 20
169.761720
 30
0.0
 10
43.485589
 20
156.974334
 30
0.0
 10
40.858316
 20
150.580640
 30
0.0
 11
64.503771
 21
208.123877
 31
0.0
 11
56.621954
 21
188.942799
 31
0.0
 11
48.740135
 21
169.761720
 31
0.0
 11
40.858316
 21
150.580640
 31
0.0
  0
SPLINE
  5
1a0
100
AcDbEntity
  8
3.1mm
 62
7
100
AcDbSpline
 70
0
 71
3
 72
10
 73
6
 74
4
 40
0.000000
 40
0.000000
 40
0.000000
 40
0.000000
 40
1.487492
 40
3.001060
 40
4.425075
 40
4.425075
 40
4.425075
 40
4.425075
 10
86.154556
 20
203.266108
 30
0.0
 10
86.649263
 20
203.287993
 30
0.0
 10
87.647350
 20
203.332146
 30
0.0
 10
89.138908
 20
203.082772
 30
0.0
 10
90.072727
 20
203.429602
 30
0.0
 10
90.525402
 20
203.597730
 30
0.0
 11
86.154556
 21
203.266108
 31
0.0
 11
87.641989
 21
203.279366
 31
0.0
 11
89.154134
 21
203.213749
 31
0.0
 11
90.525402
 21
203.597730
 31
0.0
  0
SPLINE
  5
1a1
100
AcDbEntity
  8
3.1mm
 62
7
100
AcDbSpline
 70
0
 71
3
 72
10
 73
6
 74
4
 40
0.000000
 40
0.000000
 40
0.000000
 40
0.000000
 40
2.258340
 40
4.383406
 40
5.458698
 40
5.458698
 40
5.458698
 40
5.458698
 10
90.525402
 20
203.597730
 30
0.0
 10
90.733660
 20
204.254197
 30
0.0
 10
91.137884
 20
205.528389
 30
0.0
 10
92.800504
 20
207.649330
 30
0.0
 10
91.590816
 20
208.004533
 30
0.0
 10
91.184372
 20
208.123877
 30
0.0
 11
90.525402
 21
203.597730
 31
0.0
 11
91.397261
 21
205.680987
 31
0.0
 11
92.157101
 21
207.665565
 31
0.0
 11
91.184372
 21
208.123877
 31
0.0
  0
SPLINE
  5
1a2
100
AcDbEntity
  8
3.1mm
 62
7
100
AcDbSpline
 70
0
 71
3
 72
10
 73
6
 74
4
 40
0.000000
 40
0.000000
 40
0.000000
 40
0.000000
 40
1.506534
 40
2.943151
 40
4.964793
 40
4.964793
 40
4.964793
 40
4.964793
 10
91.184372
 20
208.123877
 30
0.0
 10
90.695392
 20
208.145445
 30
0.0
 10
89.740126
 20
208.187579
 30
0.0
 10
87.878200
 20
208.135138
 30
0.0
 10
87.534183
 20
206.872344
 30
0.0
 10
87.333077
 20
206.134135
 30
0.0
 11
91.184372
 21
208.123877
 31
0.0
 11
89.678526
 21
208.169395
 31
0.0
 11
88.262046
 21
207.929700
 31
0.0
 11
87.333077
 21
206.134135
 31
0.0
  0
LINE
  5
1a3
100
AcDbEntity
  8
3.1mm
 62
7
100
AcDbLine
 10
86.154556
 20
203.266108
 30
0.0
 11
86.154556
 21
203.266108
 31
0.0
  0
SPLINE
  5
1a4
100
AcDbEntity
  8
3.1mm
 62
7
100
AcDbSpline
 70
0
 71
3
 72
10
 73
6
 74
4
 40
0.000000
 40
0.000000
 40
0.000000
 40
0.000000
 40
1.033576
 40
2.067150
 40
3.100724
 40
3.100724
 40
3.100724
 40
3.100724
 10
87.333077
 20
206.134135
 30
0.0
 10
87.202130
 20
205.815465
 30
0.0
 10
86.940237
 20
205.178125
 30
0.0
 10
86.547396
 20
204.222116
 30
0.0
 10
86.285503
 20
203.584777
 30
0.0
 10
86.154556
 20
203.266108
 30
0.0
 11
87.333077
 21
206.134135
 31
0.0
 11
86.940237
 21
205.178125
 31
0.0
 11
86.547396
 21
204.222116
 31
0.0
 11
86.154556
 21
203.266108
 31
0.0
  0
SPLINE
  5
1a5
100
AcDbEntity
  8
3.1mm
 62
7
100
AcDbSpline
 70
0
 71
3
 72
10
 73
6
 74
4
 40
0.000000
 40
0.000000
 40
0.000000
 40
0.000000
 40
5.140704
 40
9.061878
 40
12.390460
 40
12.390460
 40
12.390460
 40
12.390460
 10
76.590612
 20
160.809167
 30
0.0
 10
76.066640
 20
159.209652
 30
0.0
 10
75.142998
 20
156.390076
 30
0.0
 10
75.782386
 20
151.609725
 30
0.0
 10
78.300936
 20
150.909779
 30
0.0
 10
79.457279
 20
150.588413
 30
0.0
 11
76.590612
 21
160.809167
 31
0.0
 11
75.466428
 21
155.792888
 31
0.0
 11
76.440300
 21
151.994576
 31
0.0
 11
79.457279
 21
150.588413
 31
0.0
  0
SPLINE
  5
1a6
100
AcDbEntity
  8
3.1mm
 62
7
100
AcDbSpline
 70
0
 71
3
 72
10
 73
6
 74
4
 40
0.000000
 40
0.000000
 40
0.000000
 40
0.000000
 40
3.889182
 40
7.782764
 40
11.675561
 40
11.675561
 40
11.675561
 40
11.675561
 10
79.457279
 20
150.588413
 30
0.0
 10
80.753669
 20
150.584432
 30
0.0
 10
83.347915
 20
150.576467
 30
0.0
 10
87.239771
 20
150.582233
 30
0.0
 10
89.835230
 20
150.581179
 30
0.0
 10
91.132829
 20
150.580652
 30
0.0
 11
79.457279
 21
150.588413
 31
0.0
 11
83.346451
 21
150.579420
 31
0.0
 11
87.240032
 21
150.581008
 31
0.0
 11
91.132829
 21
150.580652
 31
0.0
  0
SPLINE
  5
1a7
100
AcDbEntity
  8
3.1mm
 62
7
100
AcDbSpline
 70
0
 71
3
 72
10
 73
6
 74
4
 40
0.000000
 40
0.000000
 40
0.000000
 40
0.000000
 40
2.374329
 40
4.748658
 40
7.122989
 40
7.122989
 40
7.122989
 40
7.122989
 10
91.132829
 20
150.580652
 30
0.0
 10
91.433640
 20
151.312700
 30
0.0
 10
92.035262
 20
152.776797
 30
0.0
 10
92.937694
 20
154.972943
 30
0.0
 10
93.539315
 20
156.437041
 30
0.0
 10
93.840125
 20
157.169090
 30
0.0
 11
91.132829
 21
150.580652
 31
0.0
 11
92.035262
 21
152.776797
 31
0.0
 11
92.937694
 21
154.972943
 31
0.0
 11
93.840125
 21
157.169090
 31
0.0
  0
SPLINE
  5
1a8
100
AcDbEntity
  8
3.1mm
 62
7
100
AcDbSpline
 70
0
 71
3
 72
10
 73
6
 74
4
 40
0.000000
 40
0.000000
 40
0.000000
 40
0.000000
 40
3.722249
 40
7.476739
 40
11.101859
 40
11.101859
 40
11.101859
 40
11.101859
 10
93.840125
 20
157.169090
 30
0.0
 10
92.599524
 20
157.185981
 30
0.0
 10
90.107576
 20
157.219910
 30
0.0
 10
86.404843
 20
157.037747
 30
0.0
 10
83.951841
 20
157.258296
 30
0.0
 10
82.746842
 20
157.366637
 30
0.0
 11
93.840125
 21
157.169090
 31
0.0
 11
90.117895
 21
157.180948
 31
0.0
 11
86.363836
 21
157.124054
 31
0.0
 11
82.746842
 21
157.366637
 31
0.0
  0
SPLINE
  5
1a9
100
AcDbEntity
  8
3.1mm
 62
7
100
AcDbSpline
 70
0
 71
3
 72
10
 73
6
 74
4
 40
0.000000
 40
0.000000
 40
0.000000
 40
0.000000
 40
1.771086
 40
3.972563
 40
6.847557
 40
6.847557
 40
6.847557
 40
6.847557
 10
82.746842
 20
157.366637
 30
0.0
 10
82.193628
 20
157.664229
 30
0.0
 10
80.952765
 20
158.331730
 30
0.0
 10
80.906056
 20
160.937921
 30
0.0
 10
81.523233
 20
162.483322
 30
0.0
 10
81.872763
 20
163.358539
 30
0.0
 11
82.746842
 21
157.366637
 31
0.0
 11
81.328454
 21
158.427261
 31
0.0
 11
81.033231
 21
160.608853
 31
0.0
 11
81.872763
 21
163.358539
 31
0.0
  0
SPLINE
  5
1aa
100
AcDbEntity
  8
3.1mm
 62
7
100
AcDbSpline
 70
0
 71
3
 72
10
 73
6
 74
4
 40
0.000000
 40
0.000000
 40
0.000000
 40
0.000000
 40
16.132459
 40
32.264916
 40
48.397373
 40
48.397373
 40
48.397373
 40
48.397373
 10
81.872763
 20
163.358539
 30
0.0
 10
83.916632
 20
168.332467
 30
0.0
 10
88.004369
 20
178.280323
 30
0.0
 10
94.135973
 20
193.202106
 30
0.0
 10
98.223710
 20
203.149961
 30
0.0
 10
100.267578
 20
208.123889
 30
0.0
 11
81.872763
 21
163.358539
 31
0.0
 11
88.004369
 21
178.280324
 31
0.0
 11
94.135974
 21
193.202106
 31
0.0
 11
100.267578
 21
208.123889
 31
0.0
  0
SPLINE
  5
1ab
100
AcDbEntity
  8
3.1mm
 62
7
100
AcDbSpline
 70
0
 71
3
 72
10
 73
6
 74
4
 40
0.000000
 40
0.000000
 40
0.000000
 40
0.000000
 40
1.487489
 40
3.001058
 40
4.425075
 40
4.425075
 40
4.425075
 40
4.425075
 10
100.267578
 20
208.123889
 30
0.0
 10
99.772872
 20
208.102004
 30
0.0
 10
98.774786
 20
208.057851
 30
0.0
 10
97.283228
 20
208.307226
 30
0.0
 10
96.349408
 20
207.960395
 30
0.0
 10
95.896732
 20
207.792266
 30
0.0
 11
100.267578
 21
208.123889
 31
0.0
 11
98.780149
 21
208.110631
 31
0.0
 11
97.268003
 21
208.176249
 31
0.0
 11
95.896732
 21
207.792266
 31
0.0
  0
LINE
  5
1ac
100
AcDbEntity
  8
3.1mm
 62
7
100
AcDbLine
 10
76.590612
 20
160.809178
 30
0.0
 11
76.590612
 21
160.809167
 31
0.0
  0
SPLINE
  5
1ad
100
AcDbEntity
  8
3.1mm
 62
7
100
AcDbSpline
 70
0
 71
3
 72
10
 73
6
 74
4
 40
0.000000
 40
0.000000
 40
0.000000
 40
0.000000
 40
16.931682
 40
33.863364
 40
50.795047
 40
50.795047
 40
50.795047
 40
50.795047
 10
95.896732
 20
207.792266
 30
0.0
 10
93.751608
 20
202.571923
 30
0.0
 10
89.461360
 20
192.131237
 30
0.0
 10
83.025987
 20
176.470207
 30
0.0
 10
78.735737
 20
166.029521
 30
0.0
 10
76.590612
 20
160.809178
 30
0.0
 11
95.896732
 21
207.792266
 31
0.0
 11
89.461360
 21
192.131237
 31
0.0
 11
83.025987
 21
176.470208
 31
0.0
 11
76.590612
 21
160.809178
 31
0.0
  0
SPLINE
  5
1ae
100
AcDbEntity
  8
3.1mm
 62
7
100
AcDbSpline
 70
0
 71
3
 72
10
 73
6
 74
4
 40
0.000000
 40
0.000000
 40
0.000000
 40
0.000000
 40
5.141317
 40
9.063084
 40
12.393031
 40
12.393031
 40
12.393031
 40
12.393031
 10
98.088114
 20
160.809167
 30
0.0
 10
97.564212
 20
159.209659
 30
0.0
 10
96.640679
 20
156.390057
 30
0.0
 10
97.276924
 20
151.607089
 30
0.0
 10
99.797395
 20
150.908980
 30
0.0
 10
100.954781
 20
150.588413
 30
0.0
 11
98.088114
 21
160.809167
 31
0.0
 11
96.963340
 21
155.792393
 31
0.0
 11
97.935586
 21
151.993051
 31
0.0
 11
100.954781
 21
150.588413
 31
0.0
  0
SPLINE
  5
1af
100
AcDbEntity
  8
3.1mm
 62
7
100
AcDbSpline
 70
0
 71
3
 72
10
 73
6
 74
4
 40
0.000000
 40
0.000000
 40
0.000000
 40
0.000000
 40
3.889181
 40
7.782762
 40
11.675558
 40
11.675558
 40
11.675558
 40
11.675558
 10
100.954781
 20
150.588413
 30
0.0
 10
102.251170
 20
150.584432
 30
0.0
 10
104.845415
 20
150.576467
 30
0.0
 10
108.737271
 20
150.582233
 30
0.0
 10
111.332730
 20
150.581179
 30
0.0
 10
112.630328
 20
150.580652
 30
0.0
 11
100.954781
 21
150.588413
 31
0.0
 11
104.843951
 21
150.579420
 31
0.0
 11
108.737532
 21
150.581008
 31
0.0
 11
112.630328
 21
150.580652
 31
0.0
  0
SPLINE
  5
1b0
100
AcDbEntity
  8
3.1mm
 62
7
100
AcDbSpline
 70
0
 71
3
 72
10
 73
6
 74
4
 40
0.000000
 40
0.000000
 40
0.000000
 40
0.000000
 40
2.374329
 40
4.748659
 40
7.122990
 40
7.122990
 40
7.122990
 40
7.122990
 10
112.630328
 20
150.580652
 30
0.0
 10
112.931139
 20
151.312700
 30
0.0
 10
113.532761
 20
152.776797
 30
0.0
 10
114.435194
 20
154.972943
 30
0.0
 10
115.036816
 20
156.437041
 30
0.0
 10
115.337627
 20
157.169090
 30
0.0
 11
112.630328
 21
150.580652
 31
0.0
 11
113.532761
 21
152.776797
 31
0.0
 11
114.435194
 21
154.972943
 31
0.0
 11
115.337627
 21
157.169090
 31
0.0
  0
SPLINE
  5
1b1
100
AcDbEntity
  8
3.1mm
 62
7
100
AcDbSpline
 70
0
 71
3
 72
10
 73
6
 74
4
 40
0.000000
 40
0.000000
 40
0.000000
 40
0.000000
 40
3.722249
 40
7.476739
 40
11.101859
 40
11.101859
 40
11.101859
 40
11.101859
 10
115.337627
 20
157.169090
 30
0.0
 10
114.097026
 20
157.185981
 30
0.0
 10
111.605078
 20
157.219910
 30
0.0
 10
107.902344
 20
157.037747
 30
0.0
 10
105.449343
 20
157.258296
 30
0.0
 10
104.244343
 20
157.366637
 30
0.0
 11
115.337627
 21
157.169090
 31
0.0
 11
111.615397
 21
157.180948
 31
0.0
 11
107.861338
 21
157.124054
 31
0.0
 11
104.244343
 21
157.366637
 31
0.0
  0
SPLINE
  5
1b2
100
AcDbEntity
  8
3.1mm
 62
7
100
AcDbSpline
 70
0
 71
3
 72
10
 73
6
 74
4
 40
0.000000
 40
0.000000
 40
0.000000
 40
0.000000
 40
1.771122
 40
3.972668
 40
6.847747
 40
6.847747
 40
6.847747
 40
6.847747
 10
104.244343
 20
157.366637
 30
0.0
 10
103.691059
 20
157.664163
 30
0.0
 10
102.450030
 20
158.331522
 30
0.0
 10
102.403538
 20
160.937892
 30
0.0
 10
103.020727
 20
162.483311
 30
0.0
 10
103.370264
 20
163.358539
 30
0.0
 11
104.244343
 21
157.366637
 31
0.0
 11
102.825799
 21
158.427111
 31
0.0
 11
102.530664
 21
160.608785
 31
0.0
 11
103.370264
 21
163.358539
 31
0.0
  0
SPLINE
  5
1b3
100
AcDbEntity
  8
3.1mm
 62
7
100
AcDbSpline
 70
0
 71
3
 72
10
 73
6
 74
4
 40
0.000000
 40
0.000000
 40
0.000000
 40
0.000000
 40
16.132459
 40
32.264916
 40
48.397373
 40
48.397373
 40
48.397373
 40
48.397373
 10
103.370264
 20
163.358539
 30
0.0
 10
105.414133
 20
168.332467
 30
0.0
 10
109.501869
 20
178.280323
 30
0.0
 10
115.633475
 20
193.202106
 30
0.0
 10
119.721211
 20
203.149961
 30
0.0
 10
121.765080
 20
208.123889
 30
0.0
 11
103.370264
 21
163.358539
 31
0.0
 11
109.501869
 21
178.280324
 31
0.0
 11
115.633475
 21
193.202106
 31
0.0
 11
121.765080
 21
208.123889
 31
0.0
  0
SPLINE
  5
1b4
100
AcDbEntity
  8
3.1mm
 62
7
100
AcDbSpline
 70
0
 71
3
 72
10
 73
6
 74
4
 40
0.000000
 40
0.000000
 40
0.000000
 40
0.000000
 40
1.487490
 40
3.001058
 40
4.425075
 40
4.425075
 40
4.425075
 40
4.425075
 10
121.765080
 20
208.123889
 30
0.0
 10
121.270373
 20
208.102004
 30
0.0
 10
120.272288
 20
208.057851
 30
0.0
 10
118.780729
 20
208.307226
 30
0.0
 10
117.846910
 20
207.960395
 30
0.0
 10
117.394234
 20
207.792266
 30
0.0
 11
121.765080
 21
208.123889
 31
0.0
 11
120.277649
 21
208.110631
 31
0.0
 11
118.765504
 21
208.176249
 31
0.0
 11
117.394234
 21
207.792266
 31
0.0
  0
LINE
  5
1b5
100
AcDbEntity
  8
3.1mm
 62
7
100
AcDbLine
 10
98.088114
 20
160.809178
 30
0.0
 11
98.088114
 21
160.809167
 31
0.0
  0
SPLINE
  5
1b6
100
AcDbEntity
  8
3.1mm
 62
7
100
AcDbSpline
 70
0
 71
3
 72
10
 73
6
 74
4
 40
0.000000
 40
0.000000
 40
0.000000
 40
0.000000
 40
16.931683
 40
33.863365
 40
50.795047
 40
50.795047
 40
50.795047
 40
50.795047
 10
117.394234
 20
207.792266
 30
0.0
 10
115.249109
 20
202.571923
 30
0.0
 10
110.958859
 20
192.131237
 30
0.0
 10
104.523486
 20
176.470208
 30
0.0
 10
100.233238
 20
166.029521
 30
0.0
 10
98.088114
 20
160.809178
 30
0.0
 11
117.394234
 21
207.792266
 31
0.0
 11
110.958859
 21
192.131237
 31
0.0
 11
104.523486
 21
176.470208
 31
0.0
 11
98.088114
 21
160.809178
 31
0.0
  0
SPLINE
  5
1b7
100
AcDbEntity
  8
3.1mm
 62
7
100
AcDbSpline
 70
0
 71
3
 72
10
 73
6
 74
4
 40
0.000000
 40
0.000000
 40
0.000000
 40
0.000000
 40
4.517862
 40
9.023102
 40
13.608492
 40
13.608492
 40
13.608492
 40
13.608492
 10
115.382545
 20
150.580640
 30
0.0
 10
116.888407
 20
150.591919
 30
0.0
 10
119.895925
 20
150.614444
 30
0.0
 10
124.433437
 20
150.486299
 30
0.0
 10
127.459657
 20
150.670127
 30
0.0
 10
128.986108
 20
150.762851
 30
0.0
 11
115.382545
 21
150.580640
 31
0.0
 11
119.900402
 21
150.587527
 31
0.0
 11
124.405511
 21
150.553229
 31
0.0
 11
128.986108
 21
150.762851
 31
0.0
  0
SPLINE
  5
1b8
100
AcDbEntity
  8
3.1mm
 62
7
100
AcDbSpline
 70
0
 71
3
 72
10
 73
6
 74
4
 40
0.000000
 40
0.000000
 40
0.000000
 40
0.000000
 40
2.964342
 40
6.210961
 40
9.498971
 40
9.498971
 40
9.498971
 40
9.498971
 10
128.986108
 20
150.762851
 30
0.0
 10
129.837616
 20
151.268512
 30
0.0
 10
131.621715
 20
152.327984
 30
0.0
 10
133.994179
 20
154.442395
 30
0.0
 10
135.610263
 20
155.900437
 30
0.0
 10
136.423423
 20
156.634076
 30
0.0
 11
128.986108
 21
150.762851
 31
0.0
 11
131.487590
 21
152.353421
 31
0.0
 11
133.979890
 21
154.434039
 31
0.0
 11
136.423423
 21
156.634076
 31
0.0
  0
SPLINE
  5
1b9
100
AcDbEntity
  8
3.1mm
 62
7
100
AcDbSpline
 70
0
 71
3
 72
10
 73
6
 74
4
 40
0.000000
 40
0.000000
 40
0.000000
 40
0.000000
 40
3.557969
 40
7.160399
 40
10.666231
 40
10.666231
 40
10.666231
 40
10.666231
 10
136.423423
 20
156.634076
 30
0.0
 10
137.266335
 20
157.468511
 30
0.0
 10
138.962694
 20
159.147810
 30
0.0
 10
141.073108
 20
162.056510
 30
0.0
 10
141.930584
 20
164.274018
 30
0.0
 10
142.353496
 20
165.367705
 30
0.0
 11
136.423423
 21
156.634076
 31
0.0
 11
138.883125
 21
159.204875
 31
0.0
 11
140.951226
 21
162.154530
 31
0.0
 11
142.353496
 21
165.367705
 31
0.0
  0
SPLINE
  5
1ba
100
AcDbEntity
  8
3.1mm
 62
7
100
AcDbSpline
 70
0
 71
3
 72
10
 73
6
 74
4
 40
0.000000
 40
0.000000
 40
0.000000
 40
0.000000
 40
11.154529
 40
22.316967
 40
33.434467
 40
33.434467
 40
33.434467
 40
33.434467
 10
142.353496
 20
165.367705
 30
0.0
 10
143.763014
 20
168.808355
 30
0.0
 10
146.583049
 20
175.692096
 30
0.0
 10
150.860452
 20
185.983567
 30
0.0
 10
153.624775
 20
192.876659
 30
0.0
 10
155.004149
 20
196.316253
 30
0.0
 11
142.353496
 21
165.367705
 31
0.0
 11
146.590809
 21
175.686072
 31
0.0
 11
150.844605
 21
186.006210
 31
0.0
 11
155.004149
 21
196.316253
 31
0.0
  0
SPLINE
  5
1bb
100
AcDbEntity
  8
3.1mm
 62
7
100
AcDbSpline
 70
0
 71
3
 72
10
 73
6
 74
4
 40
0.000000
 40
0.000000
 40
0.000000
 40
0.000000
 40
3.128923
 40
5.894875
 40
8.542374
 40
8.542374
 40
8.542374
 40
8.542374
 10
155.004149
 20
196.316253
 30
0.0
 10
155.175528
 20
197.354087
 30
0.0
 10
155.498406
 20
199.309362
 30
0.0
 10
154.965271
 20
202.137965
 30
0.0
 10
154.597909
 20
203.900812
 30
0.0
 10
154.418247
 20
204.762949
 30
0.0
 11
155.004149
 21
196.316253
 31
0.0
 11
155.323670
 21
199.428818
 31
0.0
 11
154.950176
 21
202.169438
 31
0.0
 11
154.418247
 21
204.762949
 31
0.0
  0
SPLINE
  5
1bc
100
AcDbEntity
  8
3.1mm
 62
7
100
AcDbSpline
 70
0
 71
3
 72
10
 73
6
 74
4
 40
0.000000
 40
0.000000
 40
0.000000
 40
0.000000
 40
1.986781
 40
3.734380
 40
5.655135
 40
5.655135
 40
5.655135
 40
5.655135
 10
154.418247
 20
204.762949
 30
0.0
 10
154.250746
 20
205.395794
 30
0.0
 10
153.935907
 20
206.585298
 30
0.0
 10
152.700997
 20
208.284453
 30
0.0
 10
151.394554
 20
208.179061
 30
0.0
 10
150.710499
 20
208.123877
 30
0.0
 11
154.418247
 21
204.762949
 31
0.0
 11
153.774037
 21
206.642388
 31
0.0
 11
152.624109
 21
207.958355
 31
0.0
 11
150.710499
 21
208.123877
 31
0.0
  0
SPLINE
  5
1bd
100
AcDbEntity
  8
3.1mm
 62
7
100
AcDbSpline
 70
0
 71
3
 72
10
 73
6
 74
4
 40
0.000000
 40
0.000000
 40
0.000000
 40
0.000000
 40
1.445928
 40
2.891854
 40
4.337778
 40
4.337778
 40
4.337778
 40
4.337778
 10
150.710499
 20
208.123877
 30
0.0
 10
150.228523
 20
208.123877
 30
0.0
 10
149.264572
 20
208.123877
 30
0.0
 10
147.818646
 20
208.123877
 30
0.0
 10
146.854696
 20
208.123877
 30
0.0
 10
146.372721
 20
208.123877
 30
0.0
 11
150.710499
 21
208.123877
 31
0.0
 11
149.264571
 21
208.123877
 31
0.0
 11
147.818645
 21
208.123877
 31
0.0
 11
146.372721
 21
208.123877
 31
0.0
  0
SPLINE
  5
1be
100
AcDbEntity
  8
3.1mm
 62
7
100
AcDbSpline
 70
0
 71
3
 72
10
 73
6
 74
4
 40
0.000000
 40
0.000000
 40
0.000000
 40
0.000000
 40
2.229427
 40
4.506934
 40
5.495880
 40
5.495880
 40
5.495880
 40
5.495880
 10
146.372721
 20
208.123877
 30
0.0
 10
146.169225
 20
207.450826
 30
0.0
 10
145.757843
 20
206.090208
 30
0.0
 10
144.074051
 20
204.217633
 30
0.0
 10
145.043725
 20
203.487240
 30
0.0
 10
145.337301
 20
203.266108
 30
0.0
 11
146.372721
 21
208.123877
 31
0.0
 11
145.525019
 21
206.061902
 31
0.0
 11
144.637186
 21
203.964572
 31
0.0
 11
145.337301
 21
203.266108
 31
0.0
  0
SPLINE
  5
1bf
100
AcDbEntity
  8
3.1mm
 62
7
100
AcDbSpline
 70
0
 71
3
 72
10
 73
6
 74
4
 40
0.000000
 40
0.000000
 40
0.000000
 40
0.000000
 40
1.654604
 40
3.235299
 40
4.676771
 40
4.676771
 40
4.676771
 40
4.676771
 10
145.337301
 20
203.266108
 30
0.0
 10
145.877865
 20
203.269456
 30
0.0
 10
146.934846
 20
203.276002
 30
0.0
 10
148.642397
 20
203.433501
 30
0.0
 10
149.284220
 20
202.570708
 30
0.0
 10
149.590348
 20
202.159184
 30
0.0
 11
145.337301
 21
203.266108
 31
0.0
 11
146.991495
 21
203.302937
 31
0.0
 11
148.566949
 21
203.174318
 31
0.0
 11
149.590348
 21
202.159184
 31
0.0
  0
SPLINE
  5
1c0
100
AcDbEntity
  8
3.1mm
 62
7
100
AcDbSpline
 70
0
 71
3
 72
10
 73
6
 74
4
 40
0.000000
 40
0.000000
 40
0.000000
 40
0.000000
 40
2.740354
 40
5.975110
 40
10.017327
 40
10.017327
 40
10.017327
 40
10.017327
 10
149.590348
 20
202.159184
 30
0.0
 10
150.056672
 20
201.364423
 30
0.0
 10
151.073452
 20
199.631512
 30
0.0
 10
151.292467
 20
196.142905
 30
0.0
 10
150.368067
 20
193.877534
 30
0.0
 10
149.854581
 20
192.619164
 30
0.0
 11
149.590348
 21
202.159184
 31
0.0
 11
150.802929
 21
199.701708
 31
0.0
 11
151.060716
 21
196.477241
 31
0.0
 11
149.854581
 21
192.619164
 31
0.0
  0
SPLINE
  5
1c1
100
AcDbEntity
  8
3.1mm
 62
7
100
AcDbSpline
 70
0
 71
3
 72
10
 73
6
 74
4
 40
0.000000
 40
0.000000
 40
0.000000
 40
0.000000
 40
10.314333
 40
20.623842
 40
30.960740
 40
30.960740
 40
30.960740
 40
30.960740
 10
149.854581
 20
192.619164
 30
0.0
 10
148.543757
 20
189.440748
 30
0.0
 10
145.922723
 20
183.085403
 30
0.0
 10
142.045848
 20
173.520808
 30
0.0
 10
139.366483
 20
167.181553
 30
0.0
 10
138.025022
 20
164.007721
 30
0.0
 11
149.854581
 21
192.619164
 31
0.0
 11
145.931748
 21
183.079938
 31
0.0
 11
142.025830
 21
173.538985
 31
0.0
 11
138.025022
 21
164.007721
 31
0.0
  0
SPLINE
  5
1c2
100
AcDbEntity
  8
3.1mm
 62
7
100
AcDbSpline
 70
0
 71
3
 72
10
 73
6
 74
4
 40
0.000000
 40
0.000000
 40
0.000000
 40
0.000000
 40
2.727458
 40
5.468775
 40
8.153917
 40
8.153917
 40
8.153917
 40
8.153917
 10
138.025022
 20
164.007721
 30
0.0
 10
137.548118
 20
163.230461
 30
0.0
 10
136.591885
 20
161.671992
 30
0.0
 10
134.691906
 20
159.710013
 30
0.0
 10
133.396809
 20
158.449555
 30
0.0
 10
132.755965
 20
157.825849
 30
0.0
 11
138.025022
 21
164.007721
 31
0.0
 11
136.515193
 21
161.736280
 31
0.0
 11
134.670993
 21
159.708043
 31
0.0
 11
132.755965
 21
157.825849
 31
0.0
  0
SPLINE
  5
1c3
100
AcDbEntity
  8
3.1mm
 62
7
100
AcDbSpline
 70
0
 71
3
 72
10
 73
6
 74
4
 40
0.000000
 40
0.000000
 40
0.000000
 40
0.000000
 40
2.601470
 40
4.776662
 40
6.595004
 40
6.595004
 40
6.595004
 40
6.595004
 10
132.755965
 20
157.825849
 30
0.0
 10
132.101705
 20
157.257610
 30
0.0
 10
130.900394
 20
156.214245
 30
0.0
 10
128.816625
 20
155.278226
 30
0.0
 10
127.473055
 20
155.387852
 30
0.0
 10
126.861299
 20
155.437767
 30
0.0
 11
132.755965
 21
157.825849
 31
0.0
 11
130.701851
 21
156.229521
 31
0.0
 11
128.679616
 21
155.428256
 31
0.0
 11
126.861299
 21
155.437767
 31
0.0
  0
SPLINE
  5
1c4
100
AcDbEntity
  8
3.1mm
 62
7
100
AcDbSpline
 70
0
 71
3
 72
10
 73
6
 74
4
 40
0.000000
 40
0.000000
 40
0.000000
 40
0.000000
 40
1.749434
 40
3.498869
 40
5.248303
 40
5.248303
 40
5.248303
 40
5.248303
 10
126.861299
 20
155.437767
 30
0.0
 10
126.278154
 20
155.437767
 30
0.0
 10
125.111865
 20
155.437767
 30
0.0
 10
123.362430
 20
155.437767
 30
0.0
 10
122.196141
 20
155.437767
 30
0.0
 10
121.612996
 20
155.437767
 30
0.0
 11
126.861299
 21
155.437767
 31
0.0
 11
125.111865
 21
155.437767
 31
0.0
 11
123.362430
 21
155.437767
 31
0.0
 11
121.612996
 21
155.437767
 31
0.0
  0
SPLINE
  5
1c5
100
AcDbEntity
  8
3.1mm
 62
7
100
AcDbSpline
 70
0
 71
3
 72
10
 73
6
 74
4
 40
0.000000
 40
0.000000
 40
0.000000
 40
0.000000
 40
18.986927
 40
37.973855
 40
56.960782
 40
56.960782
 40
56.960782
 40
56.960782
 10
121.612996
 20
155.437767
 30
0.0
 10
124.018505
 20
161.291779
 30
0.0
 10
128.829523
 20
172.999804
 30
0.0
 10
136.046051
 20
190.561840
 30
0.0
 10
140.857070
 20
202.269865
 30
0.0
 10
143.262579
 20
208.123877
 30
0.0
 11
121.612996
 21
155.437767
 31
0.0
 11
128.829523
 21
172.999804
 31
0.0
 11
136.046051
 21
190.561841
 31
0.0
 11
143.262579
 21
208.123877
 31
0.0
  0
SPLINE
  5
1c6
100
AcDbEntity
  8
3.1mm
 62
7
100
AcDbSpline
 70
0
 71
3
 72
10
 73
6
 74
4
 40
0.000000
 40
0.000000
 40
0.000000
 40
0.000000
 40
1.487489
 40
3.001058
 40
4.425075
 40
4.425075
 40
4.425075
 40
4.425075
 10
143.262579
 20
208.123877
 30
0.0
 10
142.767873
 20
208.101993
 30
0.0
 10
141.769787
 20
208.057839
 30
0.0
 10
140.278228
 20
208.307215
 30
0.0
 10
139.344409
 20
207.960384
 30
0.0
 10
138.891732
 20
207.792255
 30
0.0
 11
143.262579
 21
208.123877
 31
0.0
 11
141.775149
 21
208.110620
 31
0.0
 11
140.263003
 21
208.176238
 31
0.0
 11
138.891732
 21
207.792255
 31
0.0
  0
LINE
  5
1c7
100
AcDbEntity
  8
3.1mm
 62
7
100
AcDbLine
 10
115.382545
 20
150.580640
 30
0.0
 11
115.382545
 21
150.580640
 31
0.0
  0
SPLINE
  5
1c8
100
AcDbEntity
  8
3.1mm
 62
7
100
AcDbSpline
 70
0
 71
3
 72
10
 73
6
 74
4
 40
0.000000
 40
0.000000
 40
0.000000
 40
0.000000
 40
20.617822
 40
41.235642
 40
61.853462
 40
61.853462
 40
61.853462
 40
61.853462
 10
138.891732
 20
207.792255
 30
0.0
 10
136.279600
 20
201.435409
 30
0.0
 10
131.055337
 20
188.721716
 30
0.0
 10
123.218941
 20
169.651178
 30
0.0
 10
117.994677
 20
156.937486
 30
0.0
 10
115.382545
 20
150.580640
 30
0.0
 11
138.891732
 21
207.792255
 31
0.0
 11
131.055337
 21
188.721716
 31
0.0
 11
123.218941
 21
169.651178
 31
0.0
 11
115.382545
 21
150.580640
 31
0.0
  0
SPLINE
  5
1c9
100
AcDbEntity
  8
3.1mm
 62
7
100
AcDbSpline
 70
0
 71
3
 72
10
 73
6
 74
4
 40
0.000000
 40
0.000000
 40
0.000000
 40
0.000000
 40
4.340841
 40
9.719793
 40
15.443429
 40
15.443429
 40
15.443429
 40
15.443429
 10
170.764386
 20
208.119994
 30
0.0
 10
169.348720
 20
207.755123
 30
0.0
 10
166.178832
 20
206.938121
 30
0.0
 10
162.201500
 20
203.328557
 30
0.0
 10
160.463305
 20
200.054652
 30
0.0
 10
159.567225
 20
198.366880
 30
0.0
 11
170.764386
 21
208.119994
 31
0.0
 11
166.650348
 21
206.735223
 31
0.0
 11
162.553434
 21
203.249765
 31
0.0
 11
159.567225
 21
198.366880
 31
0.0
  0
SPLINE
  5
1ca
100
AcDbEntity
  8
3.1mm
 62
7
100
AcDbSpline
 70
0
 71
3
 72
10
 73
6
 74
4
 40
0.000000
 40
0.000000
 40
0.000000
 40
0.000000
 40
14.060673
 40
28.125624
 40
42.151045
 40
42.151045
 40
42.151045
 40
42.151045
 10
159.567225
 20
198.366880
 30
0.0
 10
157.787105
 20
194.031204
 30
0.0
 10
154.226323
 20
185.358532
 30
0.0
 10
148.847678
 20
172.378329
 30
0.0
 10
145.347020
 20
163.693814
 30
0.0
 10
143.599154
 20
159.357667
 30
0.0
 11
159.567225
 21
198.366880
 31
0.0
 11
154.219826
 21
185.362732
 31
0.0
 11
148.863640
 21
172.357575
 31
0.0
 11
143.599154
 21
159.357667
 31
0.0
  0
SPLINE
  5
1cb
100
AcDbEntity
  8
3.1mm
 62
7
100
AcDbSpline
 70
0
 71
3
 72
10
 73
6
 74
4
 40
0.000000
 40
0.000000
 40
0.000000
 40
0.000000
 40
4.437112
 40
7.849453
 40
10.900528
 40
10.900528
 40
10.900528
 40
10.900528
 10
143.599154
 20
159.357667
 30
0.0
 10
143.270095
 20
157.934965
 30
0.0
 10
142.687976
 20
155.418140
 30
0.0
 10
143.671739
 20
151.351025
 30
0.0
 10
145.929115
 20
150.832965
 30
0.0
 10
146.994716
 20
150.588413
 30
0.0
 11
143.599154
 21
159.357667
 31
0.0
 11
143.024350
 21
154.957944
 31
0.0
 11
144.170950
 21
151.744008
 31
0.0
 11
146.994716
 21
150.588413
 31
0.0
  0
SPLINE
  5
1cc
100
AcDbEntity
  8
3.1mm
 62
7
100
AcDbSpline
 70
0
 71
3
 72
10
 73
6
 74
4
 40
0.000000
 40
0.000000
 40
0.000000
 40
0.000000
 40
2.999130
 40
6.166294
 40
10.007325
 40
10.007325
 40
10.007325
 40
10.007325
 10
146.994716
 20
150.588413
 30
0.0
 10
147.990129
 20
150.554539
 30
0.0
 10
150.036726
 20
150.484894
 30
0.0
 10
153.442937
 20
150.680703
 30
0.0
 10
155.466509
 20
151.927725
 30
0.0
 10
156.575582
 20
152.611190
 30
0.0
 11
146.994716
 21
150.588413
 31
0.0
 11
149.993312
 21
150.531809
 31
0.0
 11
153.139676
 21
150.894197
 31
0.0
 11
156.575582
 21
152.611190
 31
0.0
  0
SPLINE
  5
1cd
100
AcDbEntity
  8
3.1mm
 62
7
100
AcDbSpline
 70
0
 71
3
 72
10
 73
6
 74
4
 40
0.000000
 40
0.000000
 40
0.000000
 40
0.000000
 40
4.346614
 40
8.909320
 40
13.332537
 40
13.332537
 40
13.332537
 40
13.332537
 10
156.575582
 20
152.611190
 30
0.0
 10
157.705055
 20
153.534194
 30
0.0
 10
160.020152
 20
155.426091
 30
0.0
 10
162.329091
 20
159.310696
 30
0.0
 10
163.425387
 20
162.094472
 30
0.0
 10
163.965026
 20
163.464754
 30
0.0
 11
156.575582
 21
152.611190
 31
0.0
 11
159.780208
 21
155.547757
 31
0.0
 11
162.234677
 21
159.394036
 31
0.0
 11
163.965026
 21
163.464754
 31
0.0
  0
SPLINE
  5
1ce
100
AcDbEntity
  8
3.1mm
 62
7
100
AcDbSpline
 70
0
 71
3
 72
10
 73
6
 74
4
 40
0.000000
 40
0.000000
 40
0.000000
 40
0.000000
 40
12.931687
 40
25.870908
 40
38.769498
 40
38.769498
 40
38.769498
 40
38.769498
 10
163.965026
 20
163.464754
 30
0.0
 10
165.599496
 20
167.453418
 30
0.0
 10
168.869387
 20
175.433069
 30
0.0
 10
173.824449
 20
187.368699
 30
0.0
 10
177.038514
 20
195.359187
 30
0.0
 10
178.643020
 20
199.348149
 30
0.0
 11
163.965026
 21
163.464754
 31
0.0
 11
168.877586
 21
175.426998
 31
0.0
 11
173.807517
 21
187.390242
 31
0.0
 11
178.643020
 21
199.348149
 31
0.0
  0
SPLINE
  5
1cf
100
AcDbEntity
  8
3.1mm
 62
7
100
AcDbSpline
 70
0
 71
3
 72
10
 73
6
 74
4
 40
0.000000
 40
0.000000
 40
0.000000
 40
0.000000
 40
4.434526
 40
7.846446
 40
10.896810
 40
10.896810
 40
10.896810
 40
10.896810
 10
178.643020
 20
199.348149
 30
0.0
 10
178.970807
 20
200.770202
 30
0.0
 10
179.550793
 20
203.286382
 30
0.0
 10
178.568120
 20
207.351661
 30
0.0
 10
176.311596
 20
207.870977
 30
0.0
 10
175.246459
 20
208.116108
 30
0.0
 11
178.643020
 21
199.348149
 31
0.0
 11
179.215116
 21
203.745617
 31
0.0
 11
178.068944
 21
206.959258
 31
0.0
 11
175.246459
 21
208.116108
 31
0.0
  0
LINE
  5
1d0
100
AcDbEntity
  8
3.1mm
 62
7
100
AcDbLine
 10
170.764386
 20
208.120003
 30
0.0
 11
170.764386
 21
208.119994
 31
0.0
  0
SPLINE
  5
1d1
100
AcDbEntity
  8
3.1mm
 62
7
100
AcDbSpline
 70
0
 71
3
 72
10
 73
6
 74
4
 40
0.000000
 40
0.000000
 40
0.000000
 40
0.000000
 40
1.490821
 40
2.985774
 40
4.482107
 40
4.482107
 40
4.482107
 40
4.482107
 10
175.246459
 20
208.116108
 30
0.0
 10
174.749530
 20
208.119918
 30
0.0
 10
173.754296
 20
208.127549
 30
0.0
 10
172.260250
 20
208.124595
 30
0.0
 10
171.263161
 20
208.121534
 30
0.0
 10
170.764386
 20
208.120003
 30
0.0
 11
175.246459
 21
208.116108
 31
0.0
 11
173.755666
 21
208.125145
 31
0.0
 11
172.260713
 21
208.124324
 31
0.0
 11
170.764386
 21
208.120003
 31
0.0
  0
SPLINE
  5
1d2
100
AcDbEntity
  8
3.1mm
 62
7
100
AcDbSpline
 70
0
 71
3
 72
10
 73
6
 74
4
 40
0.000000
 40
0.000000
 40
0.000000
 40
0.000000
 40
4.332306
 40
8.664612
 40
12.996918
 40
12.996918
 40
12.996918
 40
12.996918
 10
183.967783
 20
203.266108
 30
0.0
 10
185.411885
 20
203.266108
 30
0.0
 10
188.300089
 20
203.266108
 30
0.0
 10
192.632395
 20
203.266108
 30
0.0
 10
195.520599
 20
203.266108
 30
0.0
 10
196.964701
 20
203.266108
 30
0.0
 11
183.967783
 21
203.266108
 31
0.0
 11
188.300089
 21
203.266108
 31
0.0
 11
192.632395
 21
203.266108
 31
0.0
 11
196.964701
 21
203.266108
 31
0.0
  0
SPLINE
  5
1d3
100
AcDbEntity
  8
3.1mm
 62
7
100
AcDbSpline
 70
0
 71
3
 72
10
 73
6
 74
4
 40
0.000000
 40
0.000000
 40
0.000000
 40
0.000000
 40
8.776495
 40
17.577435
 40
26.373974
 40
26.373974
 40
26.373974
 40
26.373974
 10
196.964701
 20
203.266108
 30
0.0
 10
195.415394
 20
200.784317
 30
0.0
 10
192.312465
 20
195.813822
 30
0.0
 10
187.425847
 20
188.504813
 30
0.0
 10
184.218807
 20
183.593366
 30
0.0
 10
182.615688
 20
181.138257
 30
0.0
 11
196.964701
 21
203.266108
 31
0.0
 11
192.278424
 21
195.845482
 31
0.0
 11
187.438402
 21
188.494924
 31
0.0
 11
182.615688
 21
181.138257
 31
0.0
  0
SPLINE
  5
1d4
100
AcDbEntity
  8
3.1mm
 62
7
100
AcDbSpline
 70
0
 71
3
 72
10
 73
6
 74
4
 40
0.000000
 40
0.000000
 40
0.000000
 40
0.000000
 40
8.539737
 40
17.079703
 40
25.619790
 40
25.619790
 40
25.619790
 40
25.619790
 10
182.615688
 20
181.138257
 30
0.0
 10
181.052491
 20
178.759302
 30
0.0
 10
177.926054
 20
174.001328
 30
0.0
 10
173.232760
 20
166.866666
 30
0.0
 10
170.103072
 20
162.110691
 30
0.0
 10
168.538217
 20
159.732686
 30
0.0
 11
182.615688
 21
181.138257
 31
0.0
 11
177.925497
 21
174.001786
 31
0.0
 11
173.232585
 21
166.866830
 31
0.0
 11
168.538217
 21
159.732686
 31
0.0
  0
SPLINE
  5
1d5
100
AcDbEntity
  8
3.1mm
 62
7
100
AcDbSpline
 70
0
 71
3
 72
10
 73
6
 74
4
 40
0.000000
 40
0.000000
 40
0.000000
 40
0.000000
 40
1.829026
 40
3.658052
 40
5.487077
 40
5.487077
 40
5.487077
 40
5.487077
 10
168.538217
 20
159.732686
 30
0.0
 10
169.147893
 20
159.732686
 30
0.0
 10
170.367243
 20
159.732686
 30
0.0
 10
172.196269
 20
159.732686
 30
0.0
 10
173.415619
 20
159.732686
 30
0.0
 10
174.025295
 20
159.732686
 30
0.0
 11
168.538217
 21
159.732686
 31
0.0
 11
170.367243
 21
159.732686
 31
0.0
 11
172.196269
 21
159.732686
 31
0.0
 11
174.025295
 21
159.732686
 31
0.0
  0
SPLINE
  5
1d6
100
AcDbEntity
  8
3.1mm
 62
7
100
AcDbSpline
 70
0
 71
3
 72
10
 73
6
 74
4
 40
0.000000
 40
0.000000
 40
0.000000
 40
0.000000
 40
19.289261
 40
38.581945
 40
57.875305
 40
57.875305
 40
57.875305
 40
57.875305
 10
174.025295
 20
159.732686
 30
0.0
 10
177.536334
 20
165.119193
 30
0.0
 10
184.559035
 20
175.893163
 30
0.0
 10
195.168727
 20
192.005524
 30
0.0
 10
202.237347
 20
202.751030
 30
0.0
 10
205.771719
 20
208.123877
 30
0.0
 11
174.025295
 21
159.732686
 31
0.0
 11
184.570943
 21
175.883999
 31
0.0
 11
195.167361
 21
192.006144
 31
0.0
 11
205.771719
 21
208.123877
 31
0.0
  0
SPLINE
  5
1d7
100
AcDbEntity
  8
3.1mm
 62
7
100
AcDbSpline
 70
0
 71
3
 72
10
 73
6
 74
4
 40
0.000000
 40
0.000000
 40
0.000000
 40
0.000000
 40
6.602599
 40
13.205198
 40
19.807798
 40
19.807798
 40
19.807798
 40
19.807798
 10
205.771719
 20
208.123877
 30
0.0
 10
203.570852
 20
208.123877
 30
0.0
 10
199.169120
 20
208.123877
 30
0.0
 10
192.566520
 20
208.123877
 30
0.0
 10
188.164788
 20
208.123877
 30
0.0
 10
185.963921
 20
208.123877
 30
0.0
 11
205.771719
 21
208.123877
 31
0.0
 11
199.169120
 21
208.123877
 31
0.0
 11
192.566521
 21
208.123877
 31
0.0
 11
185.963921
 21
208.123877
 31
0.0
  0
LINE
  5
1d8
100
AcDbEntity
  8
3.1mm
 62
7
100
AcDbLine
 10
183.967783
 20
203.266108
 30
0.0
 11
183.967783
 21
203.266108
 31
0.0
  0
SPLINE
  5
1d9
100
AcDbEntity
  8
3.1mm
 62
7
100
AcDbSpline
 70
0
 71
3
 72
10
 73
6
 74
4
 40
0.000000
 40
0.000000
 40
0.000000
 40
0.000000
 40
1.750634
 40
3.501270
 40
5.251904
 40
5.251904
 40
5.251904
 40
5.251904
 10
185.963921
 20
208.123877
 30
0.0
 10
185.742128
 20
207.584125
 30
0.0
 10
185.298542
 20
206.504621
 30
0.0
 10
184.633162
 20
204.885364
 30
0.0
 10
184.189576
 20
203.805860
 30
0.0
 10
183.967783
 20
203.266108
 30
0.0
 11
185.963921
 21
208.123877
 31
0.0
 11
185.298542
 21
206.504621
 31
0.0
 11
184.633162
 21
204.885364
 31
0.0
 11
183.967783
 21
203.266108
 31
0.0
  0
SPLINE
  5
1da
100
AcDbEntity
  8
3.1mm
 62
7
100
AcDbSpline
 70
0
 71
3
 72
10
 73
6
 74
4
 40
0.000000
 40
0.000000
 40
0.000000
 40
0.000000
 40
1.466188
 40
3.017207
 40
4.443382
 40
4.443382
 40
4.443382
 40
4.443382
 10
199.516441
 20
183.557150
 30
0.0
 10
199.115446
 20
183.215741
 30
0.0
 10
198.290255
 20
182.513170
 30
0.0
 10
196.728334
 20
183.175431
 30
0.0
 10
195.793337
 20
182.760867
 30
0.0
 10
195.345442
 20
182.562277
 30
0.0
 11
199.516441
 21
183.557150
 31
0.0
 11
198.257867
 21
182.805020
 31
0.0
 11
196.714721
 21
182.961091
 31
0.0
 11
195.345442
 21
182.562277
 31
0.0
  0
SPLINE
  5
1db
100
AcDbEntity
  8
3.1mm
 62
7
100
AcDbSpline
 70
0
 71
3
 72
10
 73
6
 74
4
 40
0.000000
 40
0.000000
 40
0.000000
 40
0.000000
 40
2.200733
 40
4.569628
 40
5.880776
 40
5.880776
 40
5.880776
 40
5.880776
 10
195.345442
 20
182.562277
 30
0.0
 10
195.102233
 20
181.874112
 30
0.0
 10
194.597232
 20
180.445198
 30
0.0
 10
193.420268
 20
178.739984
 30
0.0
 10
193.522938
 20
177.491799
 30
0.0
 10
193.559517
 20
177.047088
 30
0.0
 11
195.345442
 21
182.562277
 31
0.0
 11
194.520825
 21
180.521877
 31
0.0
 11
193.556304
 21
178.358231
 31
0.0
 11
193.559517
 21
177.047088
 31
0.0
  0
SPLINE
  5
1dc
100
AcDbEntity
  8
3.1mm
 62
7
100
AcDbSpline
 70
0
 71
3
 72
10
 73
6
 74
4
 40
0.000000
 40
0.000000
 40
0.000000
 40
0.000000
 40
1.518703
 40
2.919001
 40
4.544468
 40
4.544468
 40
4.544468
 40
4.544468
 10
193.559517
 20
177.047088
 30
0.0
 10
194.027473
 20
177.034969
 30
0.0
 10
194.926900
 20
177.011675
 30
0.0
 10
196.986781
 20
177.307668
 30
0.0
 10
196.448936
 20
176.059496
 30
0.0
 10
196.160001
 20
175.388967
 30
0.0
 11
193.559517
 21
177.047088
 31
0.0
 11
195.078070
 21
177.068500
 31
0.0
 11
196.475783
 21
176.983465
 31
0.0
 11
196.160001
 21
175.388967
 31
0.0
  0
SPLINE
  5
1dd
100
AcDbEntity
  8
3.1mm
 62
7
100
AcDbSpline
 70
0
 71
3
 72
10
 73
6
 74
4
 40
0.000000
 40
0.000000
 40
0.000000
 40
0.000000
 40
8.940381
 40
17.880762
 40
26.821143
 40
26.821143
 40
26.821143
 40
26.821143
 10
196.160001
 20
175.388967
 30
0.0
 10
195.027318
 20
172.632486
 30
0.0
 10
192.761952
 20
167.119525
 30
0.0
 10
189.363903
 20
158.850083
 30
0.0
 10
187.098537
 20
153.337121
 30
0.0
 10
185.965854
 20
150.580640
 30
0.0
 11
196.160001
 21
175.388967
 31
0.0
 11
192.761952
 21
167.119525
 31
0.0
 11
189.363903
 21
158.850082
 31
0.0
 11
185.965854
 21
150.580640
 31
0.0
  0
SPLINE
  5
1de
100
AcDbEntity
  8
3.1mm
 62
7
100
AcDbSpline
 70
0
 71
3
 72
10
 73
6
 74
4
 40
0.000000
 40
0.000000
 40
0.000000
 40
0.000000
 40
5.173404
 40
10.346805
 40
15.520202
 40
15.520202
 40
15.520202
 40
15.520202
 10
185.965854
 20
150.580640
 30
0.0
 10
187.690322
 20
150.580640
 30
0.0
 10
191.139257
 20
150.580640
 30
0.0
 10
196.312658
 20
150.580640
 30
0.0
 10
199.761591
 20
150.580640
 30
0.0
 10
201.486056
 20
150.580640
 30
0.0
 11
185.965854
 21
150.580640
 31
0.0
 11
191.139258
 21
150.580640
 31
0.0
 11
196.312660
 21
150.580640
 31
0.0
 11
201.486056
 21
150.580640
 31
0.0
  0
SPLINE
  5
1df
100
AcDbEntity
  8
3.1mm
 62
7
100
AcDbSpline
 70
0
 71
3
 72
10
 73
6
 74
4
 40
0.000000
 40
0.000000
 40
0.000000
 40
0.000000
 40
2.208613
 40
4.524610
 40
6.249632
 40
6.249632
 40
6.249632
 40
6.249632
 10
201.486056
 20
150.580640
 30
0.0
 10
201.750147
 20
151.267426
 30
0.0
 10
202.291170
 20
152.674388
 30
0.0
 10
203.264268
 20
154.535837
 30
0.0
 10
203.533500
 20
155.861543
 30
0.0
 10
203.648429
 20
156.427458
 30
0.0
 11
201.486056
 21
150.580640
 31
0.0
 11
202.317283
 21
152.626864
 31
0.0
 11
203.238045
 21
154.751961
 31
0.0
 11
203.648429
 21
156.427458
 31
0.0
  0
SPLINE
  5
1e0
100
AcDbEntity
  8
3.1mm
 62
7
100
AcDbSpline
 70
0
 71
3
 72
10
 73
6
 74
4
 40
0.000000
 40
0.000000
 40
0.000000
 40
0.000000
 40
3.681966
 40
7.363940
 40
11.045915
 40
11.045915
 40
11.045915
 40
11.045915
 10
203.648429
 20
156.427458
 30
0.0
 10
202.421106
 20
156.427458
 30
0.0
 10
199.966460
 20
156.427458
 30
0.0
 10
196.284488
 20
156.427458
 30
0.0
 10
193.829838
 20
156.427458
 30
0.0
 10
192.602513
 20
156.427458
 30
0.0
 11
203.648429
 21
156.427458
 31
0.0
 11
199.966462
 21
156.427458
 31
0.0
 11
196.284489
 21
156.427458
 31
0.0
 11
192.602513
 21
156.427458
 31
0.0
  0
SPLINE
  5
1e1
100
AcDbEntity
  8
3.1mm
 62
7
100
AcDbSpline
 70
0
 71
3
 72
10
 73
6
 74
4
 40
0.000000
 40
0.000000
 40
0.000000
 40
0.000000
 40
7.430866
 40
14.861732
 40
22.292597
 40
22.292597
 40
22.292597
 40
22.292597
 10
192.602513
 20
156.427458
 30
0.0
 10
193.543952
 20
158.718528
 30
0.0
 10
195.426829
 20
163.300667
 30
0.0
 10
198.251143
 20
170.173878
 30
0.0
 10
200.134019
 20
174.756018
 30
0.0
 10
201.075457
 20
177.047088
 30
0.0
 11
192.602513
 21
156.427458
 31
0.0
 11
195.426829
 21
163.300668
 31
0.0
 11
198.251143
 21
170.173878
 31
0.0
 11
201.075457
 21
177.047088
 31
0.0
  0
SPLINE
  5
1e2
100
AcDbEntity
  8
3.1mm
 62
7
100
AcDbSpline
 70
0
 71
3
 72
10
 73
6
 74
4
 40
0.000000
 40
0.000000
 40
0.000000
 40
0.000000
 40
3.194736
 40
6.389472
 40
9.584207
 40
9.584207
 40
9.584207
 40
9.584207
 10
201.075457
 20
177.047088
 30
0.0
 10
202.140368
 20
177.047088
 30
0.0
 10
204.270192
 20
177.047088
 30
0.0
 10
207.464928
 20
177.047088
 30
0.0
 10
209.594752
 20
177.047088
 30
0.0
 10
210.659664
 20
177.047088
 30
0.0
 11
201.075457
 21
177.047088
 31
0.0
 11
204.270192
 21
177.047088
 31
0.0
 11
207.464928
 21
177.047088
 31
0.0
 11
210.659664
 21
177.047088
 31
0.0
  0
SPLINE
  5
1e3
100
AcDbEntity
  8
3.1mm
 62
7
100
AcDbSpline
 70
0
 71
3
 72
10
 73
6
 74
4
 40
0.000000
 40
0.000000
 40
0.000000
 40
0.000000
 40
2.208607
 40
4.524603
 40
6.249629
 40
6.249629
 40
6.249629
 40
6.249629
 10
210.659664
 20
177.047088
 30
0.0
 10
210.923754
 20
177.733872
 30
0.0
 10
211.464774
 20
179.140833
 30
0.0
 10
212.437868
 20
181.002281
 30
0.0
 10
212.707105
 20
182.327987
 30
0.0
 10
212.822036
 20
182.893902
 30
0.0
 11
210.659664
 21
177.047088
 31
0.0
 11
211.490886
 21
179.093307
 31
0.0
 11
212.411647
 21
181.218404
 31
0.0
 11
212.822036
 21
182.893902
 31
0.0
  0
SPLINE
  5
1e4
100
AcDbEntity
  8
3.1mm
 62
7
100
AcDbSpline
 70
0
 71
3
 72
10
 73
6
 74
4
 40
0.000000
 40
0.000000
 40
0.000000
 40
0.000000
 40
3.114675
 40
6.229351
 40
9.344028
 40
9.344028
 40
9.344028
 40
9.344028
 10
212.822036
 20
182.893902
 30
0.0
 10
211.783811
 20
182.893902
 30
0.0
 10
209.707361
 20
182.893902
 30
0.0
 10
206.592685
 20
182.893902
 30
0.0
 10
204.516234
 20
182.893902
 30
0.0
 10
203.478009
 20
182.893902
 30
0.0
 11
212.822036
 21
182.893902
 31
0.0
 11
209.707361
 21
182.893902
 31
0.0
 11
206.592686
 21
182.893902
 31
0.0
 11
203.478009
 21
182.893902
 31
0.0
  0
SPLINE
  5
1e5
100
AcDbEntity
  8
3.1mm
 62
7
100
AcDbSpline
 70
0
 71
3
 72
10
 73
6
 74
4
 40
0.000000
 40
0.000000
 40
0.000000
 40
0.000000
 40
7.341699
 40
14.683398
 40
22.025098
 40
22.025098
 40
22.025098
 40
22.025098
 10
203.478009
 20
182.893902
 30
0.0
 10
204.408150
 20
185.157480
 30
0.0
 10
206.268433
 20
189.684637
 30
0.0
 10
209.058858
 20
196.475372
 30
0.0
 10
210.919140
 20
201.002529
 30
0.0
 10
211.849281
 20
203.266108
 30
0.0
 11
203.478009
 21
182.893902
 31
0.0
 11
206.268433
 21
189.684637
 31
0.0
 11
209.058857
 21
196.475371
 31
0.0
 11
211.849281
 21
203.266108
 31
0.0
  0
SPLINE
  5
1e6
100
AcDbEntity
  8
3.1mm
 62
7
100
AcDbSpline
 70
0
 71
3
 72
10
 73
6
 74
4
 40
0.000000
 40
0.000000
 40
0.000000
 40
0.000000
 40
3.762035
 40
7.524067
 40
11.286095
 40
11.286095
 40
11.286095
 40
11.286095
 10
211.849281
 20
203.266108
 30
0.0
 10
213.103293
 20
203.266108
 30
0.0
 10
215.611316
 20
203.266108
 30
0.0
 10
219.373347
 20
203.266108
 30
0.0
 10
221.881367
 20
203.266108
 30
0.0
 10
223.135376
 20
203.266108
 30
0.0
 11
211.849281
 21
203.266108
 31
0.0
 11
215.611317
 21
203.266108
 31
0.0
 11
219.373349
 21
203.266108
 31
0.0
 11
223.135376
 21
203.266108
 31
0.0
  0
SPLINE
  5
1e7
100
AcDbEntity
  8
3.1mm
 62
7
100
AcDbSpline
 70
0
 71
3
 72
10
 73
6
 74
4
 40
0.000000
 40
0.000000
 40
0.000000
 40
0.000000
 40
2.229429
 40
4.506936
 40
5.495885
 40
5.495885
 40
5.495885
 40
5.495885
 10
223.135376
 20
203.266108
 30
0.0
 10
223.338875
 20
203.939159
 30
0.0
 10
223.750260
 20
205.299776
 30
0.0
 10
225.434052
 20
207.172355
 30
0.0
 10
224.464375
 20
207.902745
 30
0.0
 10
224.170796
 20
208.123877
 30
0.0
 11
223.135376
 21
203.266108
 31
0.0
 11
223.983083
 21
205.328084
 31
0.0
 11
224.870916
 21
207.425413
 31
0.0
 11
224.170796
 21
208.123877
 31
0.0
  0
SPLINE
  5
1e8
100
AcDbEntity
  8
3.1mm
 62
7
100
AcDbSpline
 70
0
 71
3
 72
10
 73
6
 74
4
 40
0.000000
 40
0.000000
 40
0.000000
 40
0.000000
 40
4.853158
 40
9.706320
 40
14.559486
 40
14.559486
 40
14.559486
 40
14.559486
 10
224.170796
 20
208.123877
 30
0.0
 10
222.553077
 20
208.123877
 30
0.0
 10
219.317636
 20
208.123877
 30
0.0
 10
214.464474
 20
208.123877
 30
0.0
 10
211.229032
 20
208.123877
 30
0.0
 10
209.611310
 20
208.123877
 30
0.0
 11
224.170796
 21
208.123877
 31
0.0
 11
219.317638
 21
208.123877
 31
0.0
 11
214.464476
 21
208.123877
 31
0.0
 11
209.611310
 21
208.123877
 31
0.0
  0
LINE
  5
1e9
100
AcDbEntity
  8
3.1mm
 62
7
100
AcDbLine
 10
199.516441
 20
183.557150
 30
0.0
 11
199.516441
 21
183.557150
 31
0.0
  0
SPLINE
  5
1ea
100
AcDbEntity
  8
3.1mm
 62
7
100
AcDbSpline
 70
0
 71
3
 72
10
 73
6
 74
4
 40
0.000000
 40
0.000000
 40
0.000000
 40
0.000000
 40
8.853312
 40
17.706625
 40
26.559941
 40
26.559941
 40
26.559941
 40
26.559941
 10
209.611310
 20
208.123877
 30
0.0
 10
208.489658
 20
205.394242
 30
0.0
 10
206.246354
 20
199.934970
 30
0.0
 10
202.881398
 20
191.746060
 30
0.0
 10
200.638094
 20
186.286787
 30
0.0
 10
199.516441
 20
183.557150
 30
0.0
 11
209.611310
 21
208.123877
 31
0.0
 11
206.246355
 21
199.934970
 31
0.0
 11
202.881398
 21
191.746061
 31
0.0
 11
199.516441
 21
183.557150
 31
0.0
  0
SPLINE
  5
1eb
100
AcDbEntity
  8
3.1mm
 62
7
100
AcDbSpline
 70
0
 71
3
 72
10
 73
6
 74
4
 40
0.000000
 40
0.000000
 40
0.000000
 40
0.000000
 40
1.487495
 40
3.001069
 40
4.425084
 40
4.425084
 40
4.425084
 40
4.425084
 10
204.238279
 20
150.580640
 30
0.0
 10
204.732987
 20
150.602526
 30
0.0
 10
205.731076
 20
150.646681
 30
0.0
 10
207.222638
 20
150.397305
 30
0.0
 10
208.156458
 20
150.744137
 30
0.0
 10
208.609133
 20
150.912266
 30
0.0
 11
204.238279
 21
150.580640
 31
0.0
 11
205.725715
 21
150.593900
 31
0.0
 11
207.237865
 21
150.528283
 31
0.0
 11
208.609133
 21
150.912266
 31
0.0
  0
SPLINE
  5
1ec
100
AcDbEntity
  8
3.1mm
 62
7
100
AcDbSpline
 70
0
 71
3
 72
10
 73
6
 74
4
 40
0.000000
 40
0.000000
 40
0.000000
 40
0.000000
 40
18.867184
 40
37.734370
 40
56.601555
 40
56.601555
 40
56.601555
 40
56.601555
 10
208.609133
 20
150.912266
 30
0.0
 10
210.999472
 20
156.729359
 30
0.0
 10
215.780150
 20
168.363546
 30
0.0
 10
222.951167
 20
185.814826
 30
0.0
 10
227.731844
 20
197.449014
 30
0.0
 10
230.122182
 20
203.266108
 30
0.0
 11
208.609133
 21
150.912266
 31
0.0
 11
215.780149
 21
168.363545
 31
0.0
 11
222.951166
 21
185.814826
 31
0.0
 11
230.122182
 21
203.266108
 31
0.0
  0
SPLINE
  5
1ed
100
AcDbEntity
  8
3.1mm
 62
7
100
AcDbSpline
 70
0
 71
3
 72
10
 73
6
 74
4
 40
0.000000
 40
0.000000
 40
0.000000
 40
0.000000
 40
2.509507
 40
5.053986
 40
7.487361
 40
7.487361
 40
7.487361
 40
7.487361
 10
230.122182
 20
203.266108
 30
0.0
 10
230.958579
 20
203.250150
 30
0.0
 10
232.643029
 20
203.218012
 30
0.0
 10
235.140202
 20
203.379895
 30
0.0
 10
236.793698
 20
203.209934
 30
0.0
 10
237.601994
 20
203.126851
 30
0.0
 11
230.122182
 21
203.266108
 31
0.0
 11
232.631656
 21
203.253099
 31
0.0
 11
235.175503
 21
203.309768
 31
0.0
 11
237.601994
 21
203.126851
 31
0.0
  0
SPLINE
  5
1ee
100
AcDbEntity
  8
3.1mm
 62
7
100
AcDbSpline
 70
0
 71
3
 72
10
 73
6
 74
4
 40
0.000000
 40
0.000000
 40
0.000000
 40
0.000000
 40
2.058680
 40
4.353189
 40
6.911267
 40
6.911267
 40
6.911267
 40
6.911267
 10
237.601994
 20
203.126851
 30
0.0
 10
238.072689
 20
202.618715
 30
0.0
 10
239.067999
 20
201.544234
 30
0.0
 10
239.814519
 20
199.297189
 30
0.0
 10
239.931422
 20
197.684537
 30
0.0
 10
239.993049
 20
196.834416
 30
0.0
 11
237.601994
 21
203.126851
 31
0.0
 11
238.896642
 21
201.526210
 31
0.0
 11
239.694997
 21
199.375071
 31
0.0
 11
239.993049
 21
196.834416
 31
0.0
  0
SPLINE
  5
1ef
100
AcDbEntity
  8
3.1mm
 62
7
100
AcDbSpline
 70
0
 71
3
 72
10
 73
6
 74
4
 40
0.000000
 40
0.000000
 40
0.000000
 40
0.000000
 40
4.025262
 40
8.513074
 40
12.885087
 40
12.885087
 40
12.885087
 40
12.885087
 10
239.993049
 20
196.834416
 30
0.0
 10
239.672456
 20
195.521125
 30
0.0
 10
238.994430
 20
192.743630
 30
0.0
 10
236.466352
 20
189.166372
 30
0.0
 10
234.383148
 20
187.079372
 30
0.0
 10
233.355159
 20
186.049511
 30
0.0
 11
239.993049
 21
196.834416
 31
0.0
 11
238.809430
 21
192.987107
 31
0.0
 11
236.355141
 21
189.229858
 31
0.0
 11
233.355159
 21
186.049511
 31
0.0
  0
SPLINE
  5
1f0
100
AcDbEntity
  8
3.1mm
 62
7
100
AcDbSpline
 70
0
 71
3
 72
10
 73
6
 74
4
 40
0.000000
 40
0.000000
 40
0.000000
 40
0.000000
 40
3.179379
 40
6.260170
 40
9.291628
 40
9.291628
 40
9.291628
 40
9.291628
 10
233.355159
 20
186.049511
 30
0.0
 10
232.529053
 20
185.384787
 30
0.0
 10
230.902458
 20
184.075953
 30
0.0
 10
228.323065
 20
182.356795
 30
0.0
 10
226.607654
 20
181.258031
 30
0.0
 10
225.756871
 20
180.713084
 30
0.0
 11
233.355159
 21
186.049511
 31
0.0
 11
230.848145
 21
184.094177
 31
0.0
 11
228.304638
 21
182.355832
 31
0.0
 11
225.756871
 21
180.713084
 31
0.0
  0
SPLINE
  5
1f1
100
AcDbEntity
  8
3.1mm
 62
7
100
AcDbSpline
 70
0
 71
3
 72
10
 73
6
 74
4
 40
0.000000
 40
0.000000
 40
0.000000
 40
0.000000
 40
3.763622
 40
7.288243
 40
10.813678
 40
10.813678
 40
10.813678
 40
10.813678
 10
225.756871
 20
180.713084
 30
0.0
 10
225.333704
 20
179.527453
 30
0.0
 10
224.514244
 20
177.231482
 30
0.0
 10
224.086257
 20
173.637145
 30
0.0
 10
223.663841
 20
171.326638
 30
0.0
 10
223.452608
 20
170.171251
 30
0.0
 11
225.756871
 21
180.713084
 31
0.0
 11
224.628972
 21
177.122444
 31
0.0
 11
224.050450
 21
173.645625
 31
0.0
 11
223.452608
 21
170.171251
 31
0.0
  0
SPLINE
  5
1f2
100
AcDbEntity
  8
3.1mm
 62
7
100
AcDbSpline
 70
0
 71
3
 72
10
 73
6
 74
4
 40
0.000000
 40
0.000000
 40
0.000000
 40
0.000000
 40
6.626911
 40
13.243105
 40
19.854843
 40
19.854843
 40
19.854843
 40
19.854843
 10
223.452608
 20
170.171251
 30
0.0
 10
223.087989
 20
167.992579
 30
0.0
 10
222.359342
 20
163.638760
 30
0.0
 10
221.288670
 20
157.107649
 30
0.0
 10
220.579015
 20
152.755821
 30
0.0
 10
220.224308
 20
150.580640
 30
0.0
 11
223.452608
 21
170.171251
 31
0.0
 11
222.362386
 21
163.634633
 31
0.0
 11
221.289346
 21
157.106035
 31
0.0
 11
220.224308
 21
150.580640
 31
0.0
  0
SPLINE
  5
1f3
100
AcDbEntity
  8
3.1mm
 62
7
100
AcDbSpline
 70
0
 71
3
 72
10
 73
6
 74
4
 40
0.000000
 40
0.000000
 40
0.000000
 40
0.000000
 40
1.811989
 40
3.623971
 40
5.435941
 40
5.435941
 40
5.435941
 40
5.435941
 10
220.224308
 20
150.580640
 30
0.0
 10
220.828304
 20
150.580640
 30
0.0
 10
222.036294
 20
150.580640
 30
0.0
 10
223.848275
 20
150.580640
 30
0.0
 10
225.056259
 20
150.580640
 30
0.0
 10
225.660249
 20
150.580640
 30
0.0
 11
220.224308
 21
150.580640
 31
0.0
 11
222.036297
 21
150.580640
 31
0.0
 11
223.848279
 21
150.580640
 31
0.0
 11
225.660249
 21
150.580640
 31
0.0
  0
SPLINE
  5
1f4
100
AcDbEntity
  8
3.1mm
 62
7
100
AcDbSpline
 70
0
 71
3
 72
10
 73
6
 74
4
 40
0.000000
 40
0.000000
 40
0.000000
 40
0.000000
 40
9.966501
 40
19.925318
 40
29.929551
 40
29.929551
 40
29.929551
 40
29.929551
 10
225.660249
 20
150.580640
 30
0.0
 10
226.208098
 20
153.857319
 30
0.0
 10
227.303372
 20
160.408149
 30
0.0
 10
228.871595
 20
170.260976
 30
0.0
 10
230.044661
 20
176.811280
 30
0.0
 10
230.632528
 20
180.093882
 30
0.0
 11
225.660249
 21
150.580640
 31
0.0
 11
227.290973
 21
160.412826
 31
0.0
 11
228.900836
 21
170.240664
 31
0.0
 11
230.632528
 21
180.093882
 31
0.0
  0
SPLINE
  5
1f5
100
AcDbEntity
  8
3.1mm
 62
7
100
AcDbSpline
 70
0
 71
3
 72
10
 73
6
 74
4
 40
0.000000
 40
0.000000
 40
0.000000
 40
0.000000
 40
1.751817
 40
3.562709
 40
5.404535
 40
5.404535
 40
5.404535
 40
5.404535
 10
230.632528
 20
180.093882
 30
0.0
 10
231.046652
 20
180.507913
 30
0.0
 10
231.888866
 20
181.349936
 30
0.0
 10
233.414439
 20
182.325468
 30
0.0
 10
234.323603
 20
183.137389
 30
0.0
 10
234.782035
 20
183.546787
 30
0.0
 11
230.632528
 21
180.093882
 31
0.0
 11
231.914420
 21
181.287874
 31
0.0
 11
233.375743
 21
182.357390
 31
0.0
 11
234.782035
 21
183.546787
 31
0.0
  0
SPLINE
  5
1f6
100
AcDbEntity
  8
3.1mm
 62
7
100
AcDbSpline
 70
0
 71
3
 72
10
 73
6
 74
4
 40
0.000000
 40
0.000000
 40
0.000000
 40
0.000000
 40
6.019862
 40
12.217212
 40
17.867602
 40
17.867602
 40
17.867602
 40
17.867602
 10
234.782035
 20
183.546787
 30
0.0
 10
236.225198
 20
184.938754
 30
0.0
 10
239.154072
 20
187.763729
 30
0.0
 10
242.680678
 20
192.696273
 30
0.0
 10
243.756428
 20
196.521728
 30
0.0
 10
244.269472
 20
198.346153
 30
0.0
 11
234.782035
 21
183.546787
 31
0.0
 11
238.985876
 21
187.855669
 31
0.0
 11
242.443142
 21
192.999058
 31
0.0
 11
244.269472
 21
198.346153
 31
0.0
  0
SPLINE
  5
1f7
100
AcDbEntity
  8
3.1mm
 62
7
100
AcDbSpline
 70
0
 71
3
 72
10
 73
6
 74
4
 40
0.000000
 40
0.000000
 40
0.000000
 40
0.000000
 40
3.671592
 40
7.170246
 40
10.199548
 40
10.199548
 40
10.199548
 40
10.199548
 10
244.269472
 20
198.346153
 30
0.0
 10
244.126965
 20
199.555138
 30
0.0
 10
243.848665
 20
201.916163
 30
0.0
 10
243.422134
 20
205.377730
 30
0.0
 10
242.124244
 20
207.165412
 30
0.0
 10
241.521956
 20
207.994987
 30
0.0
 11
244.269472
 21
198.346153
 31
0.0
 11
243.836303
 21
201.992103
 31
0.0
 11
243.108112
 21
205.414138
 31
0.0
 11
241.521956
 21
207.994987
 31
0.0
  0
SPLINE
  5
1f8
100
AcDbEntity
  8
3.1mm
 62
7
100
AcDbSpline
 70
0
 71
3
 72
10
 73
6
 74
4
 40
0.000000
 40
0.000000
 40
0.000000
 40
0.000000
 40
4.497187
 40
9.076241
 40
13.640749
 40
13.640749
 40
13.640749
 40
13.640749
 10
241.521956
 20
207.994987
 30
0.0
 10
240.023923
 20
208.060417
 30
0.0
 10
237.000584
 20
208.192470
 30
0.0
 10
232.452942
 20
208.099143
 30
0.0
 10
229.405187
 20
208.115641
 30
0.0
 10
227.883734
 20
208.123877
 30
0.0
 11
241.521956
 21
207.994987
 31
0.0
 11
237.027227
 21
208.143613
 31
0.0
 11
232.448239
 21
208.118870
 31
0.0
 11
227.883734
 21
208.123877
 31
0.0
  0
LINE
  5
1f9
100
AcDbEntity
  8
3.1mm
 62
7
100
AcDbLine
 10
204.238279
 20
150.580640
 30
0.0
 11
204.238279
 21
150.580640
 31
0.0
  0
SPLINE
  5
1fa
100
AcDbEntity
  8
3.1mm
 62
7
100
AcDbSpline
 70
0
 71
3
 72
10
 73
6
 74
4
 40
0.000000
 40
0.000000
 40
0.000000
 40
0.000000
 40
20.737329
 40
41.474659
 40
62.211990
 40
62.211990
 40
62.211990
 40
62.211990
 10
227.883734
 20
208.123877
 30
0.0
 10
225.256461
 20
201.730185
 30
0.0
 10
220.001916
 20
188.942799
 30
0.0
 10
212.120097
 20
169.761720
 30
0.0
 10
206.865551
 20
156.974334
 30
0.0
 10
204.238279
 20
150.580640
 30
0.0
 11
227.883734
 21
208.123877
 31
0.0
 11
220.001916
 21
188.942799
 31
0.0
 11
212.120097
 21
169.761720
 31
0.0
 11
204.238279
 21
150.580640
 31
0.0
  0
SPLINE
  5
1fb
100
AcDbEntity
  8
3.1mm
 62
7
100
AcDbSpline
 70
0
 71
3
 72
10
 73
6
 74
4
 40
0.000000
 40
0.000000
 40
0.000000
 40
0.000000
 40
2.349129
 40
4.733963
 40
7.007179
 40
7.007179
 40
7.007179
 40
7.007179
 10
67.222570
 20
203.266108
 30
0.0
 10
68.005500
 20
203.249917
 30
0.0
 10
69.583260
 20
203.217291
 30
0.0
 10
71.920467
 20
203.381537
 30
0.0
 10
73.466886
 20
203.210379
 30
0.0
 10
74.221569
 20
203.126851
 30
0.0
 11
67.222570
 21
203.266108
 31
0.0
 11
69.571663
 21
203.252895
 31
0.0
 11
71.955796
 21
203.310669
 31
0.0
 11
74.221569
 21
203.126851
 31
0.0
  0
SPLINE
  5
1fc
100
AcDbEntity
  8
3.1mm
 62
7
100
AcDbSpline
 70
0
 71
3
 72
10
 73
6
 74
4
 40
0.000000
 40
0.000000
 40
0.000000
 40
0.000000
 40
2.056058
 40
4.347388
 40
6.901099
 40
6.901099
 40
6.901099
 40
6.901099
 10
74.221569
 20
203.126851
 30
0.0
 10
74.691840
 20
202.619512
 30
0.0
 10
75.686195
 20
201.546781
 30
0.0
 10
76.432153
 20
199.303326
 30
0.0
 10
76.550649
 20
197.693357
 30
0.0
 10
76.613106
 20
196.844779
 30
0.0
 11
74.221569
 21
203.126851
 31
0.0
 11
75.515081
 21
201.528664
 31
0.0
 11
76.313163
 21
199.380814
 31
0.0
 11
76.613106
 21
196.844779
 31
0.0
  0
SPLINE
  5
1fd
100
AcDbEntity
  8
3.1mm
 62
7
100
AcDbSpline
 70
0
 71
3
 72
10
 73
6
 74
4
 40
0.000000
 40
0.000000
 40
0.000000
 40
0.000000
 40
4.026507
 40
8.518568
 40
12.895007
 40
12.895007
 40
12.895007
 40
12.895007
 10
76.613106
 20
196.844779
 30
0.0
 10
76.294026
 20
195.530622
 30
0.0
 10
75.618973
 20
192.750362
 30
0.0
 10
73.089011
 20
189.169781
 30
0.0
 10
71.004070
 20
187.080521
 30
0.0
 10
69.975191
 20
186.049511
 30
0.0
 11
76.613106
 21
196.844779
 31
0.0
 11
75.433279
 21
192.995003
 31
0.0
 11
72.977821
 21
189.233443
 31
0.0
 11
69.975191
 21
186.049511
 31
0.0
  0
SPLINE
  5
1fe
100
AcDbEntity
  8
3.1mm
 62
7
100
AcDbSpline
 70
0
 71
3
 72
10
 73
6
 74
4
 40
0.000000
 40
0.000000
 40
0.000000
 40
0.000000
 40
3.179551
 40
6.260648
 40
9.292572
 40
9.292572
 40
9.292572
 40
9.292572
 10
69.975191
 20
186.049511
 30
0.0
 10
69.149000
 20
185.384803
 30
0.0
 10
67.522199
 20
184.075970
 30
0.0
 10
64.942539
 20
182.356655
 30
0.0
 10
63.227033
 20
181.257563
 30
0.0
 10
62.376180
 20
180.712437
 30
0.0
 11
69.975191
 21
186.049511
 31
0.0
 11
67.467940
 21
184.094202
 31
0.0
 11
64.924188
 21
182.355671
 31
0.0
 11
62.376180
 21
180.712437
 31
0.0
  0
SPLINE
  5
1ff
100
AcDbEntity
  8
3.1mm
 62
7
100
AcDbSpline
 70
0
 71
3
 72
10
 73
6
 74
4
 40
0.000000
 40
0.000000
 40
0.000000
 40
0.000000
 40
1.628108
 40
3.031153
 40
3.969681
 40
3.969681
 40
3.969681
 40
3.969681
 10
62.376180
 20
180.712437
 30
0.0
 10
62.182630
 20
180.225027
 30
0.0
 10
61.822287
 20
179.317583
 30
0.0
 10
61.065957
 20
177.977583
 30
0.0
 10
61.605197
 20
177.331174
 30
0.0
 10
61.821331
 20
177.072087
 30
0.0
 11
62.376180
 21
180.712437
 31
0.0
 11
61.732876
 21
179.216811
 31
0.0
 11
61.331230
 21
177.872485
 31
0.0
 11
61.821331
 21
177.072087
 31
0.0
  0
SPLINE
  5
200
100
AcDbEntity
  8
3.1mm
 62
7
100
AcDbSpline
 70
0
 71
3
 72
10
 73
6
 74
4
 40
0.000000
 40
0.000000
 40
0.000000
 40
0.000000
 40
3.631971
 40
7.753396
 40
12.924733
 40
12.924733
 40
12.924733
 40
12.924733
 10
61.821331
 20
177.072087
 30
0.0
 10
62.565863
 20
176.110988
 30
0.0
 10
64.155262
 20
174.059272
 30
0.0
 10
65.308250
 20
169.697566
 30
0.0
 10
64.449777
 20
166.668159
 30
0.0
 10
63.972045
 20
164.982322
 30
0.0
 11
61.821331
 21
177.072087
 31
0.0
 11
63.857935
 21
174.064852
 31
0.0
 11
64.882665
 21
170.072852
 31
0.0
 11
63.972045
 21
164.982322
 31
0.0
  0
SPLINE
  5
201
100
AcDbEntity
  8
3.1mm
 62
7
100
AcDbSpline
 70
0
 71
3
 72
10
 73
6
 74
4
 40
0.000000
 40
0.000000
 40
0.000000
 40
0.000000
 40
3.206672
 40
6.442257
 40
9.606602
 40
9.606602
 40
9.606602
 40
9.606602
 10
63.972045
 20
164.982322
 30
0.0
 10
63.475775
 20
164.029762
 30
0.0
 10
62.478761
 20
162.116052
 30
0.0
 10
60.256392
 20
159.774426
 30
0.0
 10
58.714416
 20
158.304540
 30
0.0
 10
57.952011
 20
157.577779
 30
0.0
 11
63.972045
 21
164.982322
 31
0.0
 11
62.361010
 21
162.209722
 31
0.0
 11
60.224210
 21
159.780092
 31
0.0
 11
57.952011
 21
157.577779
 31
0.0
  0
SPLINE
  5
202
100
AcDbEntity
  8
3.1mm
 62
7
100
AcDbSpline
 70
0
 71
3
 72
10
 73
6
 74
4
 40
0.000000
 40
0.000000
 40
0.000000
 40
0.000000
 40
2.556272
 40
4.659640
 40
6.461492
 40
6.461492
 40
6.461492
 40
6.461492
 10
57.952011
 20
157.577779
 30
0.0
 10
57.297941
 20
157.026800
 30
0.0
 10
56.105684
 20
156.022461
 30
0.0
 10
54.007593
 20
155.263991
 30
0.0
 10
52.700142
 20
155.382902
 30
0.0
 10
52.096890
 20
155.437767
 30
0.0
 11
57.952011
 21
157.577779
 31
0.0
 11
55.893264
 21
156.062494
 31
0.0
 11
53.898259
 21
155.396075
 31
0.0
 11
52.096890
 21
155.437767
 31
0.0
  0
SPLINE
  5
203
100
AcDbEntity
  8
3.1mm
 62
7
100
AcDbSpline
 70
0
 71
3
 72
10
 73
6
 74
4
 40
0.000000
 40
0.000000
 40
0.000000
 40
0.000000
 40
1.669375
 40
3.338751
 40
5.008126
 40
5.008126
 40
5.008126
 40
5.008126
 10
52.096890
 20
155.437767
 30
0.0
 10
51.540432
 20
155.437767
 30
0.0
 10
50.427515
 20
155.437767
 30
0.0
 10
48.758139
 20
155.437767
 30
0.0
 10
47.645222
 20
155.437767
 30
0.0
 10
47.088764
 20
155.437767
 30
0.0
 11
52.096890
 21
155.437767
 31
0.0
 11
50.427515
 21
155.437767
 31
0.0
 11
48.758139
 21
155.437767
 31
0.0
 11
47.088764
 21
155.437767
 31
0.0
  0
LINE
  5
204
100
AcDbEntity
  8
3.1mm
 62
7
100
AcDbLine
 10
66.742211
 20
203.266108
 30
0.0
 11
66.982391
 21
203.266108
 31
0.0
  0
LINE
  5
205
100
AcDbEntity
  8
3.1mm
 62
7
100
AcDbLine
 10
66.982391
 20
203.266108
 30
0.0
 11
67.222570
 21
203.266108
 31
0.0
  0
LINE
  5
206
100
AcDbEntity
  8
3.1mm
 62
7
100
AcDbLine
 10
67.222570
 20
203.266108
 30
0.0
 11
67.222570
 21
203.266108
 31
0.0
  0
SPLINE
  5
207
100
AcDbEntity
  8
3.1mm
 62
7
100
AcDbSpline
 70
0
 71
3
 72
10
 73
6
 74
4
 40
0.000000
 40
0.000000
 40
0.000000
 40
0.000000
 40
17.236294
 40
34.472586
 40
51.708879
 40
51.708879
 40
51.708879
 40
51.708879
 10
47.088764
 20
155.437767
 30
0.0
 10
49.272480
 20
160.752027
 30
0.0
 10
53.639914
 20
171.380547
 30
0.0
 10
60.191063
 20
187.323327
 30
0.0
 10
64.558495
 20
197.951848
 30
0.0
 10
66.742211
 20
203.266108
 30
0.0
 11
47.088764
 21
155.437767
 31
0.0
 11
53.639914
 21
171.380547
 31
0.0
 11
60.191063
 21
187.323327
 31
0.0
 11
66.742211
 21
203.266108
 31
0.0
  0
SPLINE
  5
208
100
AcDbEntity
  8
3.1mm
 62
7
100
AcDbSpline
 70
0
 71
3
 72
10
 73
6
 74
4
 40
0.000000
 40
0.000000
 40
0.000000
 40
0.000000
 40
2.112238
 40
4.052124
 40
6.668390
 40
6.668390
 40
6.668390
 40
6.668390
 10
170.053505
 20
201.534796
 30
0.0
 10
170.776367
 20
201.547445
 30
0.0
 10
172.163108
 20
201.571710
 30
0.0
 10
174.006818
 20
199.808509
 30
0.0
 10
173.695038
 20
198.215507
 30
0.0
 10
173.516005
 20
197.300763
 30
0.0
 11
170.053505
 21
201.534796
 31
0.0
 11
172.149708
 21
201.275021
 31
0.0
 11
173.534926
 21
199.916960
 31
0.0
 11
173.516005
 21
197.300763
 31
0.0
  0
SPLINE
  5
209
100
AcDbEntity
  8
3.1mm
 62
7
100
AcDbSpline
 70
0
 71
3
 72
10
 73
6
 74
4
 40
0.000000
 40
0.000000
 40
0.000000
 40
0.000000
 40
6.855258
 40
13.794155
 40
20.714053
 40
20.714053
 40
20.714053
 40
20.714053
 10
173.516005
 20
197.300763
 30
0.0
 10
172.702419
 20
195.165168
 30
0.0
 10
171.065321
 20
190.867923
 30
0.0
 10
168.352401
 20
184.517456
 30
0.0
 10
166.613126
 20
180.237794
 30
0.0
 10
165.744680
 20
178.100897
 30
0.0
 11
173.516005
 21
197.300763
 31
0.0
 11
171.033379
 21
190.910838
 31
0.0
 11
168.368918
 21
184.503894
 31
0.0
 11
165.744680
 21
178.100897
 31
0.0
  0
SPLINE
  5
20a
100
AcDbEntity
  8
3.1mm
 62
7
100
AcDbSpline
 70
0
 71
3
 72
10
 73
6
 74
4
 40
0.000000
 40
0.000000
 40
0.000000
 40
0.000000
 40
6.035530
 40
12.059838
 40
18.136155
 40
18.136155
 40
18.136155
 40
18.136155
 10
165.744680
 20
178.100897
 30
0.0
 10
164.971121
 20
176.243721
 30
0.0
 10
163.425440
 20
172.532822
 30
0.0
 10
161.222501
 20
166.901755
 30
0.0
 10
159.574265
 20
163.219678
 30
0.0
 10
158.746605
 20
161.370727
 30
0.0
 11
165.744680
 21
178.100897
 31
0.0
 11
163.444242
 21
172.520968
 31
0.0
 11
161.184598
 21
166.936499
 31
0.0
 11
158.746605
 21
161.370727
 31
0.0
  0
SPLINE
  5
20b
100
AcDbEntity
  8
3.1mm
 62
7
100
AcDbSpline
 70
0
 71
3
 72
10
 73
6
 74
4
 40
0.000000
 40
0.000000
 40
0.000000
 40
0.000000
 40
3.493603
 40
6.403042
 40
8.787358
 40
8.787358
 40
8.787358
 40
8.787358
 10
158.746605
 20
161.370727
 30
0.0
 10
158.076659
 20
160.403411
 30
0.0
 10
156.848790
 20
158.630524
 30
0.0
 10
154.118657
 20
157.202752
 30
0.0
 10
152.339997
 20
157.183108
 30
0.0
 10
151.538886
 20
157.174260
 30
0.0
 11
158.746605
 21
161.370727
 31
0.0
 11
156.510077
 21
158.686848
 31
0.0
 11
153.915046
 21
157.371306
 31
0.0
 11
151.538886
 21
157.174260
 31
0.0
  0
SPLINE
  5
20c
100
AcDbEntity
  8
3.1mm
 62
7
100
AcDbSpline
 70
0
 71
3
 72
10
 73
6
 74
4
 40
0.000000
 40
0.000000
 40
0.000000
 40
0.000000
 40
1.978179
 40
3.939944
 40
6.679400
 40
6.679400
 40
6.679400
 40
6.679400
 10
151.538886
 20
157.174260
 30
0.0
 10
150.847484
 20
157.235271
 30
0.0
 10
149.470415
 20
157.356786
 30
0.0
 10
148.182122
 20
159.571396
 30
0.0
 10
148.640166
 20
161.125683
 30
0.0
 10
148.907074
 20
162.031384
 30
0.0
 11
151.538886
 21
157.174260
 31
0.0
 11
149.620254
 21
157.655966
 31
0.0
 11
148.569771
 21
159.312773
 31
0.0
 11
148.907074
 21
162.031384
 31
0.0
  0
SPLINE
  5
20d
100
AcDbEntity
  8
3.1mm
 62
7
100
AcDbSpline
 70
0
 71
3
 72
10
 73
6
 74
4
 40
0.000000
 40
0.000000
 40
0.000000
 40
0.000000
 40
12.475530
 40
24.972411
 40
37.484444
 40
37.484444
 40
37.484444
 40
37.484444
 10
148.907074
 20
162.031384
 30
0.0
 10
150.471807
 20
165.884283
 30
0.0
 10
153.603951
 20
173.596674
 30
0.0
 10
158.350888
 20
185.154716
 30
0.0
 10
161.553957
 20
192.851108
 30
0.0
 10
163.156463
 20
196.701636
 30
0.0
 11
148.907074
 21
162.031384
 31
0.0
 11
153.608835
 21
173.587001
 31
0.0
 11
158.357959
 21
185.146320
 31
0.0
 11
163.156463
 21
196.701636
 31
0.0
  0
LINE
  5
20e
100
AcDbEntity
  8
3.1mm
 62
7
100
AcDbLine
 10
170.053505
 20
201.534796
 30
0.0
 11
170.053505
 21
201.534796
 31
0.0
  0
SPLINE
  5
20f
100
AcDbEntity
  8
3.1mm
 62
7
100
AcDbSpline
 70
0
 71
3
 72
10
 73
6
 74
4
 40
0.000000
 40
0.000000
 40
0.000000
 40
0.000000
 40
3.476104
 40
6.420348
 40
8.857204
 40
8.857204
 40
8.857204
 40
8.857204
 10
163.156463
 20
196.701636
 30
0.0
 10
163.754309
 20
197.703441
 30
0.0
 10
164.858527
 20
199.553772
 30
0.0
 10
167.432524
 20
201.286636
 30
0.0
 10
169.236546
 20
201.457445
 30
0.0
 10
170.053505
 20
201.534796
 30
0.0
 11
163.156463
 21
196.701636
 31
0.0
 11
165.173253
 21
199.532865
 31
0.0
 11
167.651890
 21
201.121869
 31
0.0
 11
170.053505
 21
201.534796
 31
0.0
  0
SPLINE
  5
210
100
AcDbEntity
  8
3.1mm
 62
7
100
AcDbSpline
 70
0
 71
3
 72
10
 73
6
 74
4
 40
0.000000
 40
0.000000
 40
0.000000
 40
0.000000
 40
1.487493
 40
3.001062
 40
4.425078
 40
4.425078
 40
4.425078
 40
4.425078
 10
64.505236
 20
150.580640
 30
0.0
 10
64.999943
 20
150.602526
 30
0.0
 10
65.998030
 20
150.646681
 30
0.0
 10
67.489590
 20
150.397306
 30
0.0
 10
68.423409
 20
150.744137
 30
0.0
 10
68.876085
 20
150.912266
 30
0.0
 11
64.505236
 21
150.580640
 31
0.0
 11
65.992669
 21
150.593900
 31
0.0
 11
67.504816
 21
150.528283
 31
0.0
 11
68.876085
 21
150.912266
 31
0.0
  0
SPLINE
  5
211
100
AcDbEntity
  8
3.1mm
 62
7
100
AcDbSpline
 70
0
 71
3
 72
10
 73
6
 74
4
 40
0.000000
 40
0.000000
 40
0.000000
 40
0.000000
 40
11.525486
 40
23.050971
 40
34.576457
 40
34.576457
 40
34.576457
 40
34.576457
 10
68.876085
 20
150.912266
 30
0.0
 10
70.336282
 20
154.465781
 30
0.0
 10
73.256676
 20
161.572811
 30
0.0
 10
77.637268
 20
172.233357
 30
0.0
 10
80.557664
 20
179.340387
 30
0.0
 10
82.017862
 20
182.893902
 30
0.0
 11
68.876085
 21
150.912266
 31
0.0
 11
73.256676
 21
161.572811
 31
0.0
 11
77.637268
 21
172.233356
 31
0.0
 11
82.017862
 21
182.893902
 31
0.0
  0
SPLINE
  5
212
100
AcDbEntity
  8
3.1mm
 62
7
100
AcDbSpline
 70
0
 71
3
 72
10
 73
6
 74
4
 40
0.000000
 40
0.000000
 40
0.000000
 40
0.000000
 40
1.487490
 40
3.001058
 40
4.425075
 40
4.425075
 40
4.425075
 40
4.425075
 10
82.017862
 20
182.893902
 30
0.0
 10
81.523155
 20
182.872017
 30
0.0
 10
80.525069
 20
182.827862
 30
0.0
 10
79.033510
 20
183.077237
 30
0.0
 10
78.099691
 20
182.730406
 30
0.0
 10
77.647015
 20
182.562277
 30
0.0
 11
82.017862
 21
182.893902
 31
0.0
 11
80.530431
 21
182.880643
 31
0.0
 11
79.018285
 21
182.946260
 31
0.0
 11
77.647015
 21
182.562277
 31
0.0
  0
LINE
  5
213
100
AcDbEntity
  8
3.1mm
 62
7
100
AcDbLine
 10
64.505236
 20
150.580640
 30
0.0
 11
64.505236
 21
150.580640
 31
0.0
  0
SPLINE
  5
214
100
AcDbEntity
  8
3.1mm
 62
7
100
AcDbSpline
 70
0
 71
3
 72
10
 73
6
 74
4
 40
0.000000
 40
0.000000
 40
0.000000
 40
0.000000
 40
11.525486
 40
23.050972
 40
34.576458
 40
34.576458
 40
34.576458
 40
34.576458
 10
77.647015
 20
182.562277
 30
0.0
 10
76.186818
 20
179.008762
 30
0.0
 10
73.266422
 20
171.901732
 30
0.0
 10
68.885829
 20
161.241186
 30
0.0
 10
65.965434
 20
154.134156
 30
0.0
 10
64.505236
 20
150.580640
 30
0.0
 11
77.647015
 21
182.562277
 31
0.0
 11
73.266422
 21
171.901731
 31
0.0
 11
68.885829
 21
161.241186
 31
0.0
 11
64.505236
 21
150.580640
 31
0.0
  0
SPLINE
  5
215
100
AcDbEntity
  8
3.1mm
 62
7
100
AcDbSpline
 70
0
 71
3
 72
10
 73
6
 74
4
 40
0.000000
 40
0.000000
 40
0.000000
 40
0.000000
 40
6.607133
 40
13.214267
 40
19.821401
 40
19.821401
 40
19.821401
 40
19.821401
 10
162.496254
 20
150.580640
 30
0.0
 10
164.698632
 20
150.580640
 30
0.0
 10
169.103388
 20
150.580640
 30
0.0
 10
175.710522
 20
150.580640
 30
0.0
 10
180.115277
 20
150.580640
 30
0.0
 10
182.317655
 20
150.580640
 30
0.0
 11
162.496254
 21
150.580640
 31
0.0
 11
169.103388
 21
150.580640
 31
0.0
 11
175.710522
 21
150.580640
 31
0.0
 11
182.317655
 21
150.580640
 31
0.0
  0
SPLINE
  5
216
100
AcDbEntity
  8
3.1mm
 62
7
100
AcDbSpline
 70
0
 71
3
 72
10
 73
6
 74
4
 40
0.000000
 40
0.000000
 40
0.000000
 40
0.000000
 40
2.229197
 40
4.506496
 40
5.495354
 40
5.495354
 40
5.495354
 40
5.495354
 10
182.317655
 20
150.580640
 30
0.0
 10
182.521117
 20
151.253611
 30
0.0
 10
182.932431
 20
152.614074
 30
0.0
 10
184.616235
 20
154.486615
 30
0.0
 10
183.646427
 20
155.216721
 30
0.0
 10
183.352810
 20
155.437767
 30
0.0
 11
182.317655
 21
150.580640
 31
0.0
 11
183.165269
 21
152.642404
 31
0.0
 11
184.053034
 21
154.739537
 31
0.0
 11
183.352810
 21
155.437767
 31
0.0
  0
SPLINE
  5
217
100
AcDbEntity
  8
3.1mm
 62
7
100
AcDbSpline
 70
0
 71
3
 72
10
 73
6
 74
4
 40
0.000000
 40
0.000000
 40
0.000000
 40
0.000000
 40
5.911770
 40
11.823540
 40
17.735310
 40
17.735310
 40
17.735310
 40
17.735310
 10
183.352810
 20
155.437767
 30
0.0
 10
181.382220
 20
155.437767
 30
0.0
 10
177.441040
 20
155.437767
 30
0.0
 10
171.529270
 20
155.437767
 30
0.0
 10
167.588090
 20
155.437767
 30
0.0
 10
165.617500
 20
155.437767
 30
0.0
 11
183.352810
 21
155.437767
 31
0.0
 11
177.441039
 21
155.437767
 31
0.0
 11
171.529270
 21
155.437767
 31
0.0
 11
165.617500
 21
155.437767
 31
0.0
  0
LINE
  5
218
100
AcDbEntity
  8
3.1mm
 62
7
100
AcDbLine
 10
162.496254
 20
150.580640
 30
0.0
 11
162.496254
 21
150.580640
 31
0.0
  0
SPLINE
  5
219
100
AcDbEntity
  8
3.1mm
 62
7
100
AcDbSpline
 70
0
 71
3
 72
10
 73
6
 74
4
 40
0.000000
 40
0.000000
 40
0.000000
 40
0.000000
 40
1.924516
 40
3.849032
 40
5.773547
 40
5.773547
 40
5.773547
 40
5.773547
 10
165.617500
 20
155.437767
 30
0.0
 10
165.270695
 20
154.898086
 30
0.0
 10
164.577084
 20
153.818725
 30
0.0
 10
163.536670
 20
152.199682
 30
0.0
 10
162.843060
 20
151.120321
 30
0.0
 10
162.496254
 20
150.580640
 30
0.0
 11
165.617500
 21
155.437767
 31
0.0
 11
164.577085
 21
153.818725
 31
0.0
 11
163.536670
 21
152.199682
 31
0.0
 11
162.496254
 21
150.580640
 31
0.0
  0
SPLINE
  5
21a
100
AcDbEntity
  8
3.1mm
 62
7
100
AcDbSpline
 70
0
 71
3
 72
10
 73
6
 74
4
 40
0.000000
 40
0.000000
 40
0.000000
 40
0.000000
 40
8.153399
 40
15.644956
 40
22.253794
 40
22.253794
 40
22.253794
 40
22.253794
 10
109.788418
 20
50.649638
 30
0.0
 10
107.077597
 20
50.404363
 30
0.0
 10
101.876002
 20
49.933724
 30
0.0
 10
94.906285
 20
46.355872
 30
0.0
 10
92.551463
 20
42.196916
 30
0.0
 10
91.447761
 20
40.247618
 30
0.0
 11
109.788418
 21
50.649638
 31
0.0
 11
101.737900
 21
49.358481
 31
0.0
 11
95.211694
 21
45.679887
 31
0.0
 11
91.447761
 21
40.247618
 31
0.0
  0
SPLINE
  5
21b
100
AcDbEntity
  8
3.1mm
 62
7
100
AcDbSpline
 70
0
 71
3
 72
10
 73
6
 74
4
 40
0.000000
 40
0.000000
 40
0.000000
 40
0.000000
 40
7.082684
 40
14.324516
 40
22.606407
 40
22.606407
 40
22.606407
 40
22.606407
 10
91.447761
 20
40.247618
 30
0.0
 10
90.939436
 20
37.913150
 30
0.0
 10
89.911363
 20
33.191758
 30
0.0
 10
92.735547
 20
25.548583
 30
0.0
 10
97.244640
 20
22.769574
 30
0.0
 10
99.650237
 20
21.286975
 30
0.0
 11
91.447761
 21
40.247618
 31
0.0
 11
90.611623
 21
33.214462
 31
0.0
 11
93.164849
 21
26.437651
 31
0.0
 11
99.650237
 21
21.286975
 31
0.0
  0
SPLINE
  5
21c
100
AcDbEntity
  8
3.1mm
 62
7
100
AcDbSpline
 70
0
 71
3
 72
10
 73
6
 74
4
 40
0.000000
 40
0.000000
 40
0.000000
 40
0.000000
 40
10.075232
 40
20.262048
 40
29.328300
 40
29.328300
 40
29.328300
 40
29.328300
 10
99.650237
 20
21.286975
 30
0.0
 10
102.890170
 20
20.383594
 30
0.0
 10
109.405920
 20
18.566828
 30
0.0
 10
119.682515
 20
19.794265
 30
0.0
 10
124.664240
 20
24.007886
 30
0.0
 10
127.010129
 20
25.992077
 30
0.0
 11
99.650237
 21
21.286975
 31
0.0
 11
109.514444
 21
19.235707
 31
0.0
 11
119.581185
 21
20.795182
 31
0.0
 11
127.010129
 21
25.992077
 31
0.0
  0
SPLINE
  5
21d
100
AcDbEntity
  8
3.1mm
 62
7
100
AcDbSpline
 70
0
 71
3
 72
10
 73
6
 74
4
 40
0.000000
 40
0.000000
 40
0.000000
 40
0.000000
 40
7.202056
 40
14.242841
 40
21.794565
 40
21.794565
 40
21.794565
 40
21.794565
 10
127.010129
 20
25.992077
 30
0.0
 10
128.166111
 20
28.132509
 30
0.0
 10
130.452189
 20
32.365444
 30
0.0
 10
129.851939
 20
40.167033
 30
0.0
 10
126.666766
 20
43.963485
 30
0.0
 10
125.018416
 20
45.928176
 30
0.0
 11
127.010129
 21
25.992077
 31
0.0
 11
129.793239
 21
32.634660
 31
0.0
 11
129.218065
 21
39.651912
 31
0.0
 11
125.018416
 21
45.928176
 31
0.0
  0
LINE
  5
21e
100
AcDbEntity
  8
3.1mm
 62
7
100
AcDbLine
 10
109.788418
 20
50.649638
 30
0.0
 11
109.788418
 21
50.649638
 31
0.0
  0
SPLINE
  5
21f
100
AcDbEntity
  8
3.1mm
 62
7
100
AcDbSpline
 70
0
 71
3
 72
10
 73
6
 74
4
 40
0.000000
 40
0.000000
 40
0.000000
 40
0.000000
 40
5.116538
 40
10.582765
 40
16.261026
 40
16.261026
 40
16.261026
 40
16.261026
 10
125.018416
 20
45.928176
 30
0.0
 10
123.620761
 20
46.924034
 30
0.0
 10
120.729928
 20
48.983812
 30
0.0
 10
115.393886
 20
50.438713
 30
0.0
 10
111.680458
 20
50.578443
 30
0.0
 10
109.788418
 20
50.649638
 30
0.0
 11
125.018416
 21
45.928176
 31
0.0
 11
120.689433
 21
48.655603
 31
0.0
 11
115.449903
 21
50.213474
 31
0.0
 11
109.788418
 21
50.649638
 31
0.0
  0
SPLINE
  5
220
100
AcDbEntity
  8
3.1mm
 62
7
100
AcDbSpline
 70
0
 71
3
 72
10
 73
6
 74
4
 40
0.000000
 40
0.000000
 40
0.000000
 40
0.000000
 40
3.445929
 40
5.779344
 40
8.222535
 40
8.222535
 40
8.222535
 40
8.222535
 10
47.853038
 20
19.932867
 30
0.0
 10
48.943473
 20
19.818217
 30
0.0
 10
50.772297
 20
19.625932
 30
0.0
 10
54.068001
 20
20.354349
 30
0.0
 10
53.677945
 20
22.186836
 30
0.0
 10
53.478436
 20
23.124137
 30
0.0
 11
47.853038
 21
19.932867
 31
0.0
 11
51.297696
 21
19.839293
 31
0.0
 11
53.474033
 21
20.680950
 31
0.0
 11
53.478436
 21
23.124137
 31
0.0
  0
SPLINE
  5
221
100
AcDbEntity
  8
3.1mm
 62
7
100
AcDbSpline
 70
0
 71
3
 72
10
 73
6
 74
4
 40
0.000000
 40
0.000000
 40
0.000000
 40
0.000000
 40
3.600569
 40
7.201139
 40
10.801708
 40
10.801708
 40
10.801708
 40
10.801708
 10
53.478436
 20
23.124137
 30
0.0
 10
53.478436
 20
24.324327
 30
0.0
 10
53.478436
 20
26.724707
 30
0.0
 10
53.478436
 20
30.325276
 30
0.0
 10
53.478436
 20
32.725656
 30
0.0
 10
53.478436
 20
33.925846
 30
0.0
 11
53.478436
 21
23.124137
 31
0.0
 11
53.478436
 21
26.724707
 31
0.0
 11
53.478436
 21
30.325277
 31
0.0
 11
53.478436
 21
33.925846
 31
0.0
  0
SPLINE
  5
222
100
AcDbEntity
  8
3.1mm
 62
7
100
AcDbSpline
 70
0
 71
3
 72
10
 73
6
 74
4
 40
0.000000
 40
0.000000
 40
0.000000
 40
0.000000
 40
6.923270
 40
13.846540
 40
20.769809
 40
20.769809
 40
20.769809
 40
20.769809
 10
53.478436
 20
33.925846
 30
0.0
 10
55.786192
 20
33.925846
 30
0.0
 10
60.401706
 20
33.925846
 30
0.0
 10
67.324975
 20
33.925846
 30
0.0
 10
71.940488
 20
33.925846
 30
0.0
 10
74.248244
 20
33.925846
 30
0.0
 11
53.478436
 21
33.925846
 31
0.0
 11
60.401706
 21
33.925846
 31
0.0
 11
67.324976
 21
33.925846
 31
0.0
 11
74.248244
 21
33.925846
 31
0.0
  0
SPLINE
  5
223
100
AcDbEntity
  8
3.1mm
 62
7
100
AcDbSpline
 70
0
 71
3
 72
10
 73
6
 74
4
 40
0.000000
 40
0.000000
 40
0.000000
 40
0.000000
 40
4.664326
 40
9.328652
 40
13.992979
 40
13.992979
 40
13.992979
 40
13.992979
 10
74.248244
 20
33.925846
 30
0.0
 10
74.248244
 20
32.371070
 30
0.0
 10
74.248244
 20
29.261520
 30
0.0
 10
74.248244
 20
24.597193
 30
0.0
 10
74.248244
 20
21.487643
 30
0.0
 10
74.248244
 20
19.932867
 30
0.0
 11
74.248244
 21
33.925846
 31
0.0
 11
74.248244
 21
29.261520
 31
0.0
 11
74.248244
 21
24.597193
 31
0.0
 11
74.248244
 21
19.932867
 31
0.0
  0
SPLINE
  5
224
100
AcDbEntity
  8
3.1mm
 62
7
100
AcDbSpline
 70
0
 71
3
 72
10
 73
6
 74
4
 40
0.000000
 40
0.000000
 40
0.000000
 40
0.000000
 40
3.445624
 40
5.778591
 40
8.221682
 40
8.221682
 40
8.221682
 40
8.221682
 10
74.248244
 20
19.932867
 30
0.0
 10
75.338601
 20
19.818146
 30
0.0
 10
77.167217
 20
19.625749
 30
0.0
 10
80.462372
 20
20.354670
 30
0.0
 10
80.072182
 20
22.186899
 30
0.0
 10
79.872589
 20
23.124137
 30
0.0
 11
74.248244
 21
19.932867
 31
0.0
 11
77.692597
 21
19.839260
 31
0.0
 11
79.868401
 21
20.681050
 31
0.0
 11
79.872589
 21
23.124137
 31
0.0
  0
SPLINE
  5
225
100
AcDbEntity
  8
3.1mm
 62
7
100
AcDbSpline
 70
0
 71
3
 72
10
 73
6
 74
4
 40
0.000000
 40
0.000000
 40
0.000000
 40
0.000000
 40
8.933380
 40
17.866761
 40
26.800141
 40
26.800141
 40
26.800141
 40
26.800141
 10
79.872589
 20
23.124137
 30
0.0
 10
79.872589
 20
26.101931
 30
0.0
 10
79.872589
 20
32.057518
 30
0.0
 10
79.872589
 20
40.990898
 30
0.0
 10
79.872589
 20
46.946485
 30
0.0
 10
79.872589
 20
49.924279
 30
0.0
 11
79.872589
 21
23.124137
 31
0.0
 11
79.872589
 21
32.057518
 31
0.0
 11
79.872589
 21
40.990898
 31
0.0
 11
79.872589
 21
49.924279
 31
0.0
  0
SPLINE
  5
226
100
AcDbEntity
  8
3.1mm
 62
7
100
AcDbSpline
 70
0
 71
3
 72
10
 73
6
 74
4
 40
0.000000
 40
0.000000
 40
0.000000
 40
0.000000
 40
3.445626
 40
5.778593
 40
8.221685
 40
8.221685
 40
8.221685
 40
8.221685
 10
79.872589
 20
49.924279
 30
0.0
 10
78.782232
 20
50.039000
 30
0.0
 10
76.953615
 20
50.231397
 30
0.0
 10
73.658459
 20
49.502473
 30
0.0
 10
74.048650
 20
47.670244
 30
0.0
 10
74.248244
 20
46.733006
 30
0.0
 11
79.872589
 21
49.924279
 31
0.0
 11
76.428234
 21
50.017885
 31
0.0
 11
74.252430
 21
49.176094
 31
0.0
 11
74.248244
 21
46.733006
 31
0.0
  0
SPLINE
  5
227
100
AcDbEntity
  8
3.1mm
 62
7
100
AcDbSpline
 70
0
 71
3
 72
10
 73
6
 74
4
 40
0.000000
 40
0.000000
 40
0.000000
 40
0.000000
 40
3.144785
 40
6.289568
 40
9.434353
 40
9.434353
 40
9.434353
 40
9.434353
 10
74.248244
 20
46.733006
 30
0.0
 10
74.248244
 20
45.684744
 30
0.0
 10
74.248244
 20
43.588221
 30
0.0
 10
74.248244
 20
40.443437
 30
0.0
 10
74.248244
 20
38.346914
 30
0.0
 10
74.248244
 20
37.298653
 30
0.0
 11
74.248244
 21
46.733006
 31
0.0
 11
74.248244
 21
43.588221
 31
0.0
 11
74.248244
 21
40.443437
 31
0.0
 11
74.248244
 21
37.298653
 31
0.0
  0
SPLINE
  5
228
100
AcDbEntity
  8
3.1mm
 62
7
100
AcDbSpline
 70
0
 71
3
 72
10
 73
6
 74
4
 40
0.000000
 40
0.000000
 40
0.000000
 40
0.000000
 40
6.923268
 40
13.846538
 40
20.769809
 40
20.769809
 40
20.769809
 40
20.769809
 10
74.248244
 20
37.298653
 30
0.0
 10
71.940488
 20
37.298653
 30
0.0
 10
67.324975
 20
37.298653
 30
0.0
 10
60.401706
 20
37.298653
 30
0.0
 10
55.786192
 20
37.298653
 30
0.0
 10
53.478436
 20
37.298653
 30
0.0
 11
74.248244
 21
37.298653
 31
0.0
 11
67.324976
 21
37.298653
 31
0.0
 11
60.401706
 21
37.298653
 31
0.0
 11
53.478436
 21
37.298653
 31
0.0
  0
SPLINE
  5
229
100
AcDbEntity
  8
3.1mm
 62
7
100
AcDbSpline
 70
0
 71
3
 72
10
 73
6
 74
4
 40
0.000000
 40
0.000000
 40
0.000000
 40
0.000000
 40
4.208542
 40
8.417084
 40
12.625626
 40
12.625626
 40
12.625626
 40
12.625626
 10
53.478436
 20
37.298653
 30
0.0
 10
53.478436
 20
38.701500
 30
0.0
 10
53.478436
 20
41.507195
 30
0.0
 10
53.478436
 20
45.715737
 30
0.0
 10
53.478436
 20
48.521431
 30
0.0
 10
53.478436
 20
49.924279
 30
0.0
 11
53.478436
 21
37.298653
 31
0.0
 11
53.478436
 21
41.507195
 31
0.0
 11
53.478436
 21
45.715736
 31
0.0
 11
53.478436
 21
49.924279
 31
0.0
  0
SPLINE
  5
22a
100
AcDbEntity
  8
3.1mm
 62
7
100
AcDbSpline
 70
0
 71
3
 72
10
 73
6
 74
4
 40
0.000000
 40
0.000000
 40
0.000000
 40
0.000000
 40
3.445929
 40
5.779345
 40
8.222537
 40
8.222537
 40
8.222537
 40
8.222537
 10
53.478436
 20
49.924279
 30
0.0
 10
52.388001
 20
50.038928
 30
0.0
 10
50.559176
 20
50.231211
 30
0.0
 10
47.263472
 20
49.502795
 30
0.0
 10
47.653528
 20
47.670307
 30
0.0
 10
47.853038
 20
46.733006
 30
0.0
 11
53.478436
 21
49.924279
 31
0.0
 11
50.033777
 21
50.017851
 31
0.0
 11
47.857440
 21
49.176193
 31
0.0
 11
47.853038
 21
46.733006
 31
0.0
  0
LINE
  5
22b
100
AcDbEntity
  8
3.1mm
 62
7
100
AcDbLine
 10
47.853038
 20
19.932867
 30
0.0
 11
47.853038
 21
19.932867
 31
0.0
  0
SPLINE
  5
22c
100
AcDbEntity
  8
3.1mm
 62
7
100
AcDbSpline
 70
0
 71
3
 72
10
 73
6
 74
4
 40
0.000000
 40
0.000000
 40
0.000000
 40
0.000000
 40
8.933380
 40
17.866760
 40
26.800138
 40
26.800138
 40
26.800138
 40
26.800138
 10
47.853038
 20
46.733006
 30
0.0
 10
47.853038
 20
43.755212
 30
0.0
 10
47.853038
 20
37.799626
 30
0.0
 10
47.853038
 20
28.866246
 30
0.0
 10
47.853038
 20
22.910660
 30
0.0
 10
47.853038
 20
19.932867
 30
0.0
 11
47.853038
 21
46.733006
 31
0.0
 11
47.853038
 21
37.799625
 31
0.0
 11
47.853038
 21
28.866246
 31
0.0
 11
47.853038
 21
19.932867
 31
0.0
  0
SPLINE
  5
22d
100
AcDbEntity
  8
3.1mm
 62
7
100
AcDbSpline
 70
0
 71
3
 72
10
 73
6
 74
4
 40
0.000000
 40
0.000000
 40
0.000000
 40
0.000000
 40
9.730292
 40
19.458485
 40
29.179446
 40
29.179446
 40
29.179446
 40
29.179446
 10
142.396504
 20
48.955054
 30
0.0
 10
141.944708
 20
45.742883
 30
0.0
 10
141.041215
 20
39.319234
 30
0.0
 10
140.123768
 20
29.633145
 30
0.0
 10
139.677800
 20
23.165492
 30
0.0
 10
139.454898
 20
19.932867
 30
0.0
 11
142.396504
 21
48.955054
 31
0.0
 11
141.114055
 21
39.309645
 31
0.0
 11
140.164957
 21
29.627861
 31
0.0
 11
139.454898
 21
19.932867
 31
0.0
  0
SPLINE
  5
22e
100
AcDbEntity
  8
3.1mm
 62
7
100
AcDbSpline
 70
0
 71
3
 72
10
 73
6
 74
4
 40
0.000000
 40
0.000000
 40
0.000000
 40
0.000000
 40
3.400347
 40
5.711402
 40
8.141529
 40
8.141529
 40
8.141529
 40
8.141529
 10
139.454898
 20
19.932867
 30
0.0
 10
140.536032
 20
19.812368
 30
0.0
 10
142.351960
 20
19.609972
 30
0.0
 10
145.566046
 20
20.381136
 30
0.0
 10
145.250582
 20
22.193351
 30
0.0
 10
145.088889
 20
23.122215
 30
0.0
 11
139.454898
 21
19.932867
 31
0.0
 11
142.853833
 21
19.834865
 31
0.0
 11
144.999366
 21
20.693738
 31
0.0
 11
145.088889
 21
23.122215
 31
0.0
  0
SPLINE
  5
22f
100
AcDbEntity
  8
3.1mm
 62
7
100
AcDbSpline
 70
0
 71
3
 72
10
 73
6
 74
4
 40
0.000000
 40
0.000000
 40
0.000000
 40
0.000000
 40
7.211341
 40
14.428289
 40
21.656714
 40
21.656714
 40
21.656714
 40
21.656714
 10
145.088889
 20
23.122215
 30
0.0
 10
145.197207
 20
25.523612
 30
0.0
 10
145.413927
 20
30.328273
 30
0.0
 10
145.979121
 20
37.527484
 30
0.0
 10
146.562449
 20
42.307565
 30
0.0
 10
146.854345
 20
44.699504
 30
0.0
 11
145.088889
 21
23.122215
 31
0.0
 11
145.453769
 21
30.324319
 31
0.0
 11
146.030323
 21
37.518200
 31
0.0
 11
146.854345
 21
44.699504
 31
0.0
  0
SPLINE
  5
230
100
AcDbEntity
  8
3.1mm
 62
7
100
AcDbSpline
 70
0
 71
3
 72
10
 73
6
 74
4
 40
0.000000
 40
0.000000
 40
0.000000
 40
0.000000
 40
8.096396
 40
16.133437
 40
24.148090
 40
24.148090
 40
24.148090
 40
24.148090
 10
146.854345
 20
44.699504
 30
0.0
 10
148.340658
 20
42.446449
 30
0.0
 10
151.302388
 20
37.956856
 30
0.0
 10
155.428514
 20
31.043526
 30
0.0
 10
158.137670
 20
26.429754
 30
0.0
 10
159.490359
 20
24.126086
 30
0.0
 11
146.854345
 21
44.699504
 31
0.0
 11
151.261644
 21
37.907793
 31
0.0
 11
155.423926
 21
31.032516
 31
0.0
 11
159.490359
 21
24.126086
 31
0.0
  0
SPLINE
  5
231
100
AcDbEntity
  8
3.1mm
 62
7
100
AcDbSpline
 70
0
 71
3
 72
10
 73
6
 74
4
 40
0.000000
 40
0.000000
 40
0.000000
 40
0.000000
 40
3.067603
 40
5.371024
 40
7.748498
 40
7.748498
 40
7.748498
 40
7.748498
 10
159.490359
 20
24.126086
 30
0.0
 10
160.521327
 20
23.976032
 30
0.0
 10
162.326434
 20
23.713305
 30
0.0
 10
164.815124
 20
25.014752
 30
0.0
 10
165.414076
 20
26.500217
 30
0.0
 10
165.718290
 20
27.254700
 30
0.0
 11
159.490359
 21
24.126086
 31
0.0
 11
162.557159
 21
24.055899
 31
0.0
 11
164.572319
 21
25.171640
 31
0.0
 11
165.718290
 21
27.254700
 31
0.0
  0
SPLINE
  5
232
100
AcDbEntity
  8
3.1mm
 62
7
100
AcDbSpline
 70
0
 71
3
 72
10
 73
6
 74
4
 40
0.000000
 40
0.000000
 40
0.000000
 40
0.000000
 40
6.833634
 40
13.696647
 40
20.586128
 40
20.586128
 40
20.586128
 40
20.586128
 10
165.718290
 20
27.254700
 30
0.0
 10
166.869551
 20
29.220298
 30
0.0
 10
169.177023
 20
33.159946
 30
0.0
 10
172.781715
 20
38.999757
 30
0.0
 10
175.261590
 20
42.855291
 30
0.0
 10
176.503914
 20
44.786767
 30
0.0
 11
165.718290
 21
27.254700
 31
0.0
 11
169.194689
 21
33.137998
 31
0.0
 11
172.794955
 21
38.980860
 31
0.0
 11
176.503914
 21
44.786767
 31
0.0
  0
SPLINE
  5
233
100
AcDbEntity
  8
3.1mm
 62
7
100
AcDbSpline
 70
0
 71
3
 72
10
 73
6
 74
4
 40
0.000000
 40
0.000000
 40
0.000000
 40
0.000000
 40
8.322006
 40
16.630650
 40
24.935617
 40
24.935617
 40
24.935617
 40
24.935617
 10
176.503914
 20
44.786767
 30
0.0
 10
176.833160
 20
42.031836
 30
0.0
 10
177.491122
 20
36.526397
 30
0.0
 10
178.015458
 20
28.228261
 30
0.0
 10
178.291918
 20
22.697590
 30
0.0
 10
178.430118
 20
19.932867
 30
0.0
 11
176.503914
 21
44.786767
 31
0.0
 11
177.414462
 21
36.514725
 31
0.0
 11
177.997306
 21
28.226549
 31
0.0
 11
178.430118
 21
19.932867
 31
0.0
  0
SPLINE
  5
234
100
AcDbEntity
  8
3.1mm
 62
7
100
AcDbSpline
 70
0
 71
3
 72
10
 73
6
 74
4
 40
0.000000
 40
0.000000
 40
0.000000
 40
0.000000
 40
3.194006
 40
5.445426
 40
7.627355
 40
7.627355
 40
7.627355
 40
7.627355
 10
178.430118
 20
19.932867
 30
0.0
 10
179.424766
 20
19.861359
 30
0.0
 10
181.120530
 20
19.739445
 30
0.0
 10
184.345857
 20
20.076473
 30
0.0
 10
183.927338
 20
21.805102
 30
0.0
 10
183.721358
 20
22.655869
 30
0.0
 11
178.430118
 21
19.932867
 31
0.0
 11
181.622861
 21
19.843067
 31
0.0
 11
183.783824
 21
20.474834
 31
0.0
 11
183.721358
 21
22.655869
 31
0.0
  0
SPLINE
  5
235
100
AcDbEntity
  8
3.1mm
 62
7
100
AcDbSpline
 70
0
 71
3
 72
10
 73
6
 74
4
 40
0.000000
 40
0.000000
 40
0.000000
 40
0.000000
 40
9.141746
 40
18.278281
 40
27.429450
 40
27.429450
 40
27.429450
 40
27.429450
 10
183.721358
 20
22.655869
 30
0.0
 10
183.473727
 20
25.692941
 30
0.0
 10
182.978606
 20
31.765355
 30
0.0
 10
182.103707
 20
40.868819
 30
0.0
 10
181.241202
 20
46.904182
 30
0.0
 10
180.809604
 20
49.924279
 30
0.0
 11
183.721358
 21
22.655869
 31
0.0
 11
182.956480
 21
31.765561
 31
0.0
 11
182.034487
 21
40.855456
 31
0.0
 11
180.809604
 21
49.924279
 31
0.0
  0
SPLINE
  5
236
100
AcDbEntity
  8
3.1mm
 62
7
100
AcDbSpline
 70
0
 71
3
 72
10
 73
6
 74
4
 40
0.000000
 40
0.000000
 40
0.000000
 40
0.000000
 40
3.015253
 40
5.644479
 40
7.988057
 40
7.988057
 40
7.988057
 40
7.988057
 10
180.809604
 20
49.924279
 30
0.0
 10
179.827874
 20
49.960949
 30
0.0
 10
177.990101
 20
50.029594
 30
0.0
 10
175.046605
 20
49.959528
 30
0.0
 10
174.162587
 20
48.429696
 30
0.0
 10
173.745968
 20
47.708718
 30
0.0
 11
180.809604
 21
49.924279
 31
0.0
 11
177.795316
 21
50.000571
 31
0.0
 11
175.206468
 21
49.541557
 31
0.0
 11
173.745968
 21
47.708718
 31
0.0
  0
SPLINE
  5
237
100
AcDbEntity
  8
3.1mm
 62
7
100
AcDbSpline
 70
0
 71
3
 72
10
 73
6
 74
4
 40
0.000000
 40
0.000000
 40
0.000000
 40
0.000000
 40
7.630797
 40
15.191279
 40
22.741513
 40
22.741513
 40
22.741513
 40
22.741513
 10
173.745968
 20
47.708718
 30
0.0
 10
172.334516
 20
45.592178
 30
0.0
 10
169.524617
 20
41.378601
 30
0.0
 10
165.637691
 20
34.868244
 30
0.0
 10
163.087885
 20
30.524676
 30
0.0
 10
161.813847
 20
28.354364
 30
0.0
 11
173.745968
 21
47.708718
 31
0.0
 11
169.565466
 21
41.324952
 31
0.0
 11
165.644171
 21
34.860873
 31
0.0
 11
161.813847
 21
28.354364
 31
0.0
  0
SPLINE
  5
238
100
AcDbEntity
  8
3.1mm
 62
7
100
AcDbSpline
 70
0
 71
3
 72
10
 73
6
 74
4
 40
0.000000
 40
0.000000
 40
0.000000
 40
0.000000
 40
8.462211
 40
16.934887
 40
25.518252
 40
25.518252
 40
25.518252
 40
25.518252
 10
161.813847
 20
28.354364
 30
0.0
 10
160.365940
 20
30.774807
 30
0.0
 10
157.468335
 20
35.618684
 30
0.0
 10
153.106737
 20
42.926352
 30
0.0
 10
149.839435
 20
47.581566
 30
0.0
 10
148.195182
 20
49.924279
 30
0.0
 11
161.813847
 21
28.354364
 31
0.0
 11
157.470895
 21
35.617132
 31
0.0
 11
153.038777
 21
42.838113
 31
0.0
 11
148.195182
 21
49.924279
 31
0.0
  0
LINE
  5
239
100
AcDbEntity
  8
3.1mm
 62
7
100
AcDbLine
 10
142.396504
 20
48.955054
 30
0.0
 11
142.396504
 21
48.955054
 31
0.0
  0
SPLINE
  5
23a
100
AcDbEntity
  8
3.1mm
 62
7
100
AcDbSpline
 70
0
 71
3
 72
10
 73
6
 74
4
 40
0.000000
 40
0.000000
 40
0.000000
 40
0.000000
 40
2.298264
 40
4.825522
 40
6.239134
 40
6.239134
 40
6.239134
 40
6.239134
 10
148.195182
 20
49.924279
 30
0.0
 10
147.448880
 20
49.868502
 30
0.0
 10
145.881917
 20
49.751390
 30
0.0
 10
143.517645
 20
50.513139
 30
0.0
 10
142.692491
 20
49.366397
 30
0.0
 10
142.396504
 20
48.955054
 30
0.0
 11
148.195182
 21
49.924279
 31
0.0
 11
145.896929
 21
49.917155
 31
0.0
 11
143.370444
 21
49.979623
 31
0.0
 11
142.396504
 21
48.955054
 31
0.0
  0
SPLINE
  5
23b
100
AcDbEntity
  8
3.1mm
 62
7
100
AcDbSpline
 70
0
 71
3
 72
10
 73
6
 74
4
 40
0.000000
 40
0.000000
 40
0.000000
 40
0.000000
 40
8.942454
 40
17.884907
 40
26.827359
 40
26.827359
 40
26.827359
 40
26.827359
 10
195.266160
 20
19.932867
 30
0.0
 10
198.246978
 20
19.932867
 30
0.0
 10
204.208614
 20
19.932867
 30
0.0
 10
213.151067
 20
19.932866
 30
0.0
 10
219.112702
 20
19.932867
 30
0.0
 10
222.093519
 20
19.932867
 30
0.0
 11
195.266160
 21
19.932867
 31
0.0
 11
204.208614
 21
19.932867
 31
0.0
 11
213.151067
 21
19.932866
 31
0.0
 11
222.093519
 21
19.932867
 31
0.0
  0
SPLINE
  5
23c
100
AcDbEntity
  8
3.1mm
 62
7
100
AcDbSpline
 70
0
 71
3
 72
10
 73
6
 74
4
 40
0.000000
 40
0.000000
 40
0.000000
 40
0.000000
 40
2.453703
 40
4.689010
 40
8.104475
 40
8.104475
 40
8.104475
 40
8.104475
 10
222.093519
 20
19.932867
 30
0.0
 10
222.311502
 20
20.863064
 30
0.0
 10
222.728065
 20
22.640663
 30
0.0
 10
219.577580
 20
23.584521
 30
0.0
 10
217.773873
 20
23.353420
 30
0.0
 10
216.683669
 20
23.213737
 30
0.0
 11
222.093519
 21
19.932867
 31
0.0
 11
222.134267
 21
22.386231
 31
0.0
 11
220.097834
 21
23.307937
 31
0.0
 11
216.683669
 21
23.213737
 31
0.0
  0
SPLINE
  5
23d
100
AcDbEntity
  8
3.1mm
 62
7
100
AcDbSpline
 70
0
 71
3
 72
10
 73
6
 74
4
 40
0.000000
 40
0.000000
 40
0.000000
 40
0.000000
 40
5.264035
 40
10.528072
 40
15.792109
 40
15.792109
 40
15.792109
 40
15.792109
 10
216.683669
 20
23.213737
 30
0.0
 10
214.928991
 20
23.213737
 30
0.0
 10
211.419633
 20
23.213737
 30
0.0
 10
206.155597
 20
23.213737
 30
0.0
 10
202.646240
 20
23.213737
 30
0.0
 10
200.891561
 20
23.213737
 30
0.0
 11
216.683669
 21
23.213737
 31
0.0
 11
211.419634
 21
23.213737
 31
0.0
 11
206.155598
 21
23.213737
 31
0.0
 11
200.891561
 21
23.213737
 31
0.0
  0
SPLINE
  5
23e
100
AcDbEntity
  8
3.1mm
 62
7
100
AcDbSpline
 70
0
 71
3
 72
10
 73
6
 74
4
 40
0.000000
 40
0.000000
 40
0.000000
 40
0.000000
 40
3.616151
 40
7.232302
 40
10.848453
 40
10.848453
 40
10.848453
 40
10.848453
 10
200.891561
 20
23.213737
 30
0.0
 10
200.891561
 20
24.419121
 30
0.0
 10
200.891561
 20
26.829888
 30
0.0
 10
200.891561
 20
30.446039
 30
0.0
 10
200.891561
 20
32.856807
 30
0.0
 10
200.891561
 20
34.062190
 30
0.0
 11
200.891561
 21
23.213737
 31
0.0
 11
200.891561
 21
26.829888
 31
0.0
 11
200.891561
 21
30.446039
 31
0.0
 11
200.891561
 21
34.062190
 31
0.0
  0
SPLINE
  5
23f
100
AcDbEntity
  8
3.1mm
 62
7
100
AcDbSpline
 70
0
 71
3
 72
10
 73
6
 74
4
 40
0.000000
 40
0.000000
 40
0.000000
 40
0.000000
 40
5.851511
 40
11.703025
 40
17.554541
 40
17.554541
 40
17.554541
 40
17.554541
 10
200.891561
 20
34.062190
 30
0.0
 10
202.842064
 20
34.062190
 30
0.0
 10
206.743072
 20
34.062190
 30
0.0
 10
212.594586
 20
34.062190
 30
0.0
 10
216.495596
 20
34.062190
 30
0.0
 10
218.446102
 20
34.062190
 30
0.0
 11
200.891561
 21
34.062190
 31
0.0
 11
206.743071
 21
34.062190
 31
0.0
 11
212.594585
 21
34.062190
 31
0.0
 11
218.446102
 21
34.062190
 31
0.0
  0
SPLINE
  5
240
100
AcDbEntity
  8
3.1mm
 62
7
100
AcDbSpline
 70
0
 71
3
 72
10
 73
6
 74
4
 40
0.000000
 40
0.000000
 40
0.000000
 40
0.000000
 40
2.475934
 40
4.950510
 40
8.490952
 40
8.490952
 40
8.490952
 40
8.490952
 10
218.446102
 20
34.062190
 30
0.0
 10
218.620373
 20
35.018873
 30
0.0
 10
218.968821
 20
36.931715
 30
0.0
 10
215.505402
 20
37.503468
 30
0.0
 10
213.610566
 20
37.345603
 30
0.0
 10
212.495265
 20
37.252684
 30
0.0
 11
218.446102
 21
34.062190
 31
0.0
 11
218.376657
 21
36.537151
 31
0.0
 11
216.034717
 21
37.336426
 31
0.0
 11
212.495265
 21
37.252684
 31
0.0
  0
SPLINE
  5
241
100
AcDbEntity
  8
3.1mm
 62
7
100
AcDbSpline
 70
0
 71
3
 72
10
 73
6
 74
4
 40
0.000000
 40
0.000000
 40
0.000000
 40
0.000000
 40
3.867901
 40
7.735804
 40
11.603705
 40
11.603705
 40
11.603705
 40
11.603705
 10
212.495265
 20
37.252684
 30
0.0
 10
211.205965
 20
37.252684
 30
0.0
 10
208.627364
 20
37.252684
 30
0.0
 10
204.759462
 20
37.252684
 30
0.0
 10
202.180861
 20
37.252684
 30
0.0
 10
200.891561
 20
37.252684
 30
0.0
 11
212.495265
 21
37.252684
 31
0.0
 11
208.627364
 21
37.252684
 31
0.0
 11
204.759462
 21
37.252684
 31
0.0
 11
200.891561
 21
37.252684
 31
0.0
  0
SPLINE
  5
242
100
AcDbEntity
  8
3.1mm
 62
7
100
AcDbSpline
 70
0
 71
3
 72
10
 73
6
 74
4
 40
0.000000
 40
0.000000
 40
0.000000
 40
0.000000
 40
3.129981
 40
6.259963
 40
9.389945
 40
9.389945
 40
9.389945
 40
9.389945
 10
200.891561
 20
37.252684
 30
0.0
 10
200.891561
 20
38.296011
 30
0.0
 10
200.891561
 20
40.382665
 30
0.0
 10
200.891561
 20
43.512647
 30
0.0
 10
200.891561
 20
45.599302
 30
0.0
 10
200.891561
 20
46.642630
 30
0.0
 11
200.891561
 21
37.252684
 31
0.0
 11
200.891561
 21
40.382665
 31
0.0
 11
200.891561
 21
43.512647
 31
0.0
 11
200.891561
 21
46.642630
 31
0.0
  0
SPLINE
  5
243
100
AcDbEntity
  8
3.1mm
 62
7
100
AcDbSpline
 70
0
 71
3
 72
10
 73
6
 74
4
 40
0.000000
 40
0.000000
 40
0.000000
 40
0.000000
 40
6.572826
 40
13.145654
 40
19.718480
 40
19.718480
 40
19.718480
 40
19.718480
 10
200.891561
 20
46.642630
 30
0.0
 10
203.082503
 20
46.642630
 30
0.0
 10
207.464387
 20
46.642630
 30
0.0
 10
214.037214
 20
46.642630
 30
0.0
 10
218.419098
 20
46.642630
 30
0.0
 10
220.610041
 20
46.642630
 30
0.0
 11
200.891561
 21
46.642630
 31
0.0
 11
207.464387
 21
46.642630
 31
0.0
 11
214.037214
 21
46.642630
 31
0.0
 11
220.610041
 21
46.642630
 31
0.0
  0
SPLINE
  5
244
100
AcDbEntity
  8
3.1mm
 62
7
100
AcDbSpline
 70
0
 71
3
 72
10
 73
6
 74
4
 40
0.000000
 40
0.000000
 40
0.000000
 40
0.000000
 40
2.453965
 40
4.689211
 40
8.104952
 40
8.104952
 40
8.104952
 40
8.104952
 10
220.610041
 20
46.642630
 30
0.0
 10
220.828030
 20
47.572875
 30
0.0
 10
221.244580
 20
49.350455
 30
0.0
 10
218.094388
 20
50.295291
 30
0.0
 10
216.290532
 20
50.064051
 30
0.0
 10
215.200190
 20
49.924279
 30
0.0
 11
220.610041
 21
46.642630
 31
0.0
 11
220.650789
 21
49.096256
 31
0.0
 11
218.614634
 21
50.018425
 31
0.0
 11
215.200190
 21
49.924279
 31
0.0
  0
SPLINE
  5
245
100
AcDbEntity
  8
3.1mm
 62
7
100
AcDbSpline
 70
0
 71
3
 72
10
 73
6
 74
4
 40
0.000000
 40
0.000000
 40
0.000000
 40
0.000000
 40
6.644679
 40
13.289355
 40
19.934030
 40
19.934030
 40
19.934030
 40
19.934030
 10
215.200190
 20
49.924279
 30
0.0
 10
212.985298
 20
49.924279
 30
0.0
 10
208.555513
 20
49.924279
 30
0.0
 10
201.910836
 20
49.924279
 30
0.0
 10
197.481052
 20
49.924279
 30
0.0
 10
195.266160
 20
49.924279
 30
0.0
 11
215.200190
 21
49.924279
 31
0.0
 11
208.555512
 21
49.924279
 31
0.0
 11
201.910835
 21
49.924279
 31
0.0
 11
195.266160
 21
49.924279
 31
0.0
  0
LINE
  5
246
100
AcDbEntity
  8
3.1mm
 62
7
100
AcDbLine
 10
195.266160
 20
19.932867
 30
0.0
 11
195.266160
 21
19.932867
 31
0.0
  0
SPLINE
  5
247
100
AcDbEntity
  8
3.1mm
 62
7
100
AcDbSpline
 70
0
 71
3
 72
10
 73
6
 74
4
 40
0.000000
 40
0.000000
 40
0.000000
 40
0.000000
 40
9.997138
 40
19.994275
 40
29.991411
 40
29.991411
 40
29.991411
 40
29.991411
 10
195.266160
 20
49.924279
 30
0.0
 10
195.266160
 20
46.591899
 30
0.0
 10
195.266160
 20
39.927141
 30
0.0
 10
195.266160
 20
29.930004
 30
0.0
 10
195.266160
 20
23.265246
 30
0.0
 10
195.266160
 20
19.932867
 30
0.0
 11
195.266160
 21
49.924279
 31
0.0
 11
195.266160
 21
39.927141
 31
0.0
 11
195.266160
 21
29.930003
 31
0.0
 11
195.266160
 21
19.932867
 31
0.0
  0
SPLINE
  5
248
100
AcDbEntity
  8
3.1mm
 62
7
100
AcDbSpline
 70
0
 71
3
 72
10
 73
6
 74
4
 40
0.000000
 40
0.000000
 40
0.000000
 40
0.000000
 40
6.467770
 40
12.248085
 40
17.345358
 40
17.345358
 40
17.345358
 40
17.345358
 10
110.239596
 20
47.189571
 30
0.0
 10
112.402400
 20
46.995357
 30
0.0
 10
116.498127
 20
46.627571
 30
0.0
 10
121.665371
 20
43.199062
 30
0.0
 10
122.969326
 20
39.744770
 30
0.0
 10
123.580364
 20
38.126077
 30
0.0
 11
110.239596
 21
47.189571
 31
0.0
 11
116.603370
 21
46.034394
 31
0.0
 11
121.322013
 21
42.695765
 31
0.0
 11
123.580364
 21
38.126077
 31
0.0
  0
SPLINE
  5
249
100
AcDbEntity
  8
3.1mm
 62
7
100
AcDbSpline
 70
0
 71
3
 72
10
 73
6
 74
4
 40
0.000000
 40
0.000000
 40
0.000000
 40
0.000000
 40
5.644571
 40
11.517412
 40
18.262449
 40
18.262449
 40
18.262449
 40
18.262449
 10
123.580364
 20
38.126077
 30
0.0
 10
123.808293
 20
36.242093
 30
0.0
 10
124.273369
 20
32.397935
 30
0.0
 10
121.601721
 20
26.367613
 30
0.0
 10
117.701564
 20
24.496177
 30
0.0
 10
115.616688
 20
23.495779
 30
0.0
 11
123.580364
 21
38.126077
 31
0.0
 11
123.747751
 21
32.483989
 31
0.0
 11
121.284296
 21
27.152793
 31
0.0
 11
115.616688
 21
23.495779
 31
0.0
  0
SPLINE
  5
24a
100
AcDbEntity
  8
3.1mm
 62
7
100
AcDbSpline
 70
0
 71
3
 72
10
 73
6
 74
4
 40
0.000000
 40
0.000000
 40
0.000000
 40
0.000000
 40
7.054636
 40
13.883563
 40
19.800902
 40
19.800902
 40
19.800902
 40
19.800902
 10
115.616688
 20
23.495779
 30
0.0
 10
113.298703
 20
23.078582
 30
0.0
 10
108.736895
 20
22.257536
 30
0.0
 10
101.882768
 20
23.978081
 30
0.0
 10
99.160916
 20
27.354221
 30
0.0
 10
97.897321
 20
28.921563
 30
0.0
 11
115.616688
 21
23.495779
 31
0.0
 11
108.599728
 21
22.767657
 31
0.0
 11
102.052398
 21
24.708461
 31
0.0
 11
97.897321
 21
28.921563
 31
0.0
  0
SPLINE
  5
24b
100
AcDbEntity
  8
3.1mm
 62
7
100
AcDbSpline
 70
0
 71
3
 72
10
 73
6
 74
4
 40
0.000000
 40
0.000000
 40
0.000000
 40
0.000000
 40
5.916017
 40
11.838559
 40
18.341859
 40
18.341859
 40
18.341859
 40
18.341859
 10
97.897321
 20
28.921563
 30
0.0
 10
97.248138
 20
30.798764
 30
0.0
 10
95.949056
 20
34.555236
 30
0.0
 10
97.129506
 20
41.046988
 30
0.0
 10
100.385742
 20
43.783734
 30
0.0
 10
102.089955
 20
45.216061
 30
0.0
 11
97.897321
 21
28.921563
 31
0.0
 11
96.464452
 21
34.661436
 31
0.0
 11
97.650197
 21
40.464066
 31
0.0
 11
102.089955
 21
45.216061
 31
0.0
  0
LINE
  5
24c
100
AcDbEntity
  8
3.1mm
 62
7
100
AcDbLine
 10
110.239596
 20
47.189571
 30
0.0
 11
110.239596
 21
47.189571
 31
0.0
  0
SPLINE
  5
24d
100
AcDbEntity
  8
3.1mm
 62
7
100
AcDbSpline
 70
0
 71
3
 72
10
 73
6
 74
4
 40
0.000000
 40
0.000000
 40
0.000000
 40
0.000000
 40
2.724466
 40
5.565918
 40
8.472216
 40
8.472216
 40
8.472216
 40
8.472216
 10
102.089955
 20
45.216061
 30
0.0
 10
102.905597
 20
45.620691
 30
0.0
 10
104.571905
 20
46.447324
 30
0.0
 10
107.354775
 20
47.079232
 30
0.0
 10
109.270783
 20
47.152516
 30
0.0
 10
110.239596
 20
47.189571
 30
0.0
 11
102.089955
 21
45.216061
 31
0.0
 11
104.575681
 21
46.331355
 31
0.0
 11
107.340329
 21
46.987535
 31
0.0
 11
110.239596
 21
47.189571
 31
0.0
  0
ENDSEC
  0
SECTION
  2
OBJECTS
  0
DICTIONARY
  5
C
330
0
100
AcDbDictionary
  3
ACAD_GROUP
350
D
  3
ACAD_MLINESTYLE
350
17
  0
DICTIONARY
  5
D
330
C
100
AcDbDictionary
  0
DICTIONARY
  5
1A
330
C
100
AcDbDictionary
  0
DICTIONARY
  5
17
330
C
100
AcDbDictionary
  3
STANDARD
350
18
  0
DICTIONARY
  5
19
330
C
100
AcDbDictionary
  0
ENDSEC
  0
EOF
