  0
SECTION
  2
HEADER
  9
$ACADVER
  1
AC1009
  9
$DWGCODEPAGE
  3
ansi_1252
  9
$INSBASE
 10
0.0
 20
0.0
 30
0.0
  9
$EXTMIN
 10
38.65
 20
3148.69559
 30
0.0
  9
$EXTMAX
 10
2386.537
 20
4278.175
 30
0.0
  9
$LIMMIN
 10
0.0
 20
0.0
  9
$LIMMAX
 10
12.0
 20
9.0
  9
$ORTHOMODE
 70
     0
  9
$REGENMODE
 70
     1
  9
$FILLMODE
 70
     1
  9
$QTEXTMODE
 70
     0
  9
$MIRRTEXT
 70
     1
  9
$DRAGMODE
 70
     2
  9
$LTSCALE
 40
1.0
  9
$OSMODE
 70
   511
  9
$ATTMODE
 70
     1
  9
$TEXTSIZE
 40
2.5
  9
$TRACEWID
 40
0.05
  9
$TEXTSTYLE
  7
STANDARD
  9
$CLAYER
  8
0
  9
$CELTYPE
  6
BYBLOCK
  9
$CECOLOR
 62
   256
  9
$DIMSCALE
 40
1.0
  9
$DIMASZ
 40
0.18
  9
$DIMEXO
 40
0.0625
  9
$DIMDLI
 40
0.38
  9
$DIMRND
 40
0.0
  9
$DIMDLE
 40
0.0
  9
$DIMEXE
 40
0.18
  9
$DIMTP
 40
0.0
  9
$DIMTM
 40
0.0
  9
$DIMTXT
 40
0.18
  9
$DIMCEN
 40
0.09
  9
$DIMTSZ
 40
0.0
  9
$DIMTOL
 70
     0
  9
$DIMLIM
 70
     0
  9
$DIMTIH
 70
     1
  9
$DIMTOH
 70
     1
  9
$DIMSE1
 70
     0
  9
$DIMSE2
 70
     0
  9
$DIMTAD
 70
     0
  9
$DIMZIN
 70
     0
  9
$DIMBLK
  1

  9
$DIMASO
 70
     1
  9
$DIMSHO
 70
     1
  9
$DIMPOST
  1

  9
$DIMAPOST
  1

  9
$DIMALT
 70
     0
  9
$DIMALTD
 70
     2
  9
$DIMALTF
 40
25.4
  9
$DIMLFAC
 40
1.0
  9
$DIMTOFL
 70
     0
  9
$DIMTVP
 40
0.0
  9
$DIMTIX
 70
     0
  9
$DIMSOXD
 70
     0
  9
$DIMSAH
 70
     0
  9
$DIMBLK1
  1

  9
$DIMBLK2
  1

  9
$DIMSTYLE
  2
ISO-25
  9
$DIMCLRD
 70
     0
  9
$DIMCLRE
 70
     0
  9
$DIMCLRT
 70
     0
  9
$DIMTFAC
 40
1.0
  9
$DIMGAP
 40
0.09
  9
$LUNITS
 70
     2
  9
$LUPREC
 70
     4
  9
$SKETCHINC
 40
0.1
  9
$FILLETRAD
 40
0.5
  9
$AUNITS
 70
     0
  9
$AUPREC
 70
     0
  9
$MENU
  1
.
  9
$ELEVATION
 40
0.0
  9
$PELEVATION
 40
0.0
  9
$THICKNESS
 40
0.0
  9
$LIMCHECK
 70
     0
  9
$CHAMFERA
 40
0.0
  9
$CHAMFERB
 40
0.0
  9
$SKPOLY
 70
     0
  9
$TDCREATE
 40
0.0
  9
$TDUPDATE
 40
2456843.92679397
  9
$TDINDWG
 40
0.0
  9
$TDUSRTIMER
 40
2456844.13443287
  9
$USRTIMER
 70
     1
  9
$ANGBASE
 50
0.0
  9
$ANGDIR
 70
     0
  9
$PDMODE
 70
     0
  9
$PDSIZE
 40
0.0
  9
$PLINEWID
 40
0.0
  9
$COORDS
 70
     1
  9
$SPLFRAME
 70
     0
  9
$SPLINETYPE
 70
     6
  9
$SPLINESEGS
 70
     8
  9
$ATTDIA
 70
     0
  9
$ATTREQ
 70
     1
  9
$HANDLING
 70
     1
  9
$HANDSEED
  5
10048
  9
$SURFTAB1
 70
     6
  9
$SURFTAB2
 70
     6
  9
$SURFTYPE
 70
     6
  9
$SURFU
 70
     6
  9
$SURFV
 70
     6
  9
$UCSNAME
  2

  9
$UCSORG
 10
0.0
 20
0.0
 30
0.0
  9
$UCSXDIR
 10
1.0
 20
0.0
 30
0.0
  9
$UCSYDIR
 10
0.0
 20
1.0
 30
0.0
  9
$PUCSNAME
  2

  9
$PUCSORG
 10
0.0
 20
0.0
 30
0.0
  9
$PUCSXDIR
 10
1.0
 20
0.0
 30
0.0
  9
$PUCSYDIR
 10
0.0
 20
1.0
 30
0.0
  9
$USERI1
 70
     0
  9
$USERI2
 70
     0
  9
$USERI3
 70
     0
  9
$USERI4
 70
     0
  9
$USERI5
 70
     0
  9
$USERR1
 40
0.0
  9
$USERR2
 40
0.0
  9
$USERR3
 40
0.0
  9
$USERR4
 40
0.0
  9
$USERR5
 40
0.0
  9
$WORLDVIEW
 70
     1
  9
$SHADEDGE
 70
     3
  9
$SHADEDIF
 70
    70
  9
$TILEMODE
 70
     1
  9
$MAXACTVP
 70
    64
  9
$PLIMCHECK
 70
     0
  9
$PEXTMIN
 10
1.000000000000000E+20
 20
1.000000000000000E+20
 30
1.000000000000000E+20
  9
$PEXTMAX
 10
-1.000000000000000E+20
 20
-1.000000000000000E+20
 30
-1.000000000000000E+20
  9
$PLIMMIN
 10
0.0
 20
0.0
  9
$PLIMMAX
 10
0.0
 20
0.0
  9
$UNITMODE
 70
     0
  9
$VISRETAIN
 70
     1
  9
$PLINEGEN
 70
     0
  9
$PSLTSCALE
 70
     1
  0
ENDSEC
  0
SECTION
  2
TABLES
  0
TABLE
  2
VPORT
 70
     1
  0
VPORT
  2
*ACTIVE
 70
     0
 10
0.0
 20
0.0
 11
1.0
 21
1.0
 12
235.51793287295
 22
220.8918436944227
 13
0.0
 23
0.0
 14
10.0
 24
10.0
 15
10.0
 25
10.0
 16
0.0
 26
0.0
 36
1.0
 17
0.0
 27
0.0
 37
0.0
 40
532.8125000000002
 41
2.707692307692308
 42
50.0
 43
0.0
 44
0.0
 50
0.0
 51
0.0
 71
    16
 72
   100
 73
     1
 74
     3
 75
     0
 76
     0
 77
     0
 78
     0
  0
ENDTAB
  0
TABLE
  2
LTYPE
 70
     1
  0
LTYPE
  2
CONTINUOUS
 70
     0
  3
Solid line
 72
    65
 73
     0
 40
0.0
  0
ENDTAB
  0
TABLE
  2
LAYER
 70
     1
  0
LAYER
  2
0
 70
     0
 62
     7
  6
CONTINUOUS
  0
ENDTAB
  0
TABLE
  2
STYLE
 70
     1
  0
STYLE
  2
STANDARD
 70
     0
 40
0.0
 41
1.0
 50
0.0
 71
     0
 42
2.5
  3
txt
  4

  0
ENDTAB
  0
TABLE
  2
VIEW
 70
     0
  0
ENDTAB
  0
TABLE
  2
UCS
 70
     0
  0
ENDTAB
  0
TABLE
  2
APPID
 70
     1
  0
APPID
  2
ACAD
 70
     0
  0
ENDTAB
  0
TABLE
  2
DIMSTYLE
 70
     1
  0
DIMSTYLE
  2
ISO-25
 70
     0
  3

  4

  5

  6

  7

 40
1.0
 41
2.5
 42
0.625
 43
3.75
 44
1.25
 45
0.0
 46
0.0
 47
0.0
 48
0.0
140
2.5
141
2.5
142
0.0
143
0.03937007874016
144
1.0
145
0.0
146
1.0
147
0.625
 71
     0
 72
     0
 73
     0
 74
     0
 75
     0
 76
     0
 77
     1
 78
     8
170
     0
171
     3
172
     1
173
     0
174
     0
175
     0
176
     0
177
     0
178
     0
  0
ENDTAB
  0
ENDSEC
  0
SECTION
  2
BLOCKS
  0
BLOCK
  8
0
  2
$MODEL_SPACE
 70
     0
 10
0.0
 20
0.0
 30
0.0
  3
$MODEL_SPACE
  1

  0
ENDBLK
  5
21
  8
0
  0
BLOCK
 67
     1
  8
0
  2
$PAPER_SPACE
 70
     0
 10
0.0
 20
0.0
 30
0.0
  3
$PAPER_SPACE
  1

  0
ENDBLK
  5
1D
 67
     1
  8
0
  0
ENDSEC
  0
SECTION
  2
ENTITIES
  0
LINE
  5
100
  8
0
 62
     7
 10
125.1587689999994
 20
1162.768628727076
 30
0.0
 11
125.1587709999994
 21
1029.418628727076
 31
0.0
  0
LINE
  5
101
  8
0
 62
     7
 10
125.1587709999994
 20
1029.418628727076
 30
0.0
 11
142.9587699999994
 21
1029.418628727076
 31
0.0
  0
LINE
  5
102
  8
0
 62
     7
 10
142.9587699999994
 20
1029.418628727076
 30
0.0
 11
146.4987699999994
 21
1031.958628727076
 31
0.0
  0
LINE
  5
103
  8
0
 62
     7
 10
146.4987699999994
 20
1031.958628727076
 30
0.0
 11
143.9587699999994
 21
1029.418628727076
 31
0.0
  0
LINE
  5
104
  8
0
 62
     7
 10
143.9587699999994
 20
1029.418628727076
 30
0.0
 11
143.9587699999994
 21
902.4186387270761
 31
0.0
  0
LINE
  5
105
  8
0
 62
     7
 10
143.9587699999994
 20
902.4186387270761
 30
0.0
 11
499.6349589999994
 21
902.4186387270761
 31
0.0
  0
LINE
  5
106
  8
0
 62
     7
 10
499.6349589999994
 20
902.4186387270761
 30
0.0
 11
499.6349589999994
 21
1029.418628727076
 31
0.0
  0
LINE
  5
107
  8
0
 62
     7
 10
499.6349589999994
 20
1029.418628727076
 30
0.0
 11
497.0949589999994
 21
1031.958628727076
 31
0.0
  0
LINE
  5
108
  8
0
 62
     7
 10
497.0949589999994
 20
1031.958628727076
 30
0.0
 11
500.6349589999994
 21
1029.418628727076
 31
0.0
  0
LINE
  5
109
  8
0
 62
     7
 10
500.6349589999994
 20
1029.418628727076
 30
0.0
 11
511.0849689999994
 21
1029.418628727076
 31
0.0
  0
LINE
  5
10A
  8
0
 62
     7
 10
511.0849689999994
 20
1029.418628727076
 30
0.0
 11
514.6249689999994
 21
1031.958628727076
 31
0.0
  0
LINE
  5
10B
  8
0
 62
     7
 10
514.6249689999994
 20
1031.958628727076
 30
0.0
 11
512.0849689999994
 21
1029.418628727076
 31
0.0
  0
LINE
  5
10C
  8
0
 62
     7
 10
512.0849689999994
 20
1029.418628727076
 30
0.0
 11
512.0849689999994
 21
902.4186387270761
 31
0.0
  0
LINE
  5
10D
  8
0
 62
     7
 10
512.0849689999994
 20
902.4186387270761
 30
0.0
 11
867.7611489999995
 21
902.4186387270761
 31
0.0
  0
LINE
  5
10E
  8
0
 62
     7
 10
867.7611489999995
 20
902.4186387270761
 30
0.0
 11
867.7611489999995
 21
1029.418628727076
 31
0.0
  0
LINE
  5
10F
  8
0
 62
     7
 10
867.7611489999995
 20
1029.418628727076
 30
0.0
 11
865.2211489999994
 21
1031.958628727076
 31
0.0
  0
LINE
  5
110
  8
0
 62
     7
 10
865.2211489999994
 20
1031.958628727076
 30
0.0
 11
868.7611489999995
 21
1029.418628727076
 31
0.0
  0
LINE
  5
111
  8
0
 62
     7
 10
868.7611489999995
 20
1029.418628727076
 30
0.0
 11
879.2111589999994
 21
1029.418628727076
 31
0.0
  0
LINE
  5
112
  8
0
 62
     7
 10
879.2111589999994
 20
1029.418628727076
 30
0.0
 11
882.7511589999995
 21
1031.958628727076
 31
0.0
  0
LINE
  5
113
  8
0
 62
     7
 10
882.7511589999995
 20
1031.958628727076
 30
0.0
 11
880.2111589999994
 21
1029.418628727076
 31
0.0
  0
LINE
  5
114
  8
0
 62
     7
 10
880.2111589999994
 20
1029.418628727076
 30
0.0
 11
880.2111589999994
 21
902.4186387270761
 31
0.0
  0
LINE
  5
115
  8
0
 62
     7
 10
880.2111589999994
 20
902.4186387270761
 30
0.0
 11
1235.887268999999
 21
902.4186387270761
 31
0.0
  0
LINE
  5
116
  8
0
 62
     7
 10
1235.887268999999
 20
902.4186387270761
 30
0.0
 11
1235.887268999999
 21
1029.418628727076
 31
0.0
  0
LINE
  5
117
  8
0
 62
     7
 10
1235.887268999999
 20
1029.418628727076
 30
0.0
 11
1233.347268999999
 21
1031.958628727076
 31
0.0
  0
LINE
  5
118
  8
0
 62
     7
 10
1233.347268999999
 20
1031.958628727076
 30
0.0
 11
1236.887268999999
 21
1029.418628727076
 31
0.0
  0
LINE
  5
119
  8
0
 62
     7
 10
1236.887268999999
 20
1029.418628727076
 30
0.0
 11
1247.337268999999
 21
1029.418628727076
 31
0.0
  0
LINE
  5
11A
  8
0
 62
     7
 10
1247.337268999999
 20
1029.418628727076
 30
0.0
 11
1250.877268999999
 21
1031.958628727076
 31
0.0
  0
LINE
  5
11B
  8
0
 62
     7
 10
1250.877268999999
 20
1031.958628727076
 30
0.0
 11
1248.337268999999
 21
1029.418628727076
 31
0.0
  0
LINE
  5
11C
  8
0
 62
     7
 10
1248.337268999999
 20
1029.418628727076
 30
0.0
 11
1248.337268999999
 21
902.4186387270761
 31
0.0
  0
LINE
  5
11D
  8
0
 62
     7
 10
1248.337268999999
 20
902.4186387270761
 30
0.0
 11
1604.013368999999
 21
902.4186387270761
 31
0.0
  0
LINE
  5
11E
  8
0
 62
     7
 10
1604.013368999999
 20
902.4186387270761
 30
0.0
 11
1604.013368999999
 21
1029.418628727076
 31
0.0
  0
LINE
  5
11F
  8
0
 62
     7
 10
1604.013368999999
 20
1029.418628727076
 30
0.0
 11
1601.473368999999
 21
1031.958628727076
 31
0.0
  0
LINE
  5
120
  8
0
 62
     7
 10
1601.473368999999
 20
1031.958628727076
 30
0.0
 11
1605.013368999999
 21
1029.418628727076
 31
0.0
  0
LINE
  5
121
  8
0
 62
     7
 10
1605.013368999999
 20
1029.418628727076
 30
0.0
 11
1615.463368999999
 21
1029.418628727076
 31
0.0
  0
LINE
  5
122
  8
0
 62
     7
 10
1615.463368999999
 20
1029.418628727076
 30
0.0
 11
1619.003368999999
 21
1031.958628727076
 31
0.0
  0
LINE
  5
123
  8
0
 62
     7
 10
1619.003368999999
 20
1031.958628727076
 30
0.0
 11
1616.463368999999
 21
1029.418628727076
 31
0.0
  0
LINE
  5
124
  8
0
 62
     7
 10
1616.463368999999
 20
1029.418628727076
 30
0.0
 11
1616.463368999999
 21
902.4186387270761
 31
0.0
  0
LINE
  5
125
  8
0
 62
     7
 10
1616.463368999999
 20
902.4186387270761
 30
0.0
 11
1972.139468999999
 21
902.4186387270761
 31
0.0
  0
LINE
  5
126
  8
0
 62
     7
 10
1972.139468999999
 20
902.4186387270761
 30
0.0
 11
1972.139468999999
 21
1029.418628727076
 31
0.0
  0
LINE
  5
127
  8
0
 62
     7
 10
1972.139468999999
 20
1029.418628727076
 30
0.0
 11
1969.599468999999
 21
1031.958628727076
 31
0.0
  0
LINE
  5
128
  8
0
 62
     7
 10
1969.599468999999
 20
1031.958628727076
 30
0.0
 11
1973.139468999999
 21
1029.418628727076
 31
0.0
  0
LINE
  5
129
  8
0
 62
     7
 10
1973.139468999999
 20
1029.418628727076
 30
0.0
 11
1972.139468999999
 21
1029.418628727076
 31
0.0
  0
LINE
  5
12A
  8
0
 62
     7
 10
1972.139468999999
 20
1029.418628727076
 30
0.0
 11
1990.939568999999
 21
1029.418628727076
 31
0.0
  0
LINE
  5
12B
  8
0
 62
     7
 10
1990.939568999999
 20
1029.418628727076
 30
0.0
 11
1990.939568999999
 21
1162.768627727076
 31
0.0
  0
LINE
  5
12C
  8
0
 62
     7
 10
1990.939568999999
 20
1162.768627727076
 30
0.0
 11
125.1587689999994
 21
1162.768628727076
 31
0.0
  0
LINE
  5
12D
  8
0
 62
     7
 10
38.64999999999942
 20
873.7686287270762
 30
0.0
 11
38.65000199999943
 21
740.4186087270759
 31
0.0
  0
LINE
  5
12E
  8
0
 62
     7
 10
38.65000199999943
 20
740.4186087270759
 30
0.0
 11
56.45000099999942
 21
740.4186087270759
 31
0.0
  0
LINE
  5
12F
  8
0
 62
     7
 10
56.45000099999942
 20
740.4186087270759
 30
0.0
 11
59.99000099999942
 21
742.9586087270759
 31
0.0
  0
LINE
  5
130
  8
0
 62
     7
 10
59.99000099999942
 20
742.9586087270759
 30
0.0
 11
57.45000099999942
 21
740.4186087270759
 31
0.0
  0
LINE
  5
131
  8
0
 62
     7
 10
57.45000099999942
 20
740.4186087270759
 30
0.0
 11
57.45000099999942
 21
613.4186387270761
 31
0.0
  0
LINE
  5
132
  8
0
 62
     7
 10
57.45000099999942
 20
613.4186387270761
 30
0.0
 11
413.1261899999994
 21
613.4186387270761
 31
0.0
  0
LINE
  5
133
  8
0
 62
     7
 10
413.1261899999994
 20
613.4186387270761
 30
0.0
 11
413.1261899999994
 21
740.4186087270759
 31
0.0
  0
LINE
  5
134
  8
0
 62
     7
 10
413.1261899999994
 20
740.4186087270759
 30
0.0
 11
410.5861899999994
 21
742.9586087270759
 31
0.0
  0
LINE
  5
135
  8
0
 62
     7
 10
410.5861899999994
 20
742.9586087270759
 30
0.0
 11
414.1261899999994
 21
740.4186087270759
 31
0.0
  0
LINE
  5
136
  8
0
 62
     7
 10
414.1261899999994
 20
740.4186087270759
 30
0.0
 11
424.5761999999994
 21
740.4186087270759
 31
0.0
  0
LINE
  5
137
  8
0
 62
     7
 10
424.5761999999994
 20
740.4186087270759
 30
0.0
 11
428.1161999999994
 21
742.9586087270759
 31
0.0
  0
LINE
  5
138
  8
0
 62
     7
 10
428.1161999999994
 20
742.9586087270759
 30
0.0
 11
425.5761999999994
 21
740.4186087270759
 31
0.0
  0
LINE
  5
139
  8
0
 62
     7
 10
425.5761999999994
 20
740.4186087270759
 30
0.0
 11
425.5761999999994
 21
613.4186387270761
 31
0.0
  0
LINE
  5
13A
  8
0
 62
     7
 10
425.5761999999994
 20
613.4186387270761
 30
0.0
 11
781.2523799999994
 21
613.4186387270761
 31
0.0
  0
LINE
  5
13B
  8
0
 62
     7
 10
781.2523799999994
 20
613.4186387270761
 30
0.0
 11
781.2523799999994
 21
740.4186087270759
 31
0.0
  0
LINE
  5
13C
  8
0
 62
     7
 10
781.2523799999994
 20
740.4186087270759
 30
0.0
 11
778.7123799999995
 21
742.9586087270759
 31
0.0
  0
LINE
  5
13D
  8
0
 62
     7
 10
778.7123799999995
 20
742.9586087270759
 30
0.0
 11
782.2523799999994
 21
740.4186087270759
 31
0.0
  0
LINE
  5
13E
  8
0
 62
     7
 10
782.2523799999994
 20
740.4186087270759
 30
0.0
 11
792.7023899999995
 21
740.4186087270759
 31
0.0
  0
LINE
  5
13F
  8
0
 62
     7
 10
792.7023899999995
 20
740.4186087270759
 30
0.0
 11
796.2423899999994
 21
742.9586087270759
 31
0.0
  0
LINE
  5
140
  8
0
 62
     7
 10
796.2423899999994
 20
742.9586087270759
 30
0.0
 11
793.7023899999995
 21
740.4186087270759
 31
0.0
  0
LINE
  5
141
  8
0
 62
     7
 10
793.7023899999995
 20
740.4186087270759
 30
0.0
 11
793.7023899999995
 21
613.4186387270761
 31
0.0
  0
LINE
  5
142
  8
0
 62
     7
 10
793.7023899999995
 20
613.4186387270761
 30
0.0
 11
1149.378499999999
 21
613.4186387270761
 31
0.0
  0
LINE
  5
143
  8
0
 62
     7
 10
1149.378499999999
 20
613.4186387270761
 30
0.0
 11
1149.378499999999
 21
740.4186087270759
 31
0.0
  0
LINE
  5
144
  8
0
 62
     7
 10
1149.378499999999
 20
740.4186087270759
 30
0.0
 11
1146.838499999999
 21
742.9586087270759
 31
0.0
  0
LINE
  5
145
  8
0
 62
     7
 10
1146.838499999999
 20
742.9586087270759
 30
0.0
 11
1150.378499999999
 21
740.4186087270759
 31
0.0
  0
LINE
  5
146
  8
0
 62
     7
 10
1150.378499999999
 20
740.4186087270759
 30
0.0
 11
1160.828499999999
 21
740.4186087270759
 31
0.0
  0
LINE
  5
147
  8
0
 62
     7
 10
1160.828499999999
 20
740.4186087270759
 30
0.0
 11
1164.368499999999
 21
742.9586087270759
 31
0.0
  0
LINE
  5
148
  8
0
 62
     7
 10
1164.368499999999
 20
742.9586087270759
 30
0.0
 11
1161.828499999999
 21
740.4186087270759
 31
0.0
  0
LINE
  5
149
  8
0
 62
     7
 10
1161.828499999999
 20
740.4186087270759
 30
0.0
 11
1161.828499999999
 21
613.4186387270761
 31
0.0
  0
LINE
  5
14A
  8
0
 62
     7
 10
1161.828499999999
 20
613.4186387270761
 30
0.0
 11
1517.504599999999
 21
613.4186387270761
 31
0.0
  0
LINE
  5
14B
  8
0
 62
     7
 10
1517.504599999999
 20
613.4186387270761
 30
0.0
 11
1517.504599999999
 21
740.4186087270759
 31
0.0
  0
LINE
  5
14C
  8
0
 62
     7
 10
1517.504599999999
 20
740.4186087270759
 30
0.0
 11
1514.964599999999
 21
742.9586087270759
 31
0.0
  0
LINE
  5
14D
  8
0
 62
     7
 10
1514.964599999999
 20
742.9586087270759
 30
0.0
 11
1518.504599999999
 21
740.4186087270759
 31
0.0
  0
LINE
  5
14E
  8
0
 62
     7
 10
1518.504599999999
 20
740.4186087270759
 30
0.0
 11
1528.954599999999
 21
740.4186087270759
 31
0.0
  0
LINE
  5
14F
  8
0
 62
     7
 10
1528.954599999999
 20
740.4186087270759
 30
0.0
 11
1532.494599999999
 21
742.9586087270759
 31
0.0
  0
LINE
  5
150
  8
0
 62
     7
 10
1532.494599999999
 20
742.9586087270759
 30
0.0
 11
1529.954599999999
 21
740.4186087270759
 31
0.0
  0
LINE
  5
151
  8
0
 62
     7
 10
1529.954599999999
 20
740.4186087270759
 30
0.0
 11
1529.954599999999
 21
613.4186387270761
 31
0.0
  0
LINE
  5
152
  8
0
 62
     7
 10
1529.954599999999
 20
613.4186387270761
 30
0.0
 11
1885.630699999999
 21
613.4186387270761
 31
0.0
  0
LINE
  5
153
  8
0
 62
     7
 10
1885.630699999999
 20
613.4186387270761
 30
0.0
 11
1885.630699999999
 21
740.4186087270759
 31
0.0
  0
LINE
  5
154
  8
0
 62
     7
 10
1885.630699999999
 20
740.4186087270759
 30
0.0
 11
1883.090699999999
 21
742.9586087270759
 31
0.0
  0
LINE
  5
155
  8
0
 62
     7
 10
1883.090699999999
 20
742.9586087270759
 30
0.0
 11
1886.630699999999
 21
740.4186087270759
 31
0.0
  0
LINE
  5
156
  8
0
 62
     7
 10
1886.630699999999
 20
740.4186087270759
 30
0.0
 11
1885.630699999999
 21
740.4186087270759
 31
0.0
  0
LINE
  5
157
  8
0
 62
     7
 10
1885.630699999999
 20
740.4186087270759
 30
0.0
 11
1904.430799999999
 21
740.4186087270759
 31
0.0
  0
LINE
  5
158
  8
0
 62
     7
 10
1904.430799999999
 20
740.4186087270759
 30
0.0
 11
1904.430799999999
 21
873.768618727076
 31
0.0
  0
LINE
  5
159
  8
0
 62
     7
 10
1904.430799999999
 20
873.768618727076
 30
0.0
 11
38.64999999999942
 21
873.7686287270762
 31
0.0
  0
LINE
  5
15A
  8
0
 62
     7
 10
38.64999999999942
 20
584.7686287270762
 30
0.0
 11
38.65000199999943
 21
451.4186387270761
 31
0.0
  0
LINE
  5
15B
  8
0
 62
     7
 10
38.65000199999943
 20
451.4186387270761
 30
0.0
 11
56.45000099999942
 21
451.4186387270761
 31
0.0
  0
LINE
  5
15C
  8
0
 62
     7
 10
56.45000099999942
 20
451.4186387270761
 30
0.0
 11
59.99000099999942
 21
453.958638727076
 31
0.0
  0
LINE
  5
15D
  8
0
 62
     7
 10
59.99000099999942
 20
453.958638727076
 30
0.0
 11
57.45000099999942
 21
451.4186387270761
 31
0.0
  0
LINE
  5
15E
  8
0
 62
     7
 10
57.45000099999942
 20
451.4186387270761
 30
0.0
 11
57.45000099999942
 21
324.4186387270761
 31
0.0
  0
LINE
  5
15F
  8
0
 62
     7
 10
57.45000099999942
 20
324.4186387270761
 30
0.0
 11
413.1261899999994
 21
324.4186387270761
 31
0.0
  0
LINE
  5
160
  8
0
 62
     7
 10
413.1261899999994
 20
324.4186387270761
 30
0.0
 11
413.1261899999994
 21
451.4186387270761
 31
0.0
  0
LINE
  5
161
  8
0
 62
     7
 10
413.1261899999994
 20
451.4186387270761
 30
0.0
 11
410.5861899999994
 21
453.958638727076
 31
0.0
  0
LINE
  5
162
  8
0
 62
     7
 10
410.5861899999994
 20
453.958638727076
 30
0.0
 11
414.1261899999994
 21
451.4186387270761
 31
0.0
  0
LINE
  5
163
  8
0
 62
     7
 10
414.1261899999994
 20
451.4186387270761
 30
0.0
 11
424.5761999999994
 21
451.4186387270761
 31
0.0
  0
LINE
  5
164
  8
0
 62
     7
 10
424.5761999999994
 20
451.4186387270761
 30
0.0
 11
428.1161999999994
 21
453.958638727076
 31
0.0
  0
LINE
  5
165
  8
0
 62
     7
 10
428.1161999999994
 20
453.958638727076
 30
0.0
 11
425.5761999999994
 21
451.4186387270761
 31
0.0
  0
LINE
  5
166
  8
0
 62
     7
 10
425.5761999999994
 20
451.4186387270761
 30
0.0
 11
425.5761999999994
 21
324.4186387270761
 31
0.0
  0
LINE
  5
167
  8
0
 62
     7
 10
425.5761999999994
 20
324.4186387270761
 30
0.0
 11
781.2523799999994
 21
324.4186387270761
 31
0.0
  0
LINE
  5
168
  8
0
 62
     7
 10
781.2523799999994
 20
324.4186387270761
 30
0.0
 11
781.2523799999994
 21
451.4186387270761
 31
0.0
  0
LINE
  5
169
  8
0
 62
     7
 10
781.2523799999994
 20
451.4186387270761
 30
0.0
 11
778.7123799999995
 21
453.958638727076
 31
0.0
  0
LINE
  5
16A
  8
0
 62
     7
 10
778.7123799999995
 20
453.958638727076
 30
0.0
 11
782.2523799999994
 21
451.4186387270761
 31
0.0
  0
LINE
  5
16B
  8
0
 62
     7
 10
782.2523799999994
 20
451.4186387270761
 30
0.0
 11
792.7023899999995
 21
451.4186387270761
 31
0.0
  0
LINE
  5
16C
  8
0
 62
     7
 10
792.7023899999995
 20
451.4186387270761
 30
0.0
 11
796.2423899999994
 21
453.958638727076
 31
0.0
  0
LINE
  5
16D
  8
0
 62
     7
 10
796.2423899999994
 20
453.958638727076
 30
0.0
 11
793.7023899999995
 21
451.4186387270761
 31
0.0
  0
LINE
  5
16E
  8
0
 62
     7
 10
793.7023899999995
 20
451.4186387270761
 30
0.0
 11
793.7023899999995
 21
324.4186387270761
 31
0.0
  0
LINE
  5
16F
  8
0
 62
     7
 10
793.7023899999995
 20
324.4186387270761
 30
0.0
 11
1149.378499999999
 21
324.4186387270761
 31
0.0
  0
LINE
  5
170
  8
0
 62
     7
 10
1149.378499999999
 20
324.4186387270761
 30
0.0
 11
1149.378499999999
 21
451.4186387270761
 31
0.0
  0
LINE
  5
171
  8
0
 62
     7
 10
1149.378499999999
 20
451.4186387270761
 30
0.0
 11
1146.838499999999
 21
453.958638727076
 31
0.0
  0
LINE
  5
172
  8
0
 62
     7
 10
1146.838499999999
 20
453.958638727076
 30
0.0
 11
1150.378499999999
 21
451.4186387270761
 31
0.0
  0
LINE
  5
173
  8
0
 62
     7
 10
1150.378499999999
 20
451.4186387270761
 30
0.0
 11
1160.828499999999
 21
451.4186387270761
 31
0.0
  0
LINE
  5
174
  8
0
 62
     7
 10
1160.828499999999
 20
451.4186387270761
 30
0.0
 11
1164.368499999999
 21
453.958638727076
 31
0.0
  0
LINE
  5
175
  8
0
 62
     7
 10
1164.368499999999
 20
453.958638727076
 30
0.0
 11
1161.828499999999
 21
451.4186387270761
 31
0.0
  0
LINE
  5
176
  8
0
 62
     7
 10
1161.828499999999
 20
451.4186387270761
 30
0.0
 11
1161.828499999999
 21
324.4186387270761
 31
0.0
  0
LINE
  5
177
  8
0
 62
     7
 10
1161.828499999999
 20
324.4186387270761
 30
0.0
 11
1517.504599999999
 21
324.4186387270761
 31
0.0
  0
LINE
  5
178
  8
0
 62
     7
 10
1517.504599999999
 20
324.4186387270761
 30
0.0
 11
1517.504599999999
 21
451.4186387270761
 31
0.0
  0
LINE
  5
179
  8
0
 62
     7
 10
1517.504599999999
 20
451.4186387270761
 30
0.0
 11
1514.964599999999
 21
453.958638727076
 31
0.0
  0
LINE
  5
17A
  8
0
 62
     7
 10
1514.964599999999
 20
453.958638727076
 30
0.0
 11
1518.504599999999
 21
451.4186387270761
 31
0.0
  0
LINE
  5
17B
  8
0
 62
     7
 10
1518.504599999999
 20
451.4186387270761
 30
0.0
 11
1528.954599999999
 21
451.4186387270761
 31
0.0
  0
LINE
  5
17C
  8
0
 62
     7
 10
1528.954599999999
 20
451.4186387270761
 30
0.0
 11
1532.494599999999
 21
453.958638727076
 31
0.0
  0
LINE
  5
17D
  8
0
 62
     7
 10
1532.494599999999
 20
453.958638727076
 30
0.0
 11
1529.954599999999
 21
451.4186387270761
 31
0.0
  0
LINE
  5
17E
  8
0
 62
     7
 10
1529.954599999999
 20
451.4186387270761
 30
0.0
 11
1529.954599999999
 21
324.4186387270761
 31
0.0
  0
LINE
  5
17F
  8
0
 62
     7
 10
1529.954599999999
 20
324.4186387270761
 30
0.0
 11
1885.630699999999
 21
324.4186387270761
 31
0.0
  0
LINE
  5
180
  8
0
 62
     7
 10
1885.630699999999
 20
324.4186387270761
 30
0.0
 11
1885.630699999999
 21
451.4186387270761
 31
0.0
  0
LINE
  5
181
  8
0
 62
     7
 10
1885.630699999999
 20
451.4186387270761
 30
0.0
 11
1883.090699999999
 21
453.958638727076
 31
0.0
  0
LINE
  5
182
  8
0
 62
     7
 10
1883.090699999999
 20
453.958638727076
 30
0.0
 11
1886.630699999999
 21
451.4186387270761
 31
0.0
  0
LINE
  5
183
  8
0
 62
     7
 10
1886.630699999999
 20
451.4186387270761
 30
0.0
 11
1885.630699999999
 21
451.4186387270761
 31
0.0
  0
LINE
  5
184
  8
0
 62
     7
 10
1885.630699999999
 20
451.4186387270761
 30
0.0
 11
1904.430799999999
 21
451.4186387270761
 31
0.0
  0
LINE
  5
185
  8
0
 62
     7
 10
1904.430799999999
 20
451.4186387270761
 30
0.0
 11
1904.430799999999
 21
584.768618727076
 31
0.0
  0
LINE
  5
186
  8
0
 62
     7
 10
1904.430799999999
 20
584.768618727076
 30
0.0
 11
38.64999999999942
 21
584.7686287270762
 31
0.0
  0
LINE
  5
187
  8
0
 62
     7
 10
38.64999999999942
 20
295.7686287270762
 30
0.0
 11
38.65000199999943
 21
162.4187287270761
 31
0.0
  0
LINE
  5
188
  8
0
 62
     7
 10
38.65000199999943
 20
162.4187287270761
 30
0.0
 11
56.45000099999942
 21
162.4187287270761
 31
0.0
  0
LINE
  5
189
  8
0
 62
     7
 10
56.45000099999942
 20
162.4187287270761
 30
0.0
 11
59.99000099999942
 21
164.958728727076
 31
0.0
  0
LINE
  5
18A
  8
0
 62
     7
 10
59.99000099999942
 20
164.958728727076
 30
0.0
 11
57.45000099999942
 21
162.4187287270761
 31
0.0
  0
LINE
  5
18B
  8
0
 62
     7
 10
57.45000099999942
 20
162.4187287270761
 30
0.0
 11
57.45000099999942
 21
35.41862872707588
 31
0.0
  0
LINE
  5
18C
  8
0
 62
     7
 10
57.45000099999942
 20
35.41862872707588
 30
0.0
 11
279.6999799999994
 21
35.41862872707588
 31
0.0
  0
LINE
  5
18D
  8
0
 62
     7
 10
279.6999799999994
 20
35.41862872707588
 30
0.0
 11
279.6999799999994
 21
162.4187287270761
 31
0.0
  0
LINE
  5
18E
  8
0
 62
     7
 10
279.6999799999994
 20
162.4187287270761
 30
0.0
 11
277.1599799999995
 21
164.958728727076
 31
0.0
  0
LINE
  5
18F
  8
0
 62
     7
 10
277.1599799999995
 20
164.958728727076
 30
0.0
 11
280.6999799999994
 21
162.4187287270761
 31
0.0
  0
LINE
  5
190
  8
0
 62
     7
 10
280.6999799999994
 20
162.4187287270761
 30
0.0
 11
291.1499899999994
 21
162.4187287270761
 31
0.0
  0
LINE
  5
191
  8
0
 62
     7
 10
291.1499899999994
 20
162.4187287270761
 30
0.0
 11
294.6899899999995
 21
164.958728727076
 31
0.0
  0
LINE
  5
192
  8
0
 62
     7
 10
294.6899899999995
 20
164.958728727076
 30
0.0
 11
292.1499899999994
 21
162.4187287270761
 31
0.0
  0
LINE
  5
193
  8
0
 62
     7
 10
292.1499899999994
 20
162.4187287270761
 30
0.0
 11
292.1499899999994
 21
35.41862872707588
 31
0.0
  0
LINE
  5
194
  8
0
 62
     7
 10
292.1499899999994
 20
35.41862872707588
 30
0.0
 11
514.3999599999994
 21
35.41862872707588
 31
0.0
  0
LINE
  5
195
  8
0
 62
     7
 10
514.3999599999994
 20
35.41862872707588
 30
0.0
 11
514.3999599999994
 21
162.4187287270761
 31
0.0
  0
LINE
  5
196
  8
0
 62
     7
 10
514.3999599999994
 20
162.4187287270761
 30
0.0
 11
511.8599599999994
 21
164.958728727076
 31
0.0
  0
LINE
  5
197
  8
0
 62
     7
 10
511.8599599999994
 20
164.958728727076
 30
0.0
 11
515.3999599999994
 21
162.4187287270761
 31
0.0
  0
LINE
  5
198
  8
0
 62
     7
 10
515.3999599999994
 20
162.4187287270761
 30
0.0
 11
514.3999599999994
 21
162.4187287270761
 31
0.0
  0
LINE
  5
199
  8
0
 62
     7
 10
514.3999599999994
 20
162.4187287270761
 30
0.0
 11
533.1999499999994
 21
162.4187287270761
 31
0.0
  0
LINE
  5
19A
  8
0
 62
     7
 10
533.1999499999994
 20
162.4187287270761
 30
0.0
 11
533.1999499999994
 21
295.768618727076
 31
0.0
  0
LINE
  5
19B
  8
0
 62
     7
 10
533.1999499999994
 20
295.768618727076
 30
0.0
 11
38.64999999999942
 21
295.7686287270762
 31
0.0
  0
LINE
  5
19C
  8
0
 62
     7
 10
1599.563499999999
 20
293.6392187270762
 30
0.0
 11
1599.563501999999
 21
160.2893187270761
 31
0.0
  0
LINE
  5
19D
  8
0
 62
     7
 10
1599.563501999999
 20
160.2893187270761
 30
0.0
 11
1617.363500999999
 21
160.2893187270761
 31
0.0
  0
LINE
  5
19E
  8
0
 62
     7
 10
1617.363500999999
 20
160.2893187270761
 30
0.0
 11
1620.903500999999
 21
162.829318727076
 31
0.0
  0
LINE
  5
19F
  8
0
 62
     7
 10
1620.903500999999
 20
162.829318727076
 30
0.0
 11
1618.363500999999
 21
160.2893187270761
 31
0.0
  0
LINE
  5
1A0
  8
0
 62
     7
 10
1618.363500999999
 20
160.2893187270761
 30
0.0
 11
1618.363500999999
 21
33.28921872707588
 31
0.0
  0
LINE
  5
1A1
  8
0
 62
     7
 10
1618.363500999999
 20
33.28921872707588
 30
0.0
 11
1840.613479999999
 21
33.28921872707588
 31
0.0
  0
LINE
  5
1A2
  8
0
 62
     7
 10
1840.613479999999
 20
33.28921872707588
 30
0.0
 11
1840.613479999999
 21
160.2893187270761
 31
0.0
  0
LINE
  5
1A3
  8
0
 62
     7
 10
1840.613479999999
 20
160.2893187270761
 30
0.0
 11
1838.073479999999
 21
162.829318727076
 31
0.0
  0
LINE
  5
1A4
  8
0
 62
     7
 10
1838.073479999999
 20
162.829318727076
 30
0.0
 11
1841.613479999999
 21
160.2893187270761
 31
0.0
  0
LINE
  5
1A5
  8
0
 62
     7
 10
1841.613479999999
 20
160.2893187270761
 30
0.0
 11
1852.063489999999
 21
160.2893187270761
 31
0.0
  0
LINE
  5
1A6
  8
0
 62
     7
 10
1852.063489999999
 20
160.2893187270761
 30
0.0
 11
1855.603489999999
 21
162.829318727076
 31
0.0
  0
LINE
  5
1A7
  8
0
 62
     7
 10
1855.603489999999
 20
162.829318727076
 30
0.0
 11
1853.063489999999
 21
160.2893187270761
 31
0.0
  0
LINE
  5
1A8
  8
0
 62
     7
 10
1853.063489999999
 20
160.2893187270761
 30
0.0
 11
1853.063489999999
 21
33.28921872707588
 31
0.0
  0
LINE
  5
1A9
  8
0
 62
     7
 10
1853.063489999999
 20
33.28921872707588
 30
0.0
 11
2075.313459999999
 21
33.28921872707588
 31
0.0
  0
LINE
  5
1AA
  8
0
 62
     7
 10
2075.313459999999
 20
33.28921872707588
 30
0.0
 11
2075.313459999999
 21
160.2893187270761
 31
0.0
  0
LINE
  5
1AB
  8
0
 62
     7
 10
2075.313459999999
 20
160.2893187270761
 30
0.0
 11
2072.773459999999
 21
162.829318727076
 31
0.0
  0
LINE
  5
1AC
  8
0
 62
     7
 10
2072.773459999999
 20
162.829318727076
 30
0.0
 11
2076.313459999999
 21
160.2893187270761
 31
0.0
  0
LINE
  5
1AD
  8
0
 62
     7
 10
2076.313459999999
 20
160.2893187270761
 30
0.0
 11
2075.313459999999
 21
160.2893187270761
 31
0.0
  0
LINE
  5
1AE
  8
0
 62
     7
 10
2075.313459999999
 20
160.2893187270761
 30
0.0
 11
2094.113449999999
 21
160.2893187270761
 31
0.0
  0
LINE
  5
1AF
  8
0
 62
     7
 10
2094.113449999999
 20
160.2893187270761
 30
0.0
 11
2094.113449999999
 21
293.6392187270762
 31
0.0
  0
LINE
  5
1B0
  8
0
 62
     7
 10
2094.113449999999
 20
293.6392187270762
 30
0.0
 11
1599.563499999999
 21
293.6392187270762
 31
0.0
  0
LINE
  5
1B1
  8
0
 62
     7
 10
555.7499799999995
 20
295.7686287270762
 30
0.0
 11
555.7499999999994
 21
162.4187287270761
 31
0.0
  0
LINE
  5
1B2
  8
0
 62
     7
 10
555.7499999999994
 20
162.4187287270761
 30
0.0
 11
573.5499899999994
 21
162.4187287270761
 31
0.0
  0
LINE
  5
1B3
  8
0
 62
     7
 10
573.5499899999994
 20
162.4187287270761
 30
0.0
 11
577.0899899999994
 21
164.958728727076
 31
0.0
  0
LINE
  5
1B4
  8
0
 62
     7
 10
577.0899899999994
 20
164.958728727076
 30
0.0
 11
574.5499899999994
 21
162.4187287270761
 31
0.0
  0
LINE
  5
1B5
  8
0
 62
     7
 10
574.5499899999994
 20
162.4187287270761
 30
0.0
 11
574.5499899999994
 21
35.41862872707588
 31
0.0
  0
LINE
  5
1B6
  8
0
 62
     7
 10
574.5499899999994
 20
35.41862872707588
 30
0.0
 11
796.7999899999994
 21
35.41862872707588
 31
0.0
  0
LINE
  5
1B7
  8
0
 62
     7
 10
796.7999899999994
 20
35.41862872707588
 30
0.0
 11
796.7999899999994
 21
162.4187287270761
 31
0.0
  0
LINE
  5
1B8
  8
0
 62
     7
 10
796.7999899999994
 20
162.4187287270761
 30
0.0
 11
794.2599899999994
 21
164.958728727076
 31
0.0
  0
LINE
  5
1B9
  8
0
 62
     7
 10
794.2599899999994
 20
164.958728727076
 30
0.0
 11
797.7999899999994
 21
162.4187287270761
 31
0.0
  0
LINE
  5
1BA
  8
0
 62
     7
 10
797.7999899999994
 20
162.4187287270761
 30
0.0
 11
808.2499999999994
 21
162.4187287270761
 31
0.0
  0
LINE
  5
1BB
  8
0
 62
     7
 10
808.2499999999994
 20
162.4187287270761
 30
0.0
 11
811.7899999999994
 21
164.958728727076
 31
0.0
  0
LINE
  5
1BC
  8
0
 62
     7
 10
811.7899999999994
 20
164.958728727076
 30
0.0
 11
809.2499999999994
 21
162.4187287270761
 31
0.0
  0
LINE
  5
1BD
  8
0
 62
     7
 10
809.2499999999994
 20
162.4187287270761
 30
0.0
 11
809.2499999999994
 21
35.41862872707588
 31
0.0
  0
LINE
  5
1BE
  8
0
 62
     7
 10
809.2499999999994
 20
35.41862872707588
 30
0.0
 11
1031.499999999999
 21
35.41862872707588
 31
0.0
  0
LINE
  5
1BF
  8
0
 62
     7
 10
1031.499999999999
 20
35.41862872707588
 30
0.0
 11
1031.499999999999
 21
162.4187287270761
 31
0.0
  0
LINE
  5
1C0
  8
0
 62
     7
 10
1031.499999999999
 20
162.4187287270761
 30
0.0
 11
1028.959999999999
 21
164.958728727076
 31
0.0
  0
LINE
  5
1C1
  8
0
 62
     7
 10
1028.959999999999
 20
164.958728727076
 30
0.0
 11
1032.499999999999
 21
162.4187287270761
 31
0.0
  0
LINE
  5
1C2
  8
0
 62
     7
 10
1032.499999999999
 20
162.4187287270761
 30
0.0
 11
1031.499999999999
 21
162.4187287270761
 31
0.0
  0
LINE
  5
1C3
  8
0
 62
     7
 10
1031.499999999999
 20
162.4187287270761
 30
0.0
 11
1050.299999999999
 21
162.4187287270761
 31
0.0
  0
LINE
  5
1C4
  8
0
 62
     7
 10
1050.299999999999
 20
162.4187287270761
 30
0.0
 11
1050.299999999999
 21
295.768618727076
 31
0.0
  0
LINE
  5
1C5
  8
0
 62
     7
 10
1050.299999999999
 20
295.768618727076
 30
0.0
 11
555.7499799999995
 21
295.7686287270762
 31
0.0
  0
LINE
  5
1C6
  8
0
 62
     7
 10
2386.536999999999
 20
568.9399377270761
 30
0.0
 11
2253.1871
 21
568.9399177270761
 31
0.0
  0
LINE
  5
1C7
  8
0
 62
     7
 10
2253.1871
 20
568.9399177270761
 30
0.0
 11
2253.1871
 21
551.1399277270762
 31
0.0
  0
LINE
  5
1C8
  8
0
 62
     7
 10
2253.1871
 20
551.1399277270762
 30
0.0
 11
2255.7271
 21
547.5999277270762
 31
0.0
  0
LINE
  5
1C9
  8
0
 62
     7
 10
2255.7271
 20
547.5999277270762
 30
0.0
 11
2253.1871
 21
550.1399277270762
 31
0.0
  0
LINE
  5
1CA
  8
0
 62
     7
 10
2253.1871
 20
550.1399277270762
 30
0.0
 11
2126.186999999999
 21
550.1399277270762
 31
0.0
  0
LINE
  5
1CB
  8
0
 62
     7
 10
2126.186999999999
 20
550.1399277270762
 30
0.0
 11
2126.186999999999
 21
327.8899277270762
 31
0.0
  0
LINE
  5
1CC
  8
0
 62
     7
 10
2126.186999999999
 20
327.8899277270762
 30
0.0
 11
2253.1871
 21
327.8899277270762
 31
0.0
  0
LINE
  5
1CD
  8
0
 62
     7
 10
2253.1871
 20
327.8899277270762
 30
0.0
 11
2255.7271
 21
330.4299277270761
 31
0.0
  0
LINE
  5
1CE
  8
0
 62
     7
 10
2255.7271
 20
330.4299277270761
 30
0.0
 11
2253.1871
 21
326.8899277270762
 31
0.0
  0
LINE
  5
1CF
  8
0
 62
     7
 10
2253.1871
 20
326.8899277270762
 30
0.0
 11
2253.1871
 21
316.4399177270761
 31
0.0
  0
LINE
  5
1D0
  8
0
 62
     7
 10
2253.1871
 20
316.4399177270761
 30
0.0
 11
2255.7271
 21
312.8999177270762
 31
0.0
  0
LINE
  5
1D1
  8
0
 62
     7
 10
2255.7271
 20
312.8999177270762
 30
0.0
 11
2253.1871
 21
315.4399177270761
 31
0.0
  0
LINE
  5
1D2
  8
0
 62
     7
 10
2253.1871
 20
315.4399177270761
 30
0.0
 11
2126.186999999999
 21
315.4399177270761
 31
0.0
  0
LINE
  5
1D3
  8
0
 62
     7
 10
2126.186999999999
 20
315.4399177270761
 30
0.0
 11
2126.186999999999
 21
93.18991772707614
 31
0.0
  0
LINE
  5
1D4
  8
0
 62
     7
 10
2126.186999999999
 20
93.18991772707614
 30
0.0
 11
2253.1871
 21
93.18991772707614
 31
0.0
  0
LINE
  5
1D5
  8
0
 62
     7
 10
2253.1871
 20
93.18991772707614
 30
0.0
 11
2255.7271
 21
95.7299177270761
 31
0.0
  0
LINE
  5
1D6
  8
0
 62
     7
 10
2255.7271
 20
95.7299177270761
 30
0.0
 11
2253.1871
 21
92.18991772707614
 31
0.0
  0
LINE
  5
1D7
  8
0
 62
     7
 10
2253.1871
 20
92.18991772707614
 30
0.0
 11
2253.1871
 21
93.18991772707614
 31
0.0
  0
LINE
  5
1D8
  8
0
 62
     7
 10
2253.1871
 20
93.18991772707614
 30
0.0
 11
2253.1871
 21
74.38991772707595
 31
0.0
  0
LINE
  5
1D9
  8
0
 62
     7
 10
2253.1871
 20
74.38991772707595
 30
0.0
 11
2386.536999999999
 21
74.38991772707595
 31
0.0
  0
LINE
  5
1DA
  8
0
 62
     7
 10
2386.536999999999
 20
74.38991772707595
 30
0.0
 11
2386.536999999999
 21
568.9399377270761
 31
0.0
  0
LINE
  5
1DB
  8
0
 62
     7
 10
1072.849999999999
 20
295.7686287270762
 30
0.0
 11
1072.849999999999
 21
162.4187287270761
 31
0.0
  0
LINE
  5
1DC
  8
0
 62
     7
 10
1072.849999999999
 20
162.4187287270761
 30
0.0
 11
1090.649999999999
 21
162.4187287270761
 31
0.0
  0
LINE
  5
1DD
  8
0
 62
     7
 10
1090.649999999999
 20
162.4187287270761
 30
0.0
 11
1094.189999999999
 21
164.958728727076
 31
0.0
  0
LINE
  5
1DE
  8
0
 62
     7
 10
1094.189999999999
 20
164.958728727076
 30
0.0
 11
1091.649999999999
 21
162.4187287270761
 31
0.0
  0
LINE
  5
1DF
  8
0
 62
     7
 10
1091.649999999999
 20
162.4187287270761
 30
0.0
 11
1091.649999999999
 21
35.41862872707588
 31
0.0
  0
LINE
  5
1E0
  8
0
 62
     7
 10
1091.649999999999
 20
35.41862872707588
 30
0.0
 11
1313.899999999999
 21
35.41862872707588
 31
0.0
  0
LINE
  5
1E1
  8
0
 62
     7
 10
1313.899999999999
 20
35.41862872707588
 30
0.0
 11
1313.899999999999
 21
162.4187287270761
 31
0.0
  0
LINE
  5
1E2
  8
0
 62
     7
 10
1313.899999999999
 20
162.4187287270761
 30
0.0
 11
1311.359999999999
 21
164.958728727076
 31
0.0
  0
LINE
  5
1E3
  8
0
 62
     7
 10
1311.359999999999
 20
164.958728727076
 30
0.0
 11
1314.899999999999
 21
162.4187287270761
 31
0.0
  0
LINE
  5
1E4
  8
0
 62
     7
 10
1314.899999999999
 20
162.4187287270761
 30
0.0
 11
1325.349999999999
 21
162.4187287270761
 31
0.0
  0
LINE
  5
1E5
  8
0
 62
     7
 10
1325.349999999999
 20
162.4187287270761
 30
0.0
 11
1328.889999999999
 21
164.958728727076
 31
0.0
  0
LINE
  5
1E6
  8
0
 62
     7
 10
1328.889999999999
 20
164.958728727076
 30
0.0
 11
1326.349999999999
 21
162.4187287270761
 31
0.0
  0
LINE
  5
1E7
  8
0
 62
     7
 10
1326.349999999999
 20
162.4187287270761
 30
0.0
 11
1326.349999999999
 21
35.41862872707588
 31
0.0
  0
LINE
  5
1E8
  8
0
 62
     7
 10
1326.349999999999
 20
35.41862872707588
 30
0.0
 11
1548.599999999999
 21
35.41862872707588
 31
0.0
  0
LINE
  5
1E9
  8
0
 62
     7
 10
1548.599999999999
 20
35.41862872707588
 30
0.0
 11
1548.599999999999
 21
162.4187287270761
 31
0.0
  0
LINE
  5
1EA
  8
0
 62
     7
 10
1548.599999999999
 20
162.4187287270761
 30
0.0
 11
1546.059999999999
 21
164.958728727076
 31
0.0
  0
LINE
  5
1EB
  8
0
 62
     7
 10
1546.059999999999
 20
164.958728727076
 30
0.0
 11
1549.599999999999
 21
162.4187287270761
 31
0.0
  0
LINE
  5
1EC
  8
0
 62
     7
 10
1549.599999999999
 20
162.4187287270761
 30
0.0
 11
1548.599999999999
 21
162.4187287270761
 31
0.0
  0
LINE
  5
1ED
  8
0
 62
     7
 10
1548.599999999999
 20
162.4187287270761
 30
0.0
 11
1567.399999999999
 21
162.4187287270761
 31
0.0
  0
LINE
  5
1EE
  8
0
 62
     7
 10
1567.399999999999
 20
162.4187287270761
 30
0.0
 11
1567.399999999999
 21
295.768618727076
 31
0.0
  0
LINE
  5
1EF
  8
0
 62
     7
 10
1567.399999999999
 20
295.768618727076
 30
0.0
 11
1072.849999999999
 21
295.7686287270762
 31
0.0
  0
LINE
  5
1F0
  8
0
 62
     7
 10
2327.7864
 20
1161.665228727076
 30
0.0
 11
2194.436499999999
 21
1161.665228727076
 31
0.0
  0
LINE
  5
1F1
  8
0
 62
     7
 10
2194.436499999999
 20
1161.665228727076
 30
0.0
 11
2194.436499999999
 21
1143.865228727076
 31
0.0
  0
LINE
  5
1F2
  8
0
 62
     7
 10
2194.436499999999
 20
1143.865228727076
 30
0.0
 11
2196.9765
 21
1140.325228727076
 31
0.0
  0
LINE
  5
1F3
  8
0
 62
     7
 10
2196.9765
 20
1140.325228727076
 30
0.0
 11
2194.436499999999
 21
1142.865228727076
 31
0.0
  0
LINE
  5
1F4
  8
0
 62
     7
 10
2194.436499999999
 20
1142.865228727076
 30
0.0
 11
2067.4364
 21
1142.865228727076
 31
0.0
  0
LINE
  5
1F5
  8
0
 62
     7
 10
2067.4364
 20
1142.865228727076
 30
0.0
 11
2067.4364
 21
920.6152287270761
 31
0.0
  0
LINE
  5
1F6
  8
0
 62
     7
 10
2067.4364
 20
920.6152287270761
 30
0.0
 11
2194.436499999999
 21
920.6152287270761
 31
0.0
  0
LINE
  5
1F7
  8
0
 62
     7
 10
2194.436499999999
 20
920.6152287270761
 30
0.0
 11
2196.9765
 21
923.1552287270761
 31
0.0
  0
LINE
  5
1F8
  8
0
 62
     7
 10
2196.9765
 20
923.1552287270761
 30
0.0
 11
2194.436499999999
 21
919.6152287270761
 31
0.0
  0
LINE
  5
1F9
  8
0
 62
     7
 10
2194.436499999999
 20
919.6152287270761
 30
0.0
 11
2194.436499999999
 21
909.1652287270763
 31
0.0
  0
LINE
  5
1FA
  8
0
 62
     7
 10
2194.436499999999
 20
909.1652287270763
 30
0.0
 11
2196.9765
 21
905.6252287270759
 31
0.0
  0
LINE
  5
1FB
  8
0
 62
     7
 10
2196.9765
 20
905.6252287270759
 30
0.0
 11
2194.436499999999
 21
908.1652287270763
 31
0.0
  0
LINE
  5
1FC
  8
0
 62
     7
 10
2194.436499999999
 20
908.1652287270763
 30
0.0
 11
2067.4364
 21
908.1652287270763
 31
0.0
  0
LINE
  5
1FD
  8
0
 62
     7
 10
2067.4364
 20
908.1652287270763
 30
0.0
 11
2067.4364
 21
685.9152287270763
 31
0.0
  0
LINE
  5
1FE
  8
0
 62
     7
 10
2067.4364
 20
685.9152287270763
 30
0.0
 11
2194.436499999999
 21
685.9152287270763
 31
0.0
  0
LINE
  5
1FF
  8
0
 62
     7
 10
2194.436499999999
 20
685.9152287270763
 30
0.0
 11
2196.9765
 21
688.4552287270762
 31
0.0
  0
LINE
  5
200
  8
0
 62
     7
 10
2196.9765
 20
688.4552287270762
 30
0.0
 11
2194.436499999999
 21
684.9152287270763
 31
0.0
  0
LINE
  5
201
  8
0
 62
     7
 10
2194.436499999999
 20
684.9152287270763
 30
0.0
 11
2194.436499999999
 21
685.9152287270763
 31
0.0
  0
LINE
  5
202
  8
0
 62
     7
 10
2194.436499999999
 20
685.9152287270763
 30
0.0
 11
2194.436499999999
 21
667.1152287270761
 31
0.0
  0
LINE
  5
203
  8
0
 62
     7
 10
2194.436499999999
 20
667.1152287270761
 30
0.0
 11
2327.7864
 21
667.1152287270761
 31
0.0
  0
LINE
  5
204
  8
0
 62
     7
 10
2327.7864
 20
667.1152287270761
 30
0.0
 11
2327.7864
 21
1161.665228727076
 31
0.0
  0
ENDSEC
  0
EOF
