  0
SECTION
  2
HEADER
  9
$ACADVER
  1
AC1012
  9
$DWGCODEPAGE
  3
ansi_1252
  9
$INSBASE
 10
0.0
 20
0.0
 30
0.0
  9
$EXTMIN
 10
0.0
 20
0.0
 30
0.0
  9
$EXTMAX
 10
395.111111
 20
554.3723153201547
 30
0.0
  9
$LIMMIN
 10
0.0
 20
0.0
  9
$LIMMAX
 10
12.0
 20
9.0
  9
$ORTHOMODE
 70
     0
  9
$REGENMODE
 70
     1
  9
$FILLMODE
 70
     1
  9
$QTEXTMODE
 70
     0
  9
$MIRRTEXT
 70
     1
  9
$DRAGMODE
 70
     2
  9
$LTSCALE
 40
1.0
  9
$OSMODE
 70
   511
  9
$ATTMODE
 70
     1
  9
$TEXTSIZE
 40
20.0
  9
$TRACEWID
 40
0.05
  9
$TEXTSTYLE
  7
STANDARD
  9
$CLAYER
  8
TEXT
  9
$CELTYPE
  6
BYBLOCK
  9
$CECOLOR
 62
   256
  9
$CELTSCALE
 40
1.0
  9
$DELOBJ
 70
     1
  9
$DISPSILH
 70
     0
  9
$DIMSCALE
 40
1.0
  9
$DIMASZ
 40
0.18
  9
$DIMEXO
 40
0.0625
  9
$DIMDLI
 40
0.38
  9
$DIMRND
 40
0.0
  9
$DIMDLE
 40
0.0
  9
$DIMEXE
 40
0.18
  9
$DIMTP
 40
0.0
  9
$DIMTM
 40
0.0
  9
$DIMTXT
 40
0.18
  9
$DIMCEN
 40
0.09
  9
$DIMTSZ
 40
0.0
  9
$DIMTOL
 70
     0
  9
$DIMLIM
 70
     0
  9
$DIMTIH
 70
     1
  9
$DIMTOH
 70
     1
  9
$DIMSE1
 70
     0
  9
$DIMSE2
 70
     0
  9
$DIMTAD
 70
     0
  9
$DIMZIN
 70
     0
  9
$DIMBLK
  1

  9
$DIMASO
 70
     1
  9
$DIMSHO
 70
     1
  9
$DIMPOST
  1

  9
$DIMAPOST
  1

  9
$DIMALT
 70
     0
  9
$DIMALTD
 70
     2
  9
$DIMALTF
 40
25.4
  9
$DIMLFAC
 40
1.0
  9
$DIMTOFL
 70
     0
  9
$DIMTVP
 40
0.0
  9
$DIMTIX
 70
     0
  9
$DIMSOXD
 70
     0
  9
$DIMSAH
 70
     0
  9
$DIMBLK1
  1

  9
$DIMBLK2
  1

  9
$DIMSTYLE
  2
ISO-25
  9
$DIMCLRD
 70
     0
  9
$DIMCLRE
 70
     0
  9
$DIMCLRT
 70
     0
  9
$DIMTFAC
 40
1.0
  9
$DIMGAP
 40
0.09
  9
$DIMJUST
 70
     0
  9
$DIMSD1
 70
     0
  9
$DIMSD2
 70
     0
  9
$DIMTOLJ
 70
     1
  9
$DIMTZIN
 70
     0
  9
$DIMALTZ
 70
     0
  9
$DIMALTTZ
 70
     0
  9
$DIMFIT
 70
     5
  9
$DIMUPT
 70
     0
  9
$DIMUNIT
 70
     2
  9
$DIMDEC
 70
     4
  9
$DIMTDEC
 70
     4
  9
$DIMALTU
 70
     2
  9
$DIMALTTD
 70
     2
  9
$DIMTXSTY
  7
STANDARD
  9
$DIMAUNIT
 70
     0
  9
$LUNITS
 70
     2
  9
$LUPREC
 70
     4
  9
$SKETCHINC
 40
0.1
  9
$FILLETRAD
 40
0.5
  9
$AUNITS
 70
     0
  9
$AUPREC
 70
     0
  9
$MENU
  1
.
  9
$ELEVATION
 40
0.0
  9
$PELEVATION
 40
0.0
  9
$THICKNESS
 40
0.0
  9
$LIMCHECK
 70
     0
  9
$CHAMFERA
 40
0.0
  9
$CHAMFERB
 40
0.0
  9
$CHAMFERC
 40
0.0
  9
$CHAMFERD
 40
0.0
  9
$SKPOLY
 70
     0
  9
$TDCREATE
 40
0.0
  9
$TDUPDATE
 40
2456828.898784711
  9
$TDINDWG
 40
0.0
  9
$TDUSRTIMER
 40
2456829.098912037
  9
$USRTIMER
 70
     1
  9
$ANGBASE
 50
0.0
  9
$ANGDIR
 70
     0
  9
$PDMODE
 70
     0
  9
$PDSIZE
 40
0.0
  9
$PLINEWID
 40
0.0
  9
$COORDS
 70
     1
  9
$SPLFRAME
 70
     0
  9
$SPLINETYPE
 70
     6
  9
$SPLINESEGS
 70
     8
  9
$ATTDIA
 70
     0
  9
$ATTREQ
 70
     1
  9
$HANDLING
 70
     1
  9
$HANDSEED
  5
10288
  9
$SURFTAB1
 70
     6
  9
$SURFTAB2
 70
     6
  9
$SURFTYPE
 70
     6
  9
$SURFU
 70
     6
  9
$SURFV
 70
     6
  9
$UCSNAME
  2

  9
$UCSORG
 10
0.0
 20
0.0
 30
0.0
  9
$UCSXDIR
 10
1.0
 20
0.0
 30
0.0
  9
$UCSYDIR
 10
0.0
 20
1.0
 30
0.0
  9
$PUCSNAME
  2

  9
$PUCSORG
 10
0.0
 20
0.0
 30
0.0
  9
$PUCSXDIR
 10
1.0
 20
0.0
 30
0.0
  9
$PUCSYDIR
 10
0.0
 20
1.0
 30
0.0
  9
$USERI1
 70
     0
  9
$USERI2
 70
     0
  9
$USERI3
 70
     0
  9
$USERI4
 70
     0
  9
$USERI5
 70
     0
  9
$USERR1
 40
0.0
  9
$USERR2
 40
0.0
  9
$USERR3
 40
0.0
  9
$USERR4
 40
0.0
  9
$USERR5
 40
0.0
  9
$WORLDVIEW
 70
     1
  9
$SHADEDGE
 70
     3
  9
$SHADEDIF
 70
    70
  9
$TILEMODE
 70
     1
  9
$MAXACTVP
 70
    64
  9
$PINSBASE
 10
0.0
 20
0.0
 30
0.0
  9
$PLIMCHECK
 70
     0
  9
$PEXTMIN
 10
1.000000000000000E+20
 20
1.000000000000000E+20
 30
1.000000000000000E+20
  9
$PEXTMAX
 10
-1.000000000000000E+20
 20
-1.000000000000000E+20
 30
-1.000000000000000E+20
  9
$PLIMMIN
 10
0.0
 20
0.0
  9
$PLIMMAX
 10
0.0
 20
0.0
  9
$UNITMODE
 70
     0
  9
$VISRETAIN
 70
     1
  9
$PLINEGEN
 70
     0
  9
$PSLTSCALE
 70
     1
  9
$TREEDEPTH
 70
  3020
  9
$PICKSTYLE
 70
     1
  9
$CMLSTYLE
  2

  9
$CMLJUST
 70
     0
  9
$CMLSCALE
 40
1.0
  9
$SAVEIMAGES
 70
     1
  0
ENDSEC
  0
SECTION
  2
CLASSES
  0
CLASS
  1
SCALE
  2
AcDbScale
  3
ObjectDBX Classes
 90
     1153
280
     0
281
     0
  0
CLASS
  1
VISUALSTYLE
  2
AcDbVisualStyle
  3
ObjectDBX Classes
 90
     4095
280
     0
281
     0
  0
CLASS
  1
MATERIAL
  2
AcDbMaterial
  3
ObjectDBX Classes
 90
     1153
280
     0
281
     0
  0
CLASS
  1
TABLESTYLE
  2
AcDbTableStyle
  3
ObjectDBX Classes
 90
     4095
280
     0
281
     0
  0
CLASS
  1
SUN
  2
AcDbSun
  3
SCENEOE
 90
     1153
280
     0
281
     0
  0
CLASS
  1
RASTERVARIABLES
  2
AcDbRasterVariables
  3
ISM
 90
    32768
280
     0
281
     0
  0
CLASS
  1
DICTIONARYVAR
  2
AcDbDictionaryVar
  3
ObjectDBX Classes
 90
        0
280
     0
281
     0
  0
CLASS
  1
XRECORD
  2
AcDbXrecord
  3
ObjectDBX Classes
 90
    32768
280
     0
281
     0
  0
ENDSEC
  0
SECTION
  2
TABLES
  0
TABLE
  2
VPORT
  5
8
330
0
100
AcDbSymbolTable
 70
     1
  0
VPORT
  5
2E
330
8
100
AcDbSymbolTableRecord
100
AcDbViewportTableRecord
  2
*ACTIVE
 70
     0
 10
0.0
 20
0.0
 11
1.0
 21
1.0
 12
36.01583207978729
 22
797.4320765169974
 13
0.0
 23
0.0
 14
10.0
 24
10.0
 15
10.0
 25
10.0
 16
0.0
 26
0.0
 36
1.0
 17
0.0
 27
0.0
 37
0.0
 40
1281.555985982438
 41
2.707692307692308
 42
50.0
 43
0.0
 44
0.0
 50
0.0
 51
0.0
 71
    16
 72
   100
 73
     1
 74
     3
 75
     0
 76
     0
 77
     0
 78
     0
  0
ENDTAB
  0
TABLE
  2
LTYPE
  5
5
330
0
100
AcDbSymbolTable
 70
     1
  0
LTYPE
  5
14
330
5
100
AcDbSymbolTableRecord
100
AcDbLinetypeTableRecord
  2
BYBLOCK
 70
     0
  3

 72
    65
 73
     0
 40
0.0
  0
LTYPE
  5
15
330
5
100
AcDbSymbolTableRecord
100
AcDbLinetypeTableRecord
  2
BYLAYER
 70
     0
  3

 72
    65
 73
     0
 40
0.0
  0
LTYPE
  5
16
330
5
100
AcDbSymbolTableRecord
100
AcDbLinetypeTableRecord
  2
CONTINUOUS
 70
     0
  3
Solid line
 72
    65
 73
     0
 40
0.0
  0
ENDTAB
  0
TABLE
  2
LAYER
  5
2
102
{ACAD_XDICTIONARY
360
1020A
102
}
330
0
100
AcDbSymbolTable
 70
     4
  0
LAYER
  5
50
330
2
100
AcDbSymbolTableRecord
100
AcDbLayerTableRecord
  2
0
 70
     0
 62
     7
  6
CONTINUOUS
  0
LAYER
  5
51
330
2
100
AcDbSymbolTableRecord
100
AcDbLayerTableRecord
  2
LAYER_1
 70
     0
 62
     7
  6
CONTINUOUS
  0
LAYER
  5
1020D
330
2
100
AcDbSymbolTableRecord
100
AcDbLayerTableRecord
  2
HOLES
 70
     0
 62
     1
  6
CONTINUOUS
1001
ACAECLAYERSTANDARD
1000

1000

  0
LAYER
  5
10214
330
2
100
AcDbSymbolTableRecord
100
AcDbLayerTableRecord
  2
TEXT
 70
     0
 62
     3
  6
CONTINUOUS
1001
ACAECLAYERSTANDARD
1000

1000

  0
ENDTAB
  0
TABLE
  2
STYLE
  5
3
330
0
100
AcDbSymbolTable
 70
     1
  0
STYLE
  5
11
330
3
100
AcDbSymbolTableRecord
100
AcDbTextStyleTableRecord
  2
STANDARD
 70
     0
 40
0.0
 41
1.0
 50
0.0
 71
     0
 42
20.0
  3
txt
  4

  0
ENDTAB
  0
TABLE
  2
VIEW
  5
6
330
0
100
AcDbSymbolTable
 70
     0
  0
ENDTAB
  0
TABLE
  2
UCS
  5
7
330
0
100
AcDbSymbolTable
 70
     0
  0
ENDTAB
  0
TABLE
  2
APPID
  5
9
330
0
100
AcDbSymbolTable
 70
     2
  0
APPID
  5
12
330
9
100
AcDbSymbolTableRecord
100
AcDbRegAppTableRecord
  2
ACAD
 70
     0
  0
APPID
  5
1020E
330
9
100
AcDbSymbolTableRecord
100
AcDbRegAppTableRecord
  2
ACAECLAYERSTANDARD
 70
     0
  0
ENDTAB
  0
TABLE
  2
DIMSTYLE
  5
A
330
0
100
AcDbSymbolTable
 70
     1
  0
DIMSTYLE
105
27
330
A
100
AcDbSymbolTableRecord
100
AcDbDimStyleTableRecord
  2
ISO-25
 70
     0
  3

  4

  5

  6

  7

 40
1.0
 41
2.5
 42
0.625
 43
3.75
 44
1.25
 45
0.0
 46
0.0
 47
0.0
 48
0.0
140
2.5
141
2.5
142
0.0
143
0.03937007874016
144
1.0
145
0.0
146
1.0
147
0.625
 71
     0
 72
     0
 73
     0
 74
     0
 75
     0
 76
     0
 77
     1
 78
     8
170
     0
171
     3
172
     1
173
     0
174
     0
175
     0
176
     0
177
     0
178
     0
270
     2
271
     2
272
     2
273
     2
274
     3
340
11
275
     0
280
     0
281
     0
282
     0
283
     0
284
     8
285
     0
286
     0
287
     3
288
     0
  0
ENDTAB
  0
TABLE
  2
BLOCK_RECORD
  5
1
330
0
100
AcDbSymbolTable
 70
     0
  0
BLOCK_RECORD
  5
1F
330
1
100
AcDbSymbolTableRecord
100
AcDbBlockTableRecord
  2
*MODEL_SPACE
  0
BLOCK_RECORD
  5
1B
330
1
100
AcDbSymbolTableRecord
100
AcDbBlockTableRecord
  2
*PAPER_SPACE
  0
ENDTAB
  0
ENDSEC
  0
SECTION
  2
BLOCKS
  0
BLOCK
  5
20
330
1F
100
AcDbEntity
  8
0
100
AcDbBlockBegin
  2
*MODEL_SPACE
 70
     0
 10
0.0
 20
0.0
 30
0.0
  3
*MODEL_SPACE
  1

  0
ENDBLK
  5
21
330
1F
100
AcDbEntity
  8
0
100
AcDbBlockEnd
  0
BLOCK
  5
1C
330
1B
100
AcDbEntity
 67
     1
  8
0
100
AcDbBlockBegin
  2
*PAPER_SPACE
 70
     0
 10
0.0
 20
0.0
 30
0.0
  3
*PAPER_SPACE
  1

  0
ENDBLK
  5
1D
330
1B
100
AcDbEntity
 67
     1
  8
0
100
AcDbBlockEnd
  0
ENDSEC
  0
SECTION
  2
ENTITIES
  0
LINE
  5
100
330
1F
100
AcDbEntity
  8
LAYER_1
 62
     7
100
AcDbLine
 10
0.0
 20
553.155542
 30
0.0
 11
0.0
 21
0.0
 31
0.0
  0
LINE
  5
101
330
1F
100
AcDbEntity
  8
LAYER_1
 62
     7
100
AcDbLine
 10
0.0
 20
0.0
 30
0.0
 11
395.111111
 21
0.0
 31
0.0
  0
SPLINE
  5
102
330
1F
100
AcDbEntity
  8
LAYER_1
 62
     7
100
AcDbSpline
210
0.0
220
0.0
230
1.0
 70
     8
 71
     3
 72
    43
 73
    39
 74
    37
 42
0.000000001
 43
0.0000000001
 44
0.0000000001
 40
0.0
 40
0.0
 40
0.0
 40
0.0
 40
28.40087926772581
 40
56.80598223260952
 40
85.20686282107974
 40
113.6077419094479
 40
142.0128440306968
 40
170.4137234330112
 40
179.9038704499296
 40
189.3968636941949
 40
198.8856441993022
 40
208.3999961732854
 40
217.8856353284432
 40
227.3348392446959
 40
237.858045365339
 40
248.4181885250321
 40
259.0089332940693
 40
269.5622627553347
 40
280.1335477018681
 40
290.7186573661042
 40
312.0054277572924
 40
333.1716338442639
 40
354.0883414521477
 40
371.6532978445915
 40
389.2716276154026
 40
406.9298095736289
 40
424.5296236190933
 40
442.1668666600435
 40
459.8356455578235
 40
493.05673879314
 40
526.5108670231965
 40
560.1358820246353
 40
593.6543350514387
 40
627.1402599351248
 40
660.5353221348681
 40
721.1632804213489
 40
781.8273391536501
 40
842.4553089342265
 40
842.4553089342265
 40
842.4553089342265
 40
842.4553089342265
 10
0.0
 20
553.155542
 30
0.0
 10
9.464688961141933
 20
553.9180818385205
 30
0.0
 10
28.39547444477235
 20
555.4432749182953
 30
0.0
 10
56.69133768378651
 20
550.9221889293025
 30
0.0
 10
83.66503699776905
 20
541.6013182005902
 30
0.0
 10
108.3326750575924
 20
527.1436710721885
 30
0.0
 10
129.8642973482135
 20
508.387705825362
 30
0.0
 10
143.6151213474068
 20
490.8912430173497
 30
0.0
 10
151.702773705817
 20
477.321452598802
 30
0.0
 10
156.4078773761342
 20
469.0796550825652
 30
0.0
 10
161.318054109722
 20
460.9449805898539
 30
0.0
 10
166.7923677632534
 20
453.1695586146058
 30
0.0
 10
173.0989434052404
 20
446.0519045677336
 30
0.0
 10
180.7212945222936
 20
439.7719691042167
 30
0.0
 10
189.8430257800816
 20
435.0778009332057
 30
0.0
 10
200.0287200580002
 20
432.1099261678467
 30
0.0
 10
210.5516331088861
 20
430.7870061259497
 30
0.0
 10
221.1461286384115
 20
430.8605821918649
 30
0.0
 10
231.6701662900405
 20
431.9580568734717
 30
0.0
 10
245.6189287751877
 20
434.3588572282618
 30
0.0
 10
262.8708951565773
 20
438.2239904841672
 30
0.0
 10
283.731411124168
 20
441.7144988309923
 30
0.0
 10
303.8461104555373
 20
441.365954880015
 30
0.0
 10
321.8939523343929
 20
435.7104432022261
 30
0.0
 10
337.1279980712022
 20
426.5923899726099
 30
0.0
 10
350.0923380419428
 20
414.4610324314149
 30
0.0
 10
360.3399682605446
 20
399.9836620242391
 30
0.0
 10
367.9102048468075
 20
383.9691336264196
 30
0.0
 10
374.4046273202116
 20
361.9887798868406
 30
0.0
 10
376.9344868153283
 20
333.7200426644872
 30
0.0
 10
373.5900491100544
 20
300.3369611184779
 30
0.0
 10
366.2916329895702
 20
267.5659970242029
 30
0.0
 10
357.1509956138815
 20
235.2918313274902
 30
0.0
 10
348.4913301340282
 20
202.9647762267496
 30
0.0
 10
340.7203659280022
 20
161.0580363789997
 30
0.0
 10
342.577688362813
 20
108.9646562301879
 30
0.0
 10
359.7460111850302
 20
49.71076280691713
 30
0.0
 10
383.3250829493049
 20
16.56696709267516
 30
0.0
 10
395.111111
 20
0.0
 30
0.0
 11
0.0
 21
553.155542
 31
0.0
 11
28.377467
 21
554.308499
 31
0.0
 11
56.472341
 21
550.121862
 31
0.0
 11
83.280713
 21
540.745231
 31
0.0
 11
107.808848
 21
526.42809
 31
0.0
 11
129.222182
 21
507.764785
 31
0.0
 11
146.755556
 21
485.422208
 31
0.0
 11
151.676531
 21
477.307598
 31
0.0
 11
156.442073
 21
469.09745
 31
0.0
 11
161.407681
 21
461.011679
 31
0.0
 11
166.938537
 21
453.270069
 31
0.0
 11
173.283195
 21
446.218639
 31
0.0
 11
180.622222
 21
440.266653
 31
0.0
 11
189.95187
 21
435.398847
 31
0.0
 11
200.073348
 21
432.38682
 31
0.0
 11
210.575406
 21
431.019102
 31
0.0
 11
221.128729
 21
431.03078
 31
0.0
 11
231.648458
 21
432.073549
 31
0.0
 11
242.090025
 21
433.810853
 31
0.0
 11
262.951873
 21
438.042861
 31
0.0
 11
283.899098
 21
441.079643
 31
0.0
 11
304.8
 21
440.266653
 31
0.0
 11
321.583793
 21
435.086693
 31
0.0
 11
336.737132
 21
426.09882
 31
0.0
 11
349.651659
 21
414.05613
 31
0.0
 11
359.887514
 21
399.738982
 31
0.0
 11
367.479981
 21
383.819598
 31
0.0
 11
372.533333
 21
366.888875
 31
0.0
 11
375.879082
 21
333.836689
 31
0.0
 11
372.941611
 21
300.511774
 31
0.0
 11
365.976013
 21
267.61615
 31
0.0
 11
357.224878
 21
235.260249
 31
0.0
 11
348.907794
 21
202.823645
 31
0.0
 11
343.245355
 21
169.912143
 31
0.0
 11
345.073352
 21
109.311749
 31
0.0
 11
362.784319
 21
51.290635
 31
0.0
 11
395.111111
 21
0.0
 31
0.0
  0
LINE
  5
10117
330
1F
100
AcDbEntity
  8
LAYER_1
 62
     7
100
AcDbLine
 10
822.7488954595606
 20
575.0550265866397
 30
0.0
 11
822.7488954595606
 21
1128.21056858664
 31
0.0
  0
LINE
  5
10118
330
1F
100
AcDbEntity
  8
LAYER_1
 62
     7
100
AcDbLine
 10
822.7488954595606
 20
1128.21056858664
 30
0.0
 11
427.6377844595606
 21
1128.21056858664
 31
0.0
  0
SPLINE
  5
10119
330
1F
100
AcDbEntity
  8
LAYER_1
 62
     7
100
AcDbSpline
210
0.0
220
0.0
230
1.0
 70
     8
 71
     3
 72
    40
 73
    36
 74
    34
 42
0.000000001
 43
0.0000000001
 44
0.0000000001
 40
0.0
 40
0.0
 40
0.0
 40
0.0
 40
35.87069505691196
 40
71.74226459959402
 40
107.6129595807029
 40
156.8929386389638
 40
206.2578168798243
 40
255.6958928929606
 40
275.3011713677284
 40
294.8805408967299
 40
314.4022417760215
 40
324.1939226536575
 40
333.9768475926366
 40
343.7497828711037
 40
353.5402649045631
 40
363.3180445677997
 40
373.0809844015377
 40
387.4167071474233
 40
401.8009959597828
 40
416.2228926221651
 40
430.5919887225393
 40
444.993120366448
 40
459.4215039843681
 40
488.0788219515322
 40
516.9236053018677
 40
545.85602859334
 40
598.807425715563
 40
651.6848627224774
 40
704.4767698667301
 40
757.4121244417619
 40
810.2455139105847
 40
862.9528664967511
 40
892.4916164821236
 40
922.0311586956979
 40
951.5699089352024
 40
951.5699089352024
 40
951.5699089352024
 40
951.5699089352024
 10
822.7488954595606
 20
575.0550265866397
 30
0.0
 10
812.0608773701192
 20
580.4474988151783
 30
0.0
 10
790.6845806298033
 20
591.2325747344487
 30
0.0
 10
756.4541514286568
 20
602.386744708853
 30
0.0
 10
716.8733768049484
 20
610.5583250583672
 30
0.0
 10
671.9000260152058
 20
613.1317779329062
 30
0.0
 10
622.5910282178072
 20
608.8347087298176
 30
0.0
 10
583.8998224159703
 20
600.5536378447251
 30
0.0
 10
555.5464912133269
 20
592.266688553746
 30
0.0
 10
536.6334718548396
 20
587.2238922584339
 30
0.0
 10
520.528936517521
 20
584.4304028666015
 30
0.0
 10
507.5016134548923
 20
583.7020996322586
 30
0.0
 10
497.7093951182007
 20
584.0652530940525
 30
0.0
 10
488.0089057545548
 20
585.4926750600988
 30
0.0
 10
478.5635672872843
 20
588.1422752696741
 30
0.0
 10
469.5815695287221
 20
592.0941073209415
 30
0.0
 10
460.0398550914929
 20
598.2295356714284
 30
0.0
 10
450.91908530632
 20
607.4512345067935
 30
0.0
 10
443.3646813904032
 20
619.8155685781484
 30
0.0
 10
438.4931541950675
 20
633.4601268698839
 30
0.0
 10
436.3043173831815
 20
647.7658340079056
 30
0.0
 10
436.4289218487265
 20
662.2168078982986
 30
0.0
 10
439.2210605962659
 20
681.2260441483094
 30
0.0
 10
446.7887982989599
 20
704.1418411456922
 30
0.0
 10
459.4020963195983
 20
730.0654538149149
 30
0.0
 10
476.8108256887733
 20
762.6109690898336
 30
0.0
 10
494.8180088178126
 20
803.8808186712574
 30
0.0
 10
509.9285135635574
 20
854.7030459411214
 30
0.0
 10
517.7383508182536
 20
907.2023952200904
 30
0.0
 10
516.786083777448
 20
960.3160835212115
 30
0.0
 10
506.3744721122046
 20
1012.406976032481
 30
0.0
 10
488.8262240894501
 20
1054.293350344505
 30
0.0
 10
468.5649670826895
 20
1085.645831835368
 30
0.0
 10
449.7405067785809
 20
1108.557793629894
 30
0.0
 10
435.0052927215951
 20
1121.659702146938
 30
0.0
 10
427.6377844595606
 20
1128.21056858664
 30
0.0
 11
822.7488954595606
 21
575.0550265866397
 31
0.0
 11
790.3238294595606
 21
590.3952305866395
 31
0.0
 11
756.2930704595606
 21
601.7388165866395
 31
0.0
 11
721.1488954595607
 21
608.9216935866397
 31
0.0
 11
671.9617294595605
 21
611.9447775866396
 31
0.0
 11
622.7688424595606
 21
607.8276095866396
 31
0.0
 11
574.3933394595606
 21
597.6328035866396
 31
0.0
 11
555.5163264595606
 21
592.3389085866396
 31
0.0
 11
536.5440894595606
 21
587.5009405866398
 31
0.0
 11
517.2742714595606
 21
584.3750935866395
 31
0.0
 11
507.4964774595605
 21
583.8537885866398
 31
0.0
 11
497.7212924595606
 21
584.2428625866395
 31
0.0
 11
488.0568774595606
 21
585.6952215866396
 31
0.0
 11
478.6363204595605
 21
588.3610505866396
 31
0.0
 11
469.6972094595606
 21
592.3230285866397
 31
0.0
 11
461.5044514595606
 21
597.6328035866396
 31
0.0
 11
451.3735514595605
 21
607.7756735866395
 31
0.0
 11
443.8185694595606
 21
620.0161805866395
 31
0.0
 11
438.9362124595605
 21
633.5865045866398
 31
0.0
 11
436.6903254595607
 21
647.7789995866397
 31
0.0
 11
436.7574944595606
 21
662.1799745866397
 31
0.0
 11
438.8036244595605
 21
676.4625375866397
 31
0.0
 11
447.3506344595605
 21
703.8156085866397
 31
0.0
 11
459.5519014595607
 21
729.9527585866397
 31
0.0
 11
472.7933394595607
 21
755.6772495866397
 31
0.0
 11
493.8115474595606
 21
804.2785395866397
 31
0.0
 11
508.7189414595605
 21
855.0111025866397
 31
0.0
 11
516.2749794595607
 21
907.2594685866397
 31
0.0
 11
515.2040234595606
 21
960.1839885866398
 31
0.0
 11
504.6678914595605
 21
1011.95615258664
 31
0.0
 11
484.0822284595606
 21
1060.47723558664
 31
0.0
 11
468.1046984595605
 21
1085.32187858664
 31
0.0
 11
449.1939444595605
 21
1108.01478358664
 31
0.0
 11
427.6377844595606
 21
1128.21056858664
 31
0.0
  0
LINE
  5
10142
330
1F
100
AcDbEntity
  8
LAYER_1
 62
     7
100
AcDbLine
 10
822.7488954595606
 20
553.155542
 30
0.0
 11
822.7488954595606
 21
0.000000000000006
 31
0.0
  0
LINE
  5
10143
330
1F
100
AcDbEntity
  8
LAYER_1
 62
     7
100
AcDbLine
 10
822.7488954595606
 20
0.000000000000006
 30
0.0
 11
427.6377844595606
 21
0.000000000000006
 31
0.0
  0
SPLINE
  5
10144
330
1F
100
AcDbEntity
  8
LAYER_1
 62
     7
100
AcDbSpline
210
0.0
220
0.0
230
1.0
 70
     8
 71
     3
 72
    55
 73
    51
 74
    49
 42
0.000000001
 43
0.0000000001
 44
0.0000000001
 40
0.0
 40
0.0
 40
0.0
 40
0.0
 40
10.01331123119271
 40
20.02760414650915
 40
30.04091631629845
 40
40.05422599671259
 40
50.0685201315595
 40
60.08183074595758
 40
71.57153065591176
 40
83.09492559154434
 40
94.64645925418641
 40
106.1653468545366
 40
117.6982115600777
 40
129.2407716316072
 40
140.7800117585788
 40
152.313797335112
 40
163.837865316073
 40
175.3883974919629
 40
186.9146273158163
 40
198.4115814260538
 40
218.9318085780528
 40
239.6118974284991
 40
260.4164365997685
 40
281.0778014664228
 40
301.8036752933623
 40
322.5736288825957
 40
343.3306849306399
 40
364.0602386468167
 40
384.7420584512006
 40
405.5459026205272
 40
426.2377937069679
 40
446.7882138603728
 40
463.9134523301523
 40
481.089429717958
 40
498.305782972704
 40
515.4659393182617
 40
532.6594507995068
 40
549.8815415352248
 40
584.1287022679379
 40
618.5616867740771
 40
653.073101101865
 40
674.2589516794187
 40
695.4255939720267
 40
716.5683191867003
 40
737.7595350879835
 40
758.9121248790086
 40
780.0194279453286
 40
810.0476397153468
 40
840.0907205049199
 40
870.1189327091004
 40
870.1189327091004
 40
870.1189327091004
 40
870.1189327091004
 10
822.7488954595606
 20
553.155542
 30
0.0
 10
819.5195159861516
 20
554.030812377404
 30
0.0
 10
813.0604404377134
 20
555.7814389418922
 30
0.0
 10
802.986546134742
 20
556.2785351975286
 30
0.0
 10
792.9925884540718
 20
555.1955115564449
 30
0.0
 10
783.3314061782871
 20
552.3646763015452
 30
0.0
 10
774.288555157606
 20
547.9583756604359
 30
0.0
 10
765.7133410570653
 20
541.797732710954
 30
0.0
 10
758.0691211984645
 20
533.7862537275344
 30
0.0
 10
751.5669108627995
 20
524.2255315590148
 30
0.0
 10
746.3911400455247
 20
513.8904235365131
 30
0.0
 10
742.3304331089762
 20
503.0786106674192
 30
0.0
 10
739.0602233353387
 20
492.0146147322977
 30
0.0
 10
736.248394364201
 20
480.8232196331722
 30
0.0
 10
733.5521482299598
 20
469.6043826955662
 30
0.0
 10
730.6231480318833
 20
458.4479407117179
 30
0.0
 10
727.1195137882008
 20
447.4477219046807
 30
0.0
 10
722.7024957625104
 20
436.7733278481659
 30
0.0
 10
717.1065128366827
 20
426.6629889114038
 30
0.0
 10
708.2917317984276
 20
415.0533301492958
 30
0.0
 10
694.3259447228644
 20
403.9355236467004
 30
0.0
 10
675.1840302988708
 20
395.6761035854796
 30
0.0
 10
654.7486727174021
 20
391.5721731752611
 30
0.0
 10
633.9550105088903
 20
391.0280902760582
 30
0.0
 10
613.2899068283347
 20
392.8267664681252
 30
0.0
 10
592.7708587800689
 20
395.9491046484563
 30
0.0
 10
572.3017469958479
 20
399.3600016770063
 30
0.0
 10
551.738590534193
 20
402.0122934457933
 30
0.0
 10
530.9745165641762
 20
402.894794968153
 30
0.0
 10
510.2598151316143
 20
400.8162989199844
 30
0.0
 10
490.2656398686315
 20
394.992529274809
 30
0.0
 10
473.1711126789326
 20
385.1900438610085
 30
0.0
 10
460.1665614950768
 20
372.0995572255678
 30
0.0
 10
450.8818930373274
 20
357.5175052182055
 30
0.0
 10
444.5429460724978
 20
341.4395364911855
 30
0.0
 10
441.12341052054
 20
324.5156073425501
 30
0.0
 10
440.2406501824233
 20
307.2935591508646
 30
0.0
 10
441.9551212284977
 20
284.4192330076004
 30
0.0
 10
448.5820218375188
 20
256.4063581014663
 30
0.0
 10
460.3973636539462
 20
224.090272044954
 30
0.0
 10
471.4867278703302
 20
196.1650535332348
 30
0.0
 10
479.7471545963904
 20
171.8999344714284
 30
0.0
 10
485.3172355238925
 20
151.4617396823882
 30
0.0
 10
489.1278287461956
 20
130.6067155122265
 30
0.0
 10
490.6105402068388
 20
109.4428499797096
 30
0.0
 10
489.2861516932689
 20
88.26633686035164
 30
0.0
 10
484.0748545416064
 20
64.6076575628597
 30
0.0
 10
472.2991359211587
 20
39.95878619219876
 30
0.0
 10
453.089318568684
 20
16.25303219505077
 30
0.0
 10
436.1202291241758
 20
5.416783351275861
 30
0.0
 10
427.6377844595606
 20
0.000000000000006
 30
0.0
 11
822.7488954595606
 21
553.155542
 31
0.0
 11
812.9965224595605
 21
555.426582
 31
0.0
 11
802.9995414595605
 21
556.015168
 31
0.0
 11
793.0480484595605
 21
554.904219
 31
0.0
 11
783.4347694595606
 21
552.102213
 31
0.0
 11
774.4331644595605
 21
547.713911
 31
0.0
 11
766.3044514595606
 21
541.866654
 31
0.0
 11
758.3255394595606
 21
533.599238
 31
0.0
 11
751.7937704595606
 21
524.105839
 31
0.0
 11
746.5728754595606
 21
513.801462
 31
0.0
 11
742.4634244595605
 21
503.040552
 31
0.0
 11
739.1377894595605
 21
491.997585
 31
0.0
 11
736.2674104595606
 21
480.8176199999999
 31
0.0
 11
733.5126584595605
 21
469.612023
 31
0.0
 11
730.5266914595605
 21
458.471457
 31
0.0
 11
726.9701354595605
 21
447.509931
 31
0.0
 11
722.5016704595605
 21
436.858752
 31
0.0
 11
716.8676094595605
 21
426.803339
 31
0.0
 11
709.8600064595605
 21
417.688875
 31
0.0
 11
693.9217124595606
 21
404.764073
 31
0.0
 11
675.0151164595605
 21
396.385129
 31
0.0
 11
654.6439824595606
 21
392.160706
 31
0.0
 11
633.9959934595606
 21
391.41737
 31
0.0
 11
613.3341394595606
 21
393.04514
 31
0.0
 11
592.7751424595606
 21
395.99787
 31
0.0
 11
572.2721534595605
 21
399.235588
 31
0.0
 11
551.6918724595605
 21
401.718818
 31
0.0
 11
531.0213444595606
 21
402.40215
 31
0.0
 11
510.3362794595605
 21
400.182236
 31
0.0
 11
490.5249494595605
 21
394.210171
 31
0.0
 11
472.7933394595606
 21
383.822208
 31
0.0
 11
460.6647634595606
 21
371.73207
 31
0.0
 11
451.3803604595605
 21
357.28167
 31
0.0
 11
445.0245074595606
 21
341.281484
 31
0.0
 11
441.5472904595606
 21
324.47732
 31
0.0
 11
440.6026354595606
 21
307.309779
 31
0.0
 11
441.8306834595605
 21
290.131528
 31
0.0
 11
449.2055974595605
 21
256.687864
 31
0.0
 11
460.5352104595606
 21
224.172171
 31
0.0
 11
472.7933394595606
 21
191.911111
 31
0.0
 11
479.5399794595605
 21
171.828205
 31
0.0
 11
485.0258444595606
 21
151.384819
 31
0.0
 11
488.7378794595606
 21
130.570506
 31
0.0
 11
490.1423994595606
 21
109.425886
 31
0.0
 11
488.7429284595605
 21
88.319642
 31
0.0
 11
484.0822284595606
 21
67.733333
 31
0.0
 11
471.2783754595605
 21
40.57169
 31
0.0
 11
452.0452614595606
 21
17.491958
 31
0.0
 11
427.6377844595606
 21
0.000000000000006
 31
0.0
  0
LINE
  5
101CD
330
1F
100
AcDbEntity
  8
LAYER_1
 62
     7
100
AcDbLine
 10
42.20527666662815
 20
927.4069901518212
 30
0.0
 11
41.99062032474455
 21
746.7848957035724
 31
0.0
  0
LINE
  5
101CE
330
1F
100
AcDbEntity
  8
LAYER_1
 62
     7
100
AcDbLine
 10
42.20527666662815
 20
927.4069901518212
 30
0.0
 11
222.8273711148771
 21
927.1923338099377
 31
0.0
  0
SPLINE
  5
101CF
330
1F
100
AcDbEntity
  8
LAYER_1
 62
     7
100
AcDbSpline
210
0.0
220
0.0
230
1.0
 70
     8
 71
     3
 72
    70
 73
    66
 74
    64
 42
0.000000001
 43
0.0000000001
 44
0.0000000001
 40
0.0
 40
0.0
 40
0.0
 40
0.0
 40
6.082262684592194
 40
12.16788173092843
 40
18.25014527733133
 40
24.33240869800623
 40
30.41802390683367
 40
36.50028075629899
 40
40.56355757339983
 40
44.63678207009478
 40
48.71833077558041
 40
52.79049047315083
 40
56.86640124130621
 40
60.94473385717615
 40
65.02303317069217
 40
69.09896855768706
 40
73.17120398000533
 40
77.2527347875982
 40
81.3260072432272
 40
85.38941152964372
 40
89.41063745318702
 40
93.43703320948987
 40
97.46782298678362
 40
101.4923165024085
 40
105.520563108323
 40
109.5521349063374
 40
117.5805007290065
 40
125.6397376993386
 40
133.7207346473125
 40
141.7924368785963
 40
149.8543422120753
 40
157.8975143127759
 40
165.9910106051304
 40
174.0372966908307
 40
182.0235179478605
 40
190.7729249132645
 40
199.6384628043249
 40
208.5386989549334
 40
212.9715892560261
 40
217.3932285804215
 40
221.8008064178362
 40
226.2345942585713
 40
230.6477430520662
 40
235.0342270350085
 40
238.1677196705658
 40
241.3112093718721
 40
244.4630345802557
 40
247.6046021843119
 40
250.7511260900736
 40
253.9015022296247
 40
260.2306393824348
 40
266.5305578237518
 40
272.7670203088836
 40
277.2934361092234
 40
281.8207808801201
 40
286.3471969199178
 40
290.8736122824373
 40
295.4009585285187
 40
299.9273744469959
 40
304.4537912107341
 40
308.9811369256332
 40
313.5075463314149
 40
318.0339690151208
 40
322.5613122792799
 40
327.0877290210853
 40
327.0877290210853
 40
327.0877290210853
 40
327.0877290210853
 10
222.8273711148771
 20
927.1923338099377
 30
0.0
 10
223.1737477733018
 20
925.1827549756546
 30
0.0
 10
223.8666922304267
 20
921.1624883655859
 30
0.0
 10
222.8825461608158
 20
915.0553625822749
 30
0.0
 10
220.4891379681904
 20
909.3987238118675
 30
0.0
 10
216.6120139923319
 20
904.6077585210102
 30
0.0
 10
211.6585178564376
 20
900.9695717563081
 30
0.0
 10
206.5564094978439
 20
898.968696580277
 30
0.0
 10
201.8480253368609
 20
898.2704980213525
 30
0.0
 10
197.7638155356752
 20
898.2628591009673
 30
0.0
 10
193.7080072891751
 20
898.7321433138435
 30
0.0
 10
189.7130015674333
 20
899.5615657882489
 30
0.0
 10
185.7771008805071
 20
900.6236623711675
 30
0.0
 10
181.8737796964969
 20
901.8029579258002
 30
0.0
 10
177.9710871814548
 20
902.9842893719115
 30
0.0
 10
174.0368801228099
 20
904.0524921723609
 30
0.0
 10
170.0441354312336
 20
904.8923422276044
 30
0.0
 10
165.9901126329873
 20
905.3761503932012
 30
0.0
 10
161.9062980285946
 20
905.3887291201784
 30
0.0
 10
157.8762656838096
 20
904.8106167388182
 30
0.0
 10
154.0230064856557
 20
903.541522460098
 30
0.0
 10
150.4334223048328
 20
901.6850407188499
 30
0.0
 10
147.1506787062283
 20
899.3292985518857
 30
0.0
 10
144.2157399736607
 20
896.5549528629608
 30
0.0
 10
141.6321990361392
 20
893.4534691501096
 30
0.0
 10
138.6488838931488
 20
888.9870631502504
 30
0.0
 10
135.7222179333282
 20
882.9169236228706
 30
0.0
 10
133.2026800820408
 20
875.2517356050345
 30
0.0
 10
131.2793455767231
 20
867.4103325655882
 30
0.0
 10
129.5523445508911
 20
859.5263080759073
 30
0.0
 10
127.5912409737126
 20
851.7063083036285
 30
0.0
 10
124.9894913540846
 20
844.0536478771943
 30
0.0
 10
121.3191402026461
 20
836.8353109025671
 30
0.0
 10
116.3777010646521
 20
830.41865890547
 30
0.0
 10
109.8115500661907
 20
825.2141158344483
 30
0.0
 10
101.7120431208286
 20
822.2032856922002
 30
0.0
 10
93.02320045118319
 20
820.5903484909115
 30
0.0
 10
85.72080188604708
 20
819.3520636954999
 30
0.0
 10
80.01051366804612
 20
817.7656777762173
 30
0.0
 10
75.89290311157934
 20
816.1267103112859
 30
0.0
 10
72.04625271338843
 20
813.9049522403427
 30
0.0
 10
68.6899427228835
 20
810.9830542641007
 30
0.0
 10
66.04643930020961
 20
807.4020425559789
 30
0.0
 10
64.56969660835344
 20
803.6447634516796
 30
0.0
 10
64.17037954062639
 20
800.0881365311948
 30
0.0
 10
64.39664312029288
 20
796.9388421380587
 30
0.0
 10
65.10154276464364
 20
793.8624797596713
 30
0.0
 10
66.19192286062447
 20
790.9038866183195
 30
0.0
 10
67.55658458754432
 20
788.0654995994545
 30
0.0
 10
69.6278288661491
 20
784.3995905032027
 30
0.0
 10
72.45316761304582
 20
779.9625932787042
 30
0.0
 10
75.58959642710056
 20
774.5054805365144
 30
0.0
 10
77.58876030998951
 20
769.1200795161532
 30
0.0
 10
78.13918959926028
 20
764.0140114014049
 30
0.0
 10
77.70149709773106
 20
759.4783588348828
 30
0.0
 10
76.35916379231521
 20
755.1207469630444
 30
0.0
 10
74.13225786818714
 20
751.1419019790753
 30
0.0
 10
71.1512273325756
 20
747.6951700091947
 30
0.0
 10
67.53493027954741
 20
744.9181074549588
 30
0.0
 10
63.41625916165694
 20
742.9612761126207
 30
0.0
 10
58.99125678761374
 20
741.8758881998659
 30
0.0
 10
54.43240541756504
 20
741.700378176123
 30
0.0
 10
49.95047789932161
 20
742.4989564594409
 30
0.0
 10
45.67797045593996
 20
744.1316815948553
 30
0.0
 10
43.21965317731637
 20
745.900551340141
 30
0.0
 10
41.99062032474455
 20
746.7848957035724
 30
0.0
 11
222.8273711148771
 21
927.1923338099377
 31
0.0
 11
223.5294115969442
 21
921.150723219547
 31
0.0
 11
222.6473370338568
 21
915.1293692486959
 31
0.0
 11
220.241897314098
 21
909.5429759934275
 31
0.0
 11
216.4334127512943
 21
904.8006797507444
 31
0.0
 11
211.5269786820174
 21
901.2004551475077
 31
0.0
 11
205.8605100196571
 21
898.9902557715789
 31
0.0
 11
201.8449522916613
 21
898.3693575307032
 31
0.0
 11
197.7718181692336
 21
898.342224134479
 31
0.0
 11
193.715199605742
 21
898.7926524479615
 31
0.0
 11
189.7238903528453
 21
899.6000773981939
 31
0.0
 11
185.7836358685549
 21
900.6428828397768
 31
0.0
 11
181.8738751788998
 21
901.8033001247634
 31
0.0
 11
177.9647508965501
 21
902.9657426548565
 31
0.0
 11
174.0261037223333
 21
904.0146981906119
 31
0.0
 11
170.0368328169518
 21
904.832511725753
 31
0.0
 11
165.9819038528849
 21
905.2977480417269
 31
0.0
 11
161.9086393879275
 21
905.2896798138688
 31
0.0
 11
157.889473910755
 21
904.6917138767342
 31
0.0
 11
154.0667891327989
 21
903.4437799776194
 31
0.0
 11
150.4859915579764
 21
901.6026521942979
 31
0.0
 11
147.2071071012236
 21
899.2582582538516
 31
0.0
 11
144.2751697006044
 21
896.5013957008475
 31
0.0
 11
141.6900024851456
 21
893.4121108020111
 31
0.0
 11
139.44389713775
 21
890.0641887702209
 31
0.0
 11
135.891848151905
 21
882.864355037088
 31
0.0
 11
133.3047923915378
 21
875.2316331741665
 31
0.0
 11
131.3114220755135
 21
867.4003506191596
 31
0.0
 11
129.512092553177
 21
859.5317554344674
 31
0.0
 11
127.4831745091833
 21
851.7293321457234
 31
0.0
 11
124.8174711450985
 21
844.1407457809125
 31
0.0
 11
121.0966926702692
 21
836.9532225791688
 31
0.0
 11
116.1225428327716
 21
830.6286235272876
 31
0.0
 11
109.8178176422637
 21
825.7265657717721
 31
0.0
 11
101.6995862043894
 21
822.4636773937593
 31
0.0
 11
93.02898082001786
 21
820.6147954704516
 31
0.0
 11
84.29482682399976
 21
818.9034341671497
 31
0.0
 11
80.03161919139166
 21
817.6887008207755
 31
0.0
 11
75.93382230804264
 21
816.0276905806338
 31
0.0
 11
72.13473190822367
 21
813.7930419445229
 31
0.0
 11
68.80350922744105
 21
810.867049793527
 31
0.0
 11
66.20933850097197
 21
807.296873255111
 31
0.0
 11
64.63546248716841
 21
803.2024678006178
 31
0.0
 11
64.26686815295682
 21
800.0907296506639
 31
0.0
 11
64.47602377082467
 21
796.9542058695117
 31
0.0
 11
65.16672859330629
 21
793.8789938455363
 31
0.0
 11
66.23698916329431
 21
790.9253538330797
 31
0.0
 11
67.5866251609848
 21
788.0829788818694
 31
0.0
 11
69.12207904432512
 21
785.3321151642731
 31
0.0
 11
72.41779888234453
 21
779.9287636257957
 31
0.0
 11
75.44474185659772
 21
774.403676423057
 31
0.0
 11
77.49581002598939
 21
768.514144719011
 31
0.0
 11
77.98475553225092
 21
764.0142144651657
 31
0.0
 11
77.5506575964971
 21
759.5077291765244
 31
0.0
 11
76.21174505998454
 21
755.183870323034
 31
0.0
 11
74.00674462048835
 21
751.2308450137457
 31
0.0
 11
71.04512003055368
 21
747.8065722704903
 31
0.0
 11
67.45120721596754
 21
745.0548034305989
 31
0.0
 11
63.36549406343954
 21
743.1066256270321
 31
0.0
 11
58.96863849183205
 21
742.0274962072499
 31
0.0
 11
54.44522946684276
 21
741.8627148327141
 31
0.0
 11
49.98567957249122
 21
742.6379032300451
 31
0.0
 11
45.77522815608404
 21
744.301915219666
 31
0.0
 11
41.99062032474455
 21
746.7848957035724
 31
0.0
  0
LINE
  5
101FA
330
1F
100
AcDbEntity
  8
LAYER_1
 62
     7
100
AcDbLine
 10
150.5393378357822
 20
632.8637071637683
 30
0.0
 11
162.4693621107645
 21
509.2603290957896
 31
0.0
  0
LINE
  5
101FB
330
1F
100
AcDbEntity
  8
LAYER_1
 62
     7
100
AcDbLine
 10
150.5393378357822
 20
632.8637071637683
 30
0.0
 11
330.3260690280922
 21
650.2164696931578
 31
0.0
  0
SPLINE
  5
101FC
330
1F
100
AcDbEntity
  8
LAYER_1
 62
     7
100
AcDbSpline
210
0.0
220
0.0
230
1.0
 70
     8
 71
     3
 72
    70
 73
    66
 74
    64
 42
0.000000001
 43
0.0000000001
 44
0.0000000001
 40
0.0
 40
0.0
 40
0.0
 40
0.0
 40
6.096584209256231
 40
12.19668069149406
 40
18.29326604387721
 40
24.38984972460926
 40
30.48994514252085
 40
36.58653262109156
 40
40.90050875856544
 40
45.22709812317984
 40
49.56412028841103
 40
53.88973851751151
 40
58.2196052110816
 40
62.55190770391339
 40
66.88546294126074
 40
71.21497472243091
 40
75.53861902398202
 40
79.87600401925985
 40
84.20151603745188
 40
88.51273367653354
 40
93.99354719971384
 40
99.50703844795092
 40
105.0466162785687
 40
110.5584583570484
 40
116.0803176862137
 40
121.6072846224873
 40
127.139838213348
 40
132.660115741402
 40
138.1631225824773
 40
143.7031809981122
 40
149.2116077328847
 40
154.679469065144
 40
160.4345480086207
 40
166.2671542911352
 40
172.1412220052346
 40
175.0584116798689
 40
177.9722423376712
 40
180.8815832135486
 40
183.800663371696
 40
186.7116351253495
 40
189.6128464096036
 40
192.474974297655
 40
195.3428652506997
 40
198.2153926804742
 40
201.0812397688714
 40
203.9511819905983
 40
206.8246782057545
 40
212.5355943584725
 40
218.2788459943684
 40
224.0441602278322
 40
229.8027914658514
 40
235.5480164735738
 40
241.2697526651745
 40
244.1433756468435
 40
247.0139296923599
 40
249.8809789836314
 40
252.7540038859401
 40
255.6227715786196
 40
258.4864536787085
 40
261.4827860760778
 40
264.4796812885135
 40
267.4760161641635
 40
270.4723520345954
 40
273.4692472470311
 40
276.4655796444003
 40
276.4655796444003
 40
276.4655796444003
 40
276.4655796444003
 10
330.3260690280922
 20
650.2164696931578
 30
0.0
 10
330.8830443040848
 20
648.2495307505068
 30
0.0
 10
331.9973157323423
 20
644.3145197017371
 30
0.0
 10
331.6371646929463
 20
638.1222603448213
 30
0.0
 10
329.8104117147325
 20
632.241368110428
 30
0.0
 10
326.3999945864839
 20
627.0880358345036
 30
0.0
 10
321.7938877120631
 20
622.9949619677511
 30
0.0
 10
316.8071591695148
 20
620.4997794462784
 30
0.0
 10
311.9997632608685
 20
619.377167216442
 30
0.0
 10
307.6727861169301
 20
619.0505774300002
 30
0.0
 10
303.3395867753973
 20
619.2523829418535
 30
0.0
 10
299.0458599678587
 20
619.8464511293067
 30
0.0
 10
294.79658432179
 20
620.6799529746277
 30
0.0
 10
290.5665312259469
 20
621.6133764055353
 30
0.0
 10
286.3272209931617
 20
622.5055489180511
 30
0.0
 10
282.0545765122777
 20
623.2155592776244
 30
0.0
 10
277.7354896299165
 20
623.6021869484636
 30
0.0
 10
273.3962029579297
 20
623.5081336387096
 30
0.0
 10
269.111219115679
 20
622.8075652440427
 30
0.0
 10
264.6402831814882
 20
621.2440534741467
 30
0.0
 10
260.3128409859555
 20
618.4382845883079
 30
0.0
 10
256.4202556269649
 20
614.492523330618
 30
0.0
 10
253.232683866023
 20
609.9598508737517
 30
0.0
 10
250.6386230980675
 20
605.0724854918111
 30
0.0
 10
248.4070154348314
 20
600.0216313132752
 30
0.0
 10
246.3005590288721
 20
594.912002103812
 30
0.0
 10
244.0718579101135
 20
589.8526695602093
 30
0.0
 10
241.4888109391554
 20
584.9673968483582
 30
0.0
 10
238.3396523059457
 20
580.4084171086525
 30
0.0
 10
234.4381404928404
 20
576.458560693648
 30
0.0
 10
229.7979420867923
 20
573.4076225761131
 30
0.0
 10
224.4178835716989
 20
571.6338558139928
 30
0.0
 10
218.6544923400538
 20
571.6610363925619
 30
0.0
 10
212.9475135203635
 20
572.8658394232722
 30
0.0
 10
208.264118577374
 20
574.2169506526611
 30
0.0
 10
204.4786362084434
 20
575.1664414354273
 30
0.0
 10
201.6141475494381
 20
575.7116184769802
 30
0.0
 10
198.7092687685215
 20
576.0028683431963
 30
0.0
 10
195.787752701592
 20
575.9356200980781
 30
0.0
 10
192.9082209087331
 20
575.4313401790487
 30
0.0
 10
190.1791801687555
 20
574.4151819840404
 30
0.0
 10
187.744290790208
 20
572.8429601054373
 30
0.0
 10
185.6695419509337
 20
570.8405609126597
 30
0.0
 10
183.9789008925493
 20
568.5054015594984
 30
0.0
 10
182.6961743088945
 20
565.9257966999467
 30
0.0
 10
181.7976049623706
 20
563.1911425878593
 30
0.0
 10
181.0742173192107
 20
559.433263045963
 30
0.0
 10
180.9669866972002
 20
554.6257189955151
 30
0.0
 10
181.7277532186455
 20
548.9248197770561
 30
0.0
 10
182.9770440025939
 20
543.3039521823081
 30
0.0
 10
184.3410264424039
 20
537.7118239146374
 30
0.0
 10
185.4345781975082
 20
532.070453978987
 30
0.0
 10
185.7989817621413
 20
527.2832887824422
 30
0.0
 10
185.5617035024903
 20
523.462452248572
 30
0.0
 10
185.0750449117247
 20
520.6270940105001
 30
0.0
 10
184.2389990787784
 20
517.8722575569542
 30
0.0
 10
183.0140961345726
 20
515.2650031965926
 30
0.0
 10
181.3947342961433
 20
512.881701122418
 30
0.0
 10
179.3545023694071
 20
510.7834374289741
 30
0.0
 10
176.8973726957088
 20
509.1089569794696
 30
0.0
 10
174.1184805701535
 20
507.9386723632479
 30
0.0
 10
171.159812750335
 20
507.3375949565173
 30
0.0
 10
168.1470439511698
 20
507.367991018732
 30
0.0
 10
165.1779818294993
 20
507.9551209917202
 30
0.0
 10
163.372178823587
 20
508.8252869664294
 30
0.0
 10
162.4693621107645
 20
509.2603290957896
 30
0.0
 11
330.3260690280922
 21
650.2164696931578
 31
0.0
 11
331.6585910513847
 21
644.2672912559286
 31
0.0
 11
331.3924976619564
 21
638.1730011905713
 31
0.0
 11
329.5465180897029
 21
632.3626042697306
 31
0.0
 11
326.2014633865597
 21
627.2656501195397
 31
0.0
 11
321.6397308993323
 21
623.2157413770369
 31
0.0
 11
316.1824324170711
 21
620.4979716738842
 31
0.0
 11
311.9883487395734
 21
619.48799532721
 31
0.0
 11
307.675875283293
 21
619.1387844756165
 31
0.0
 11
303.3425619749535
 21
619.3181082985585
 31
0.0
 11
299.0544030346052
 21
619.8861452394681
 31
0.0
 11
294.8010150742846
 21
620.6963528937684
 31
0.0
 11
290.5653769200371
 21
621.606415702414
 31
0.0
 11
286.3198662082191
 21
622.4755185680052
 31
0.0
 11
282.0451117603143
 21
623.161919816117
 31
0.0
 11
277.7364798543456
 21
623.5219075175792
 31
0.0
 11
273.4006301874406
 21
623.4065114029954
 31
0.0
 11
269.1359129075762
 21
622.6838491427729
 31
0.0
 11
265.0751404200111
 21
621.2358421207724
 31
0.0
 11
260.4513339273263
 21
618.2931001351266
 31
0.0
 11
256.5446620702227
 21
614.40253452775
 31
0.0
 11
253.3270552190247
 21
609.8932187600758
 31
0.0
 11
250.7001252034913
 21
605.047639146491
 31
0.0
 11
248.4289972343022
 21
600.0144584226686
 31
0.0
 11
246.280870085283
 21
594.9220215535156
 31
0.0
 11
244.0103963873397
 21
589.8768160648667
 31
0.0
 11
241.391826340544
 21
585.0171293571908
 31
0.0
 11
238.2216727446153
 21
580.5189952472357
 31
0.0
 11
234.3050478058841
 21
576.6007945966875
 31
0.0
 11
229.6742850625041
 21
573.6177086933183
 31
0.0
 11
224.4666477085578
 21
571.9509691399985
 31
0.0
 11
218.7123930159393
 21
571.8535700736478
 31
0.0
 11
212.9801575370802
 21
572.930961581753
 31
0.0
 11
207.3048027124801
 21
574.4458936345899
 31
0.0
 11
204.4712359428855
 21
575.1393595386131
 31
0.0
 11
201.6060431485865
 21
575.6695287133542
 31
0.0
 11
198.7095824389522
 21
575.9429874663601
 31
0.0
 11
195.7916151554567
 21
575.8623903067345
 31
0.0
 11
192.9271387749757
 21
575.3441899437136
 31
0.0
 11
190.2143624450968
 21
574.3156611400665
 31
0.0
 11
187.8044222155507
 21
572.7716520281837
 31
0.0
 11
185.734756489178
 21
570.7863857237212
 31
0.0
 11
184.0457940491272
 21
568.4628496876537
 31
0.0
 11
182.7607017508316
 21
565.9012842836603
 31
0.0
 11
181.857086189613
 21
563.1773079119613
 31
0.0
 11
181.3069579578159
 21
560.3569640628718
 31
0.0
 11
181.1143387166854
 21
554.6492971900312
 31
0.0
 11
181.8075169757423
 21
548.9480303786645
 31
0.0
 11
182.9966596871278
 21
543.3066841011755
 31
0.0
 11
184.2974052445805
 21
537.6968806527241
 31
0.0
 11
185.326474975572
 21
532.0445691009679
 31
0.0
 11
185.6957484982934
 21
526.3347615637833
 31
0.0
 11
185.510145615582
 21
523.4671387485049
 31
0.0
 11
185.0165674318787
 21
520.6393372871568
 31
0.0
 11
184.1748662394328
 21
517.898623741159
 31
0.0
 11
182.9475144946005
 21
515.3009555976613
 31
0.0
 11
181.3283715903896
 21
512.9327908377036
 31
0.0
 11
179.3243678489889
 21
510.8871505528975
 31
0.0
 11
176.8500427422294
 21
509.1972620649833
 31
0.0
 11
174.0883383860647
 21
508.0334880476328
 31
0.0
 11
171.1507968123797
 21
507.4428340119161
 31
0.0
 11
168.1545145870024
 21
507.4607637170133
 31
0.0
 11
165.2212123315868
 21
508.074863702923
 31
0.0
 11
162.4693621107645
 21
509.2603290957896
 31
0.0
  0
LINE
  5
101FD
330
1F
100
AcDbEntity
  8
LAYER_1
 62
     7
100
AcDbLine
 10
201.1448178612578
 20
689.7450429209193
 30
0.0
 11
208.8743467131712
 21
870.2018007992119
 31
0.0
  0
LINE
  5
101FE
330
1F
100
AcDbEntity
  8
LAYER_1
 62
     7
100
AcDbLine
 10
201.1448178612578
 20
689.7450429209193
 30
0.0
 11
20.68805998296534
 21
697.4745717728329
 31
0.0
  0
SPLINE
  5
101FF
330
1F
100
AcDbEntity
  8
LAYER_1
 62
     7
100
AcDbSpline
210
0.0
220
0.0
230
1.0
 70
     8
 71
     3
 72
    70
 73
    66
 74
    64
 42
0.000000001
 43
0.0000000001
 44
0.0000000001
 40
0.0
 40
0.0
 40
0.0
 40
0.0
 40
6.082262684592418
 40
12.16788173092844
 40
18.25014527733151
 40
24.33240869800631
 40
30.41802390683385
 40
36.50028075629918
 40
40.5635575733997
 40
44.6367820700949
 40
48.71833077558036
 40
52.79049047315062
 40
56.86640124130628
 40
60.94473385717593
 40
65.02303317069214
 40
69.09896855768696
 40
73.17120398000552
 40
77.25273478759823
 40
81.32600724322722
 40
85.3894115296439
 40
89.41063745318701
 40
93.43703320948983
 40
97.4678229867837
 40
101.4923165024085
 40
105.5205631083231
 40
109.5521349063375
 40
117.5805007290065
 40
125.6397376993388
 40
133.7207346473123
 40
141.7924368785962
 40
149.8543422120752
 40
157.8975143127759
 40
165.9910106051305
 40
174.0372966908309
 40
182.0235179478605
 40
190.7729249132644
 40
199.6384628043247
 40
208.5386989549333
 40
212.971589256026
 40
217.3932285804217
 40
221.8008064178362
 40
226.2345942585711
 40
230.6477430520659
 40
235.0342270350085
 40
238.1677196705658
 40
241.3112093718719
 40
244.4630345802556
 40
247.6046021843117
 40
250.7511260900734
 40
253.9015022296246
 40
260.2306393824348
 40
266.5305578237518
 40
272.7670203088834
 40
277.2934361092234
 40
281.8207808801201
 40
286.3471969199179
 40
290.8736122824369
 40
295.4009585285185
 40
299.9273744469959
 40
304.4537912107339
 40
308.981136925633
 40
313.5075463314146
 40
318.0339690151206
 40
322.5613122792796
 40
327.087729021085
 40
327.087729021085
 40
327.087729021085
 40
327.087729021085
 10
20.68805998296534
 20
697.4745717728329
 30
0.0
 10
20.42559486105954
 20
699.4968219899138
 30
0.0
 10
19.9005197816925
 20
703.5424383579993
 30
0.0
 10
21.13790995830319
 20
709.6033289171776
 30
0.0
 10
23.76459873955153
 20
715.1554880469098
 30
0.0
 10
27.83770084654862
 20
719.7809910431639
 30
0.0
 10
32.93827994133835
 20
723.2099296254315
 30
0.0
 10
38.1192197196826
 20
724.9967911718479
 30
0.0
 10
42.85257638437282
 20
725.4984856206022
 30
0.0
 10
46.93356738887229
 20
725.3361881332522
 30
0.0
 10
50.96633831623471
 20
724.6985621831429
 30
0.0
 10
54.9233752663842
 20
723.7036396067828
 30
0.0
 10
58.81167760032368
 20
722.4787035559323
 30
0.0
 10
62.66255240040353
 20
721.1380255390952
 30
0.0
 10
66.51271436951892
 20
719.7953395504467
 30
0.0
 10
70.3990704832189
 20
718.5643730355941
 30
0.0
 10
74.35341450564594
 20
717.5591259815328
 30
0.0
 10
78.3837972395634
 20
716.9070629416826
 30
0.0
 10
82.46355220335278
 20
716.7245817567349
 30
0.0
 10
86.51414808567051
 20
717.1345178781546
 30
0.0
 10
90.4168732521749
 20
718.2421924744028
 30
0.0
 10
94.08059087795844
 20
719.9477165010067
 30
0.0
 10
97.45850611624093
 20
722.1648352020179
 30
0.0
 10
100.5063343014697
 20
724.8146658982895
 30
0.0
 10
103.216680053964
 20
727.8059717834955
 30
0.0
 10
106.3832435153689
 20
732.1443848162612
 30
0.0
 10
109.5599326329431
 20
738.0874996370021
 30
0.0
 10
112.3962106160794
 20
745.6412209407855
 30
0.0
 10
114.6441332169276
 20
753.3958106286394
 30
0.0
 10
116.6976656792598
 20
761.2011536142656
 30
0.0
 10
118.9824341310735
 20
768.9327871286312
 30
0.0
 10
121.9003314636054
 20
776.4705711426735
 30
0.0
 10
125.8678343062892
 20
783.5299469966305
 30
0.0
 10
131.0719691375502
 20
789.7354465143488
 30
0.0
 10
137.8489773031422
 20
794.6622880823535
 30
0.0
 10
146.0667408617339
 20
797.3335186973542
 30
0.0
 10
154.8151683501654
 20
798.5835466301648
 30
0.0
 10
162.1627643066893
 20
799.5169317052148
 30
0.0
 10
167.9341118461355
 20
800.8643586592518
 30
0.0
 10
172.1163486014957
 20
802.3305874162832
 30
0.0
 10
176.0521077243441
 20
804.3903758371212
 30
0.0
 10
179.5270814294572
 20
807.1700992558633
 30
0.0
 10
182.3172892393747
 20
810.6380230694535
 30
0.0
 10
183.9490805220607
 20
814.3306065086337
 30
0.0
 10
184.4960307111774
 20
817.8675394543823
 30
0.0
 10
184.4009942672274
 20
821.0235208320905
 30
0.0
 10
183.8247017742857
 20
824.1265477340597
 30
0.0
 10
182.8583626583058
 20
827.1279458820386
 30
0.0
 10
181.6129780596243
 20
830.020653903797
 30
0.0
 10
179.6960530790404
 20
833.7695658769503
 30
0.0
 10
177.057768921043
 20
838.320273525941
 30
0.0
 10
174.1511075427655
 20
843.9031567253849
 30
0.0
 10
172.377742631947
 20
849.3670726538955
 30
0.0
 10
172.0402357444171
 20
854.4916207408792
 30
0.0
 10
172.6662619958333
 20
859.0051348997839
 30
0.0
 10
174.1887380433556
 20
863.3031235704451
 30
0.0
 10
176.5792615592311
 20
867.1858693413421
 30
0.0
 10
179.7011172945971
 20
870.5055863615127
 30
0.0
 10
183.4298268333707
 20
873.1297826158614
 30
0.0
 10
187.6263484443774
 20
874.9135558772525
 30
0.0
 10
192.0926783149643
 20
875.8138949348001
 30
0.0
 10
196.6548844175048
 20
875.7995749986285
 30
0.0
 10
201.0997048453779
 20
874.8152107787703
 30
0.0
 10
205.3005805857085
 20
873.0061352591008
 30
0.0
 10
207.6831726120461
 20
871.1365151762503
 30
0.0
 10
208.8743467131712
 20
870.2018007992119
 30
0.0
 11
20.68805998296534
 21
697.4745717728329
 31
0.0
 11
20.23799786181257
 21
703.5401602398729
 31
0.0
 11
21.36983625093455
 21
709.5196000997626
 31
0.0
 11
24.00562346884476
 21
715.0010739517302
 31
0.0
 11
28.0081206493179
 21
719.580805891351
 31
0.0
 11
33.06009895601608
 21
722.9737732738297
 31
0.0
 11
38.81361959692924
 21
724.946296687494
 31
0.0
 11
42.8515335675113
 21
725.3995838575803
 31
0.0
 11
46.92226958144897
 21
725.2572247858333
 31
0.0
 11
50.95663465265022
 21
724.6384046928165
 31
0.0
 11
54.91089357544945
 21
723.6656143896276
 31
0.0
 11
58.80434857411353
 21
722.4597716290054
 31
0.0
 11
62.66244276297027
 21
721.1376876091429
 31
0.0
 11
66.51981683218503
 21
719.8136065765862
 31
0.0
 11
70.41141002851691
 21
718.6016859219144
 31
0.0
 11
74.36320013590273
 21
717.6186008381329
 31
0.0
 11
78.39526096116515
 21
716.9850558636342
 31
0.0
 11
82.46533396928726
 21
716.8236427094562
 31
0.0
 11
86.50589843144314
 21
717.2538673275712
 31
0.0
 11
90.37719524300633
 21
718.341671963044
 31
0.0
 11
94.03149504645114
 21
720.0322209072974
 31
0.0
 11
97.40508232430102
 21
722.2381617740176
 31
0.0
 11
100.4491843639152
 21
724.8706493484847
 31
0.0
 11
103.160647435802
 21
727.8496993191726
 31
0.0
 11
105.5441032356327
 21
731.1012696494589
 31
0.0
 11
109.3926364980558
 21
738.1470804268374
 31
0.0
 11
112.2950231207111
 21
745.6655545031779
 31
0.0
 11
114.6124998081709
 21
753.4071185232087
 31
0.0
 11
116.7376561760196
 21
761.1940362268131
 31
0.0
 11
119.0894490758328
 21
768.905286953016
 31
0.0
 11
122.0685788742825
 21
776.3763914955505
 31
0.0
 11
126.0851833198684
 21
783.4028821532015
 31
0.0
 11
131.3181705220481
 21
789.515047458129
 31
0.0
 11
137.8213938912196
 21
794.1505426611136
 31
0.0
 11
146.0683529965509
 21
797.0728341868262
 31
0.0
 11
154.8083758327455
 21
798.5593613209958
 31
0.0
 11
163.6061704965117
 21
799.9058428807684
 31
0.0
 11
167.9162273425413
 21
800.9421470858717
 31
0.0
 11
172.0795847053324
 21
802.4312239088515
 31
0.0
 11
175.9683613449449
 21
804.5058705390204
 31
0.0
 11
179.4184398085033
 21
807.2907283831373
 31
0.0
 11
182.1589068269055
 21
810.749878971732
 31
0.0
 11
183.9017739784388
 21
814.7752554540896
 31
0.0
 11
184.399517760197
 21
817.8689631365983
 31
0.0
 11
184.3210431229711
 21
821.011473157828
 31
0.0
 11
183.7588852979716
 21
824.1127601042415
 31
0.0
 11
182.8124422034527
 21
827.108372308732
 31
0.0
 11
181.5822362468452
 21
830.0044396411429
 31
0.0
 11
180.162565844443
 21
832.8168062191687
 31
0.0
 11
177.0945145594519
 21
838.3526023147404
 31
0.0
 11
174.3000723956372
 21
843.9988457880897
 31
0.0
 11
172.4958232714584
 21
849.968615417343
 31
0.0
 11
172.1945276340914
 21
854.4849923874897
 31
0.0
 11
172.8157488831731
 21
858.9695140826379
 31
0.0
 11
174.3334027779943
 21
863.2339212889062
 31
0.0
 11
176.7009655107386
 21
867.091781154242
 31
0.0
 11
179.80249765409
 21
870.3898658098667
 31
0.0
 11
183.5077899538718
 21
872.9897215828323
 31
0.0
 11
187.6710220949819
 21
874.7662200653185
 31
0.0
 11
192.1089691420278
 21
875.6614771400364
 31
0.0
 11
196.635317208123
 21
875.6379124778325
 31
0.0
 11
201.0587525614492
 21
874.6778489452929
 31
0.0
 11
205.196324273363
 21
872.840095599412
 31
0.0
 11
208.8743467131712
 21
870.2018007992119
 31
0.0
  0
LINE
  5
10200
330
1F
100
AcDbEntity
  8
LAYER_1
 62
     7
100
AcDbLine
 10
242.657540705708
 20
930.454810392768
 30
0.0
 11
242.4428843638244
 21
749.8327159445189
 31
0.0
  0
LINE
  5
10201
330
1F
100
AcDbEntity
  8
LAYER_1
 62
     7
100
AcDbLine
 10
242.657540705708
 20
930.454810392768
 30
0.0
 11
423.2796351539569
 21
930.2401540508843
 31
0.0
  0
SPLINE
  5
10202
330
1F
100
AcDbEntity
  8
LAYER_1
 62
     7
100
AcDbSpline
210
0.0
220
0.0
230
1.0
 70
     8
 71
     3
 72
    70
 73
    66
 74
    64
 42
0.000000001
 43
0.0000000001
 44
0.0000000001
 40
0.0
 40
0.0
 40
0.0
 40
0.0
 40
6.082262684592219
 40
12.16788173092826
 40
18.25014527733143
 40
24.332408698006
 40
30.41802390683358
 40
36.50028075629881
 40
40.5635575733998
 40
44.63678207009475
 40
48.71833077558038
 40
52.7904904731509
 40
56.86640124130613
 40
60.94473385717639
 40
65.02303317069236
 40
69.09896855768713
 40
73.17120398000517
 40
77.25273478759804
 40
81.32600724322704
 40
85.38941152964357
 40
89.41063745318701
 40
93.43703320949007
 40
97.46782298678386
 40
101.4923165024084
 40
105.5205631083228
 40
109.5521349063375
 40
117.5805007290066
 40
125.6397376993386
 40
133.7207346473123
 40
141.7924368785962
 40
149.8543422120752
 40
157.8975143127759
 40
165.9910106051304
 40
174.0372966908307
 40
182.0235179478607
 40
190.7729249132646
 40
199.638462804325
 40
208.5386989549334
 40
212.9715892560261
 40
217.3932285804218
 40
221.8008064178364
 40
226.2345942585714
 40
230.6477430520662
 40
235.0342270350086
 40
238.1677196705661
 40
241.3112093718722
 40
244.4630345802557
 40
247.604602184312
 40
250.7511260900737
 40
253.9015022296247
 40
260.230639382435
 40
266.5305578237519
 40
272.7670203088837
 40
277.2934361092234
 40
281.8207808801203
 40
286.347196919918
 40
290.8736122824374
 40
295.4009585285189
 40
299.9273744469961
 40
304.4537912107341
 40
308.9811369256333
 40
313.5075463314149
 40
318.033969015121
 40
322.5613122792801
 40
327.0877290210853
 40
327.0877290210853
 40
327.0877290210853
 40
327.0877290210853
 10
423.2796351539569
 20
930.2401540508843
 30
0.0
 10
423.6260118123816
 20
928.2305752166012
 30
0.0
 10
424.3189562695068
 20
924.2103086065326
 30
0.0
 10
423.3348101998956
 20
918.1031828232218
 30
0.0
 10
420.9414020072702
 20
912.4465440528143
 30
0.0
 10
417.0642780314116
 20
907.6555787619568
 30
0.0
 10
412.1107818955175
 20
904.0173919972543
 30
0.0
 10
407.0086735369237
 20
902.0165168212237
 30
0.0
 10
402.3002893759406
 20
901.3183182622989
 30
0.0
 10
398.216079574755
 20
901.3106793419138
 30
0.0
 10
394.1602713282549
 20
901.7799635547899
 30
0.0
 10
390.165265606513
 20
902.6093860291953
 30
0.0
 10
386.2293649195868
 20
903.6714826121141
 30
0.0
 10
382.3260437355766
 20
904.8507781667472
 30
0.0
 10
378.4233512205343
 20
906.0321096128578
 30
0.0
 10
374.4891441618896
 20
907.100312413308
 30
0.0
 10
370.4963994703135
 20
907.9401624685509
 30
0.0
 10
366.4423766720672
 20
908.4239706341477
 30
0.0
 10
362.3585620676745
 20
908.4365493611248
 30
0.0
 10
358.3285297228895
 20
907.8584369797649
 30
0.0
 10
354.4752705247353
 20
906.5893427010449
 30
0.0
 10
350.8856863439122
 20
904.7328609597967
 30
0.0
 10
347.6029427453078
 20
902.3771187928319
 30
0.0
 10
344.6680040127404
 20
899.6027731039073
 30
0.0
 10
342.0844630752192
 20
896.5012893910564
 30
0.0
 10
339.1011479322285
 20
892.0348833911968
 30
0.0
 10
336.1744819724077
 20
885.9647438638175
 30
0.0
 10
333.654944121121
 20
878.2995558459809
 30
0.0
 10
331.7316096158033
 20
870.4581528065348
 30
0.0
 10
330.0046085899704
 20
862.5741283168543
 30
0.0
 10
328.0435050127925
 20
854.7541285445753
 30
0.0
 10
325.4417553931648
 20
847.1014681181404
 30
0.0
 10
321.7714042417255
 20
839.8831311435142
 30
0.0
 10
316.8299651037321
 20
833.4664791464163
 30
0.0
 10
310.2638141052705
 20
828.2619360753952
 30
0.0
 10
302.1643071599083
 20
825.2511059331468
 30
0.0
 10
293.475464490263
 20
823.6381687318578
 30
0.0
 10
286.1730659251268
 20
822.3998839364463
 30
0.0
 10
280.462777707126
 20
820.813498017164
 30
0.0
 10
276.3451671506591
 20
819.1745305522323
 30
0.0
 10
272.4985167524679
 20
816.9527724812896
 30
0.0
 10
269.1422067619632
 20
814.0308745050472
 30
0.0
 10
266.4987033392893
 20
810.4498627969258
 30
0.0
 10
265.0219606474333
 20
806.6925836926264
 30
0.0
 10
264.6226435797059
 20
803.1359567721413
 30
0.0
 10
264.8489071593729
 20
799.9866623790056
 30
0.0
 10
265.5538068037234
 20
796.9103000006176
 30
0.0
 10
266.6441868997044
 20
793.9517068592666
 30
0.0
 10
268.008848626624
 20
791.1133198404011
 30
0.0
 10
270.080092905229
 20
787.4474107441495
 30
0.0
 10
272.9054316521253
 20
783.0104135196509
 30
0.0
 10
276.0418604661807
 20
777.553300777461
 30
0.0
 10
278.0410243490685
 20
772.1678997571
 30
0.0
 10
278.5914536383406
 20
767.0618316423512
 30
0.0
 10
278.1537611368104
 20
762.5261790758295
 30
0.0
 10
276.8114278313955
 20
758.1685672039907
 30
0.0
 10
274.5845219072664
 20
754.1897222200223
 30
0.0
 10
271.6034913716555
 20
750.7429902501411
 30
0.0
 10
267.9871943186272
 20
747.9659276959053
 30
0.0
 10
263.8685232007367
 20
746.0090963535674
 30
0.0
 10
259.4435208266937
 20
744.9237084408129
 30
0.0
 10
254.8846694566447
 20
744.7481984170696
 30
0.0
 10
250.4027419384013
 20
745.5467767003876
 30
0.0
 10
246.1302344950196
 20
747.179501835802
 30
0.0
 10
243.6719172163961
 20
748.9483715810877
 30
0.0
 10
242.4428843638244
 20
749.8327159445189
 30
0.0
 11
423.2796351539569
 21
930.2401540508843
 31
0.0
 11
423.9816756360242
 21
924.1985434604935
 31
0.0
 11
423.0996010729366
 21
918.1771894896426
 31
0.0
 11
420.6941613531776
 21
912.590796234374
 31
0.0
 11
416.8856767903742
 21
907.8484999916911
 31
0.0
 11
411.9792427210973
 21
904.2482753884542
 31
0.0
 11
406.312774058737
 21
902.0380760125256
 31
0.0
 11
402.2972163307411
 21
901.4171777716497
 31
0.0
 11
398.2240822083133
 21
901.3900443754255
 31
0.0
 11
394.1674636448217
 21
901.840472688908
 31
0.0
 11
390.1761543919249
 21
902.6478976391404
 31
0.0
 11
386.2358999076348
 21
903.6907030807236
 31
0.0
 11
382.3261392179793
 21
904.8511203657101
 31
0.0
 11
378.4170149356296
 21
906.013562895803
 31
0.0
 11
374.478367761413
 21
907.0625184315584
 31
0.0
 11
370.4890968560317
 21
907.8803319666995
 31
0.0
 11
366.4341678919648
 21
908.3455682826734
 31
0.0
 11
362.3609034270073
 21
908.3375000548153
 31
0.0
 11
358.3417379498349
 21
907.7395341176807
 31
0.0
 11
354.5190531718786
 21
906.4916002185662
 31
0.0
 11
350.9382555970558
 21
904.6504724352446
 31
0.0
 11
347.6593711403032
 21
902.3060784947982
 31
0.0
 11
344.7274337396841
 21
899.5492159417943
 31
0.0
 11
342.1422665242255
 21
896.4599310429578
 31
0.0
 11
339.8961611768298
 21
893.1120090111674
 31
0.0
 11
336.3441121909846
 21
885.9121752780345
 31
0.0
 11
333.7570564306179
 21
878.279453415113
 31
0.0
 11
331.7636861145936
 21
870.4481708601063
 31
0.0
 11
329.9643565922565
 21
862.5795756754142
 31
0.0
 11
327.9354385482632
 21
854.7771523866702
 31
0.0
 11
325.2697351841784
 21
847.1885660218591
 31
0.0
 11
321.5489567093489
 21
840.0010428201156
 31
0.0
 11
316.5748068718515
 21
833.6764437682341
 31
0.0
 11
310.2700816813433
 21
828.7743860127187
 31
0.0
 11
302.1518502434692
 21
825.5114976347058
 31
0.0
 11
293.4812448590976
 21
823.6626157113981
 31
0.0
 11
284.7470908630796
 21
821.9512544080965
 31
0.0
 11
280.4838832304715
 21
820.736521061722
 31
0.0
 11
276.3860863471223
 21
819.0755108215803
 31
0.0
 11
272.5869959473032
 21
816.8408621854696
 31
0.0
 11
269.2557732665207
 21
813.9148700344738
 31
0.0
 11
266.6616025400517
 21
810.3446934960577
 31
0.0
 11
265.0877265262482
 21
806.2502880415645
 31
0.0
 11
264.7191321920365
 21
803.1385498916104
 31
0.0
 11
264.9282878099045
 21
800.0020261104585
 31
0.0
 11
265.6189926323862
 21
796.9268140864831
 31
0.0
 11
266.6892532023742
 21
793.9731740740265
 31
0.0
 11
268.0388892000645
 21
791.1307991228161
 31
0.0
 11
269.5743430834049
 21
788.3799354052198
 31
0.0
 11
272.8700629214243
 21
782.9765838667422
 31
0.0
 11
275.8970058956775
 21
777.4514966640038
 31
0.0
 11
277.9480740650688
 21
771.5619649599575
 31
0.0
 11
278.4370195713309
 21
767.0620347061124
 31
0.0
 11
278.0029216355767
 21
762.555549417471
 31
0.0
 11
276.6640090990645
 21
758.2316905639805
 31
0.0
 11
274.4590086595679
 21
754.2786652546924
 31
0.0
 11
271.4973840696334
 21
750.8543925114368
 31
0.0
 11
267.9034712550473
 21
748.1026236715454
 31
0.0
 11
263.8177581025194
 21
746.1544458679789
 31
0.0
 11
259.4209025309118
 21
745.0753164481966
 31
0.0
 11
254.8974935059226
 21
744.9105350736609
 31
0.0
 11
250.4379436115709
 21
745.6857234709919
 31
0.0
 11
246.2274921951637
 21
747.3497354606125
 31
0.0
 11
242.4428843638244
 21
749.8327159445189
 31
0.0
  0
LINE
  5
10203
330
1F
100
AcDbEntity
  8
LAYER_1
 62
     7
100
AcDbLine
 10
410.1949710016827
 20
681.8457748105719
 30
0.0
 11
418.0882513441695
 21
805.7724332600444
 31
0.0
  0
LINE
  5
10204
330
1F
100
AcDbEntity
  8
LAYER_1
 62
     7
100
AcDbLine
 10
410.1949710016827
 20
681.8457748105719
 30
0.0
 11
229.9380138013471
 21
693.3269098195174
 31
0.0
  0
SPLINE
  5
10205
330
1F
100
AcDbEntity
  8
LAYER_1
 62
     7
100
AcDbSpline
210
0.0
220
0.0
230
1.0
 70
     8
 71
     3
 72
    70
 73
    66
 74
    64
 42
0.000000001
 43
0.0000000001
 44
0.0000000001
 40
0.0
 40
0.0
 40
0.0
 40
0.0
 40
6.096584209256274
 40
12.19668069149399
 40
18.2932660438771
 40
24.38984972460925
 40
30.48994514252087
 40
36.58653262109151
 40
40.90050875856573
 40
45.22709812318002
 40
49.5641202884111
 40
53.88973851751139
 40
58.21960521108156
 40
62.55190770391324
 40
66.88546294126049
 40
71.21497472243084
 40
75.5386190239816
 40
79.87600401925981
 40
84.20151603745182
 40
88.51273367653366
 40
93.9935471997139
 40
99.50703844795076
 40
105.0466162785686
 40
110.5584583570482
 40
116.0803176862137
 40
121.607284622487
 40
127.1398382133477
 40
132.6601157414019
 40
138.1631225824772
 40
143.7031809981121
 40
149.2116077328846
 40
154.679469065144
 40
160.4345480086208
 40
166.2671542911349
 40
172.1412220052343
 40
175.0584116798688
 40
177.972242337671
 40
180.8815832135484
 40
183.8006633716959
 40
186.7116351253495
 40
189.6128464096035
 40
192.4749742976549
 40
195.3428652506996
 40
198.2153926804741
 40
201.0812397688713
 40
203.9511819905983
 40
206.8246782057544
 40
212.5355943584722
 40
218.2788459943683
 40
224.0441602278324
 40
229.8027914658513
 40
235.5480164735736
 40
241.2697526651745
 40
244.1433756468436
 40
247.0139296923599
 40
249.8809789836314
 40
252.7540038859403
 40
255.6227715786195
 40
258.4864536787085
 40
261.4827860760777
 40
264.4796812885136
 40
267.4760161641636
 40
270.4723520345956
 40
273.469247247031
 40
276.4655796444005
 40
276.4655796444005
 40
276.4655796444005
 40
276.4655796444005
 10
229.9380138013471
 20
693.3269098195174
 30
0.0
 10
229.7011720962134
 20
695.3574211513976
 30
0.0
 10
229.2273522402424
 20
699.4196136030002
 30
0.0
 10
230.5683998707259
 20
705.4756334153242
 30
0.0
 10
233.3078036566475
 20
710.9908475375179
 30
0.0
 10
237.4948974836425
 20
715.5357373952236
 30
0.0
 10
242.6937034416693
 20
718.8435902982499
 30
0.0
 10
248.0139784297558
 20
720.5133422030765
 30
0.0
 10
252.9387643637956
 20
720.8565580898494
 30
0.0
 10
257.2625690861304
 20
720.4903548458883
 30
0.0
 10
261.508423551007
 20
719.6015006052161
 30
0.0
 10
265.6528806790585
 20
718.3316651738071
 30
0.0
 10
269.7153477572699
 20
716.8325220582659
 30
0.0
 10
273.7429349435639
 20
715.2377901209738
 30
0.0
 10
277.7862262905608
 20
713.6823100905058
 30
0.0
 10
281.8914178064355
 20
712.3013654179277
 30
0.0
 10
286.0939255688979
 20
711.2322906031068
 30
0.0
 10
290.3928751731272
 20
710.6345555890268
 30
0.0
 10
294.7347398264793
 20
710.6442476439041
 30
0.0
 10
299.3975224275267
 20
711.4762906702022
 30
0.0
 10
304.1163431217864
 20
713.5575946489247
 30
0.0
 10
308.5872770713457
 20
716.8335681375825
 30
0.0
 10
312.4555888784848
 20
720.801174102788
 30
0.0
 10
315.7944028986208
 20
725.2134085235082
 30
0.0
 10
318.8014023299633
 20
729.8447317809962
 30
0.0
 10
321.6941995328444
 20
734.5539985595306
 30
0.0
 10
324.6996787808615
 20
739.1941546941076
 30
0.0
 10
328.0272863334309
 20
743.6060759422053
 30
0.0
 10
331.861861355663
 20
747.6057672756762
 30
0.0
 10
336.3422597259055
 20
750.88436309872
 30
0.0
 10
341.4088686986754
 20
753.1579369729468
 30
0.0
 10
347.0026485466035
 20
754.0528700235961
 30
0.0
 10
352.6882579273105
 20
753.1088026304121
 30
0.0
 10
358.1307574159653
 20
751.0110998613832
 30
0.0
 10
362.5394342206849
 20
748.9318551480976
 30
0.0
 10
366.1255597744997
 20
747.3920132652019
 30
0.0
 10
368.8667757503268
 20
746.3979065012793
 30
0.0
 10
371.6882791125385
 20
745.6480625218949
 30
0.0
 10
374.5832620364922
 20
745.2494996964631
 30
0.0
 10
377.5063485848195
 20
745.2890801690153
 30
0.0
 10
380.3623266301034
 20
745.857965256354
 30
0.0
 10
383.0163988838642
 20
747.0226404871119
 30
0.0
 10
385.3833826327964
 20
748.6693260082712
 30
0.0
 10
387.4241123418445
 20
750.7056606191742
 30
0.0
 10
389.1010296237982
 20
753.0482440540429
 30
0.0
 10
390.4233616719817
 20
755.6050385193089
 30
0.0
 10
391.7355892263344
 20
759.1998969559211
 30
0.0
 10
392.6065650601303
 20
763.9291018891245
 30
0.0
 10
392.7627824798282
 20
769.6784160844835
 30
0.0
 10
392.4239651345507
 20
775.4264664310871
 30
0.0
 10
391.9673441005292
 20
781.1643967103324
 30
0.0
 10
391.7855437547952
 20
786.9079025061196
 30
0.0
 10
392.1876532603961
 20
791.6920480434578
 30
0.0
 10
393.0299865287191
 20
795.4264244915596
 30
0.0
 10
393.961684623124
 20
798.1481944272908
 30
0.0
 10
395.2255020212048
 20
800.7348645076995
 30
0.0
 10
396.8497330107485
 20
803.1139475695018
 30
0.0
 10
398.8277538009472
 20
805.2091552666209
 30
0.0
 10
401.1759172265516
 20
806.9559767711688
 30
0.0
 10
403.8682205820757
 20
808.2180677548058
 30
0.0
 10
406.7979435822078
 20
808.9311811195203
 30
0.0
 10
409.8145626898563
 20
809.0537310125537
 30
0.0
 10
412.7840953891797
 20
808.5442456786433
 30
0.0
 10
415.6218752754414
 20
807.4920780091868
 30
0.0
 10
417.2661774592486
 20
806.3456122887965
 30
0.0
 10
418.0882513441695
 20
805.7724332600444
 30
0.0
 11
229.9380138013471
 21
693.3269098195174
 31
0.0
 11
229.5692760971248
 21
699.4123326911047
 31
0.0
 11
230.8018732352861
 21
705.3866009632536
 31
0.0
 11
233.549039365648
 21
710.8291583778414
 31
0.0
 11
237.6626313545734
 21
715.328790976712
 31
0.0
 11
242.8107588389157
 21
718.6010910107225
 31
0.0
 11
248.6310305602399
 21
720.4157028077244
 31
0.0
 11
252.9323953112805
 21
720.7453259155341
 31
0.0
 11
257.2454813011128
 21
720.4037636601461
 31
0.0
 11
261.4950262001834
 21
719.5370864350564
 31
0.0
 11
265.6381292507181
 21
718.2938365902646
 31
0.0
 11
269.7083634586919
 21
716.8170363071092
 31
0.0
 11
273.7451823207566
 21
715.2444784022058
 31
0.0
 11
277.7982666122398
 21
713.710787194279
 31
0.0
 11
281.9092985501643
 21
712.3528149306971
 31
0.0
 11
286.10572429068
 21
711.3117044415224
 31
0.0
 11
290.4046773640614
 21
710.7355872050774
 31
0.0
 11
294.7300499568532
 21
710.770316919283
 31
0.0
 11
298.969514393988
 21
711.5536041065905
 31
0.0
 11
304.0027211554025
 21
713.7229695835738
 31
0.0
 11
308.4787777791014
 21
716.9422090660953
 31
0.0
 11
312.3730246958319
 21
720.881975999939
 31
0.0
 11
315.7376389062622
 21
725.2477261431638
 31
0.0
 11
318.7808422474752
 21
729.8553116144408
 31
0.0
 11
321.7120429578649
 21
734.5409733510655
 31
0.0
 11
324.756514086177
 21
739.1605344540947
 31
0.0
 11
328.1151199965066
 21
743.5415423661898
 31
0.0
 11
331.9607389231185
 21
747.4778222551465
 31
0.0
 11
336.451019840393
 21
750.7227605492606
 31
0.0
 11
341.4975148542251
 21
752.9308486742511
 31
0.0
 11
346.9040379135149
 21
753.7475591236669
 31
0.0
 11
352.6004538271191
 21
752.9279376348761
 31
0.0
 11
358.0881653836568
 21
750.9520029398357
 31
0.0
 11
363.4500874641274
 21
748.5531567353476
 31
0.0
 11
366.1371757561574
 21
747.4175722564867
 31
0.0
 11
368.8814753675924
 21
746.4381700178608
 31
0.0
 11
371.6974993726392
 21
745.7072301194758
 31
0.0
 11
374.5911031989253
 21
745.3224108551549
 31
0.0
 11
377.5015416338804
 21
745.3781303930732
 31
0.0
 11
380.3434313236216
 21
745.961816873322
 31
0.0
 11
382.9683824020562
 21
747.1026095290601
 31
0.0
 11
385.3276211558166
 21
748.7331894937695
 31
0.0
 11
387.3648438112248
 21
750.7583160792199
 31
0.0
 11
389.0412257095288
 21
753.0827134774961
 31
0.0
 11
390.3668403139459
 21
755.6281631974095
 31
0.0
 11
391.3588095974796
 21
758.3250090289398
 31
0.0
 11
392.4573386585398
 21
763.9292750116872
 31
0.0
 11
392.6803414101464
 21
769.6681955657634
 31
0.0
 11
392.4041646777459
 21
775.4268911318673
 31
0.0
 11
392.0127875263679
 21
781.1722072816424
 31
0.0
 11
391.8963887007571
 21
786.9162530424937
 31
0.0
 11
392.4405271688454
 21
792.6120566182697
 31
0.0
 11
393.080141447294
 21
795.4135923784522
 31
0.0
 11
394.0174682951153
 21
798.1268006101557
 31
0.0
 11
395.2846213384134
 21
800.6986277434289
 31
0.0
 11
396.909744288912
 21
803.0678570453433
 31
0.0
 11
398.8851398592283
 21
805.1481552007372
 31
0.0
 11
401.189161918506
 21
806.8487896472693
 31
0.0
 11
403.9008937075614
 21
808.1233556674308
 31
0.0
 11
406.8126118514876
 21
808.8327768150239
 31
0.0
 11
409.8067151126529
 21
808.9483983896373
 31
0.0
 11
412.7619553624825
 21
808.4538443337196
 31
0.0
 11
415.5601389239339
 21
807.3807415097826
 31
0.0
 11
418.0882513441695
 21
805.7724332600444
 31
0.0
  0
LINE
  5
10206
330
1F
100
AcDbEntity
  8
LAYER_1
 62
     7
100
AcDbLine
 10
396.8399344377567
 20
504.4153075563067
 30
0.0
 11
404.7332147802438
 21
628.3419660057793
 31
0.0
  0
LINE
  5
10207
330
1F
100
AcDbEntity
  8
LAYER_1
 62
     7
100
AcDbLine
 10
396.8399344377567
 20
504.4153075563067
 30
0.0
 11
216.5829772374213
 21
515.8964425652522
 31
0.0
  0
SPLINE
  5
10208
330
1F
100
AcDbEntity
  8
LAYER_1
 62
     7
100
AcDbSpline
210
0.0
220
0.0
230
1.0
 70
     8
 71
     3
 72
    70
 73
    66
 74
    64
 42
0.000000001
 43
0.0000000001
 44
0.0000000001
 40
0.0
 40
0.0
 40
0.0
 40
0.0
 40
6.09658420925616
 40
12.19668069149399
 40
18.2932660438771
 40
24.38984972460924
 40
30.48994514252087
 40
36.58653262109161
 40
40.90050875856571
 40
45.22709812318009
 40
49.56412028841108
 40
53.88973851751133
 40
58.21960521108161
 40
62.5519077039134
 40
66.8854629412608
 40
71.21497472243078
 40
75.53861902398154
 40
79.87600401925975
 40
84.201516037452
 40
88.5127336765336
 40
93.9935471997139
 40
99.50703844795106
 40
105.0466162785687
 40
110.5584583570482
 40
116.0803176862135
 40
121.6072846224869
 40
127.1398382133478
 40
132.660115741402
 40
138.1631225824772
 40
143.7031809981122
 40
149.2116077328847
 40
154.6794690651441
 40
160.4345480086209
 40
166.2671542911351
 40
172.1412220052346
 40
175.0584116798689
 40
177.9722423376713
 40
180.8815832135485
 40
183.8006633716957
 40
186.7116351253498
 40
189.6128464096039
 40
192.4749742976549
 40
195.3428652507
 40
198.2153926804742
 40
201.0812397688713
 40
203.9511819905984
 40
206.8246782057545
 40
212.5355943584726
 40
218.2788459943685
 40
224.0441602278324
 40
229.8027914658515
 40
235.5480164735739
 40
241.2697526651747
 40
244.1433756468438
 40
247.0139296923601
 40
249.8809789836316
 40
252.7540038859404
 40
255.6227715786195
 40
258.4864536787088
 40
261.4827860760781
 40
264.479681288514
 40
267.4760161641638
 40
270.4723520345958
 40
273.4692472470314
 40
276.4655796444006
 40
276.4655796444006
 40
276.4655796444006
 40
276.4655796444006
 10
216.5829772374213
 20
515.8964425652522
 30
0.0
 10
216.3461355322877
 20
517.9269538971323
 30
0.0
 10
215.8723156763167
 20
521.9891463487351
 30
0.0
 10
217.2133633068001
 20
528.045166161059
 30
0.0
 10
219.9527670927217
 20
533.5603802832525
 30
0.0
 10
224.1398609197166
 20
538.1052701409583
 30
0.0
 10
229.3386668777437
 20
541.4131230439848
 30
0.0
 10
234.65894186583
 20
543.0828749488114
 30
0.0
 10
239.58372779987
 20
543.4260908355841
 30
0.0
 10
243.9075325222047
 20
543.0598875916232
 30
0.0
 10
248.1533869870812
 20
542.1710333509507
 30
0.0
 10
252.2978441151329
 20
540.901197919542
 30
0.0
 10
256.3603111933442
 20
539.4020548040005
 30
0.0
 10
260.3878983796384
 20
537.8073228667088
 30
0.0
 10
264.4311897266352
 20
536.2518428362406
 30
0.0
 10
268.5363812425098
 20
534.8708981636624
 30
0.0
 10
272.7388890049722
 20
533.8018233488416
 30
0.0
 10
277.0378386092014
 20
533.2040883347615
 30
0.0
 10
281.3797032625536
 20
533.2137803896388
 30
0.0
 10
286.0424858636011
 20
534.0458234159369
 30
0.0
 10
290.7613065578606
 20
536.1271273946596
 30
0.0
 10
295.2322405074204
 20
539.4031008833169
 30
0.0
 10
299.100552314559
 20
543.370706848523
 30
0.0
 10
302.439366334695
 20
547.7829412692427
 30
0.0
 10
305.4463657660373
 20
552.414264526731
 30
0.0
 10
308.3391629689188
 20
557.1235313052653
 30
0.0
 10
311.3446422169355
 20
561.7636874398426
 30
0.0
 10
314.6722497695056
 20
566.17560868794
 30
0.0
 10
318.5068247917371
 20
570.1753000214107
 30
0.0
 10
322.9872231619797
 20
573.453895844455
 30
0.0
 10
328.0538321347496
 20
575.7274697186816
 30
0.0
 10
333.6476119826777
 20
576.6224027693311
 30
0.0
 10
339.3332213633847
 20
575.6783353761467
 30
0.0
 10
344.7757208520397
 20
573.5806326071183
 30
0.0
 10
349.1843976567594
 20
571.5013878938323
 30
0.0
 10
352.7705232105739
 20
569.9615460109366
 30
0.0
 10
355.5117391864014
 20
568.9674392470142
 30
0.0
 10
358.3332425486126
 20
568.2175952676299
 30
0.0
 10
361.2282254725664
 20
567.8190324421975
 30
0.0
 10
364.151312020894
 20
567.8586129147502
 30
0.0
 10
367.0072900661779
 20
568.427498002089
 30
0.0
 10
369.6613623199385
 20
569.5921732328464
 30
0.0
 10
372.0283460688708
 20
571.2388587540063
 30
0.0
 10
374.0690757779188
 20
573.275193364909
 30
0.0
 10
375.7459930598724
 20
575.6177767997779
 30
0.0
 10
377.0683251080562
 20
578.1745712650437
 30
0.0
 10
378.3805526624088
 20
581.7694297016558
 30
0.0
 10
379.2515284962047
 20
586.498634634859
 30
0.0
 10
379.4077459159026
 20
592.2479488302188
 30
0.0
 10
379.0689285706252
 20
597.9959991768217
 30
0.0
 10
378.6123075366033
 20
603.7339294560672
 30
0.0
 10
378.4305071908695
 20
609.4774352518543
 30
0.0
 10
378.8326166964708
 20
614.2615807891926
 30
0.0
 10
379.6749499647932
 20
617.9959572372944
 30
0.0
 10
380.6066480591984
 20
620.7177271730257
 30
0.0
 10
381.8704654572794
 20
623.3043972534343
 30
0.0
 10
383.4946964468227
 20
625.6834803152365
 30
0.0
 10
385.4727172370211
 20
627.778688012356
 30
0.0
 10
387.8208806626261
 20
629.5255095169032
 30
0.0
 10
390.51318401815
 20
630.7876005005407
 30
0.0
 10
393.4429070182823
 20
631.5007138652547
 30
0.0
 10
396.4595261259307
 20
631.623263758289
 30
0.0
 10
399.4290588252539
 20
631.1137784243778
 30
0.0
 10
402.2668387115156
 20
630.0616107549213
 30
0.0
 10
403.9111408953229
 20
628.9151450345314
 30
0.0
 10
404.7332147802438
 20
628.3419660057793
 30
0.0
 11
216.5829772374213
 21
515.8964425652522
 31
0.0
 11
216.214239533199
 21
521.9818654368394
 31
0.0
 11
217.4468366713603
 21
527.9561337089884
 31
0.0
 11
220.1940028017223
 21
533.3986911235762
 31
0.0
 11
224.3075947906476
 21
537.8983237224468
 31
0.0
 11
229.45572227499
 21
541.1706237564573
 31
0.0
 11
235.2759939963142
 21
542.9852355534592
 31
0.0
 11
239.5773587473548
 21
543.3148586612688
 31
0.0
 11
243.8904447371872
 21
542.9732964058809
 31
0.0
 11
248.1399896362576
 21
542.1066191807911
 31
0.0
 11
252.2830926867923
 21
540.8633693359994
 31
0.0
 11
256.3533268947663
 21
539.386569052844
 31
0.0
 11
260.3901457568311
 21
537.8140111479406
 31
0.0
 11
264.4432300483144
 21
536.2803199400137
 31
0.0
 11
268.5542619862385
 21
534.922347676432
 31
0.0
 11
272.7506877267542
 21
533.8812371872572
 31
0.0
 11
277.0496408001356
 21
533.3051199508122
 31
0.0
 11
281.3750133929277
 21
533.3398496650177
 31
0.0
 11
285.6144778300622
 21
534.1231368523252
 31
0.0
 11
290.6476845914767
 21
536.2925023293086
 31
0.0
 11
295.1237412151761
 21
539.51174181183
 31
0.0
 11
299.0179881319061
 21
543.4515087456738
 31
0.0
 11
302.3826023423364
 21
547.8172588888987
 31
0.0
 11
305.4258056835492
 21
552.4248443601755
 31
0.0
 11
308.3570063939392
 21
557.1105060968002
 31
0.0
 11
311.4014775222513
 21
561.7300671998296
 31
0.0
 11
314.760083432581
 21
566.1110751119245
 31
0.0
 11
318.6057023591927
 21
570.0473550008813
 31
0.0
 11
323.0959832764672
 21
573.2922932949955
 31
0.0
 11
328.1424782902993
 21
575.5003814199861
 31
0.0
 11
333.5490013495892
 21
576.3170918694017
 31
0.0
 11
339.2454172631933
 21
575.4974703806109
 31
0.0
 11
344.7331288197313
 21
573.5215356855706
 31
0.0
 11
350.0950509002018
 21
571.1226894810824
 31
0.0
 11
352.7821391922316
 21
569.9871050022215
 31
0.0
 11
355.5264388036669
 21
569.0077027635956
 31
0.0
 11
358.3424628087134
 21
568.2767628652106
 31
0.0
 11
361.2360666349994
 21
567.8919436008896
 31
0.0
 11
364.1465050699549
 21
567.947663138808
 31
0.0
 11
366.9883947596961
 21
568.5313496190569
 31
0.0
 11
369.6133458381305
 21
569.6721422747949
 31
0.0
 11
371.9725845918911
 21
571.3027222395044
 31
0.0
 11
374.009807247299
 21
573.3278488249547
 31
0.0
 11
375.6861891456031
 21
575.6522462232308
 31
0.0
 11
377.0118037500204
 21
578.1976959431443
 31
0.0
 11
378.0037730335541
 21
580.8945417746745
 31
0.0
 11
379.1023020946143
 21
586.4988077574221
 31
0.0
 11
379.3253048462207
 21
592.2377283114982
 31
0.0
 11
379.0491281138204
 21
597.996423877602
 31
0.0
 11
378.6577509624422
 21
603.7417400273772
 31
0.0
 11
378.5413521368316
 21
609.4857857882286
 31
0.0
 11
379.0854906049199
 21
615.1815893640045
 31
0.0
 11
379.7251048833682
 21
617.983125124187
 31
0.0
 11
380.6624317311896
 21
620.6963333558905
 31
0.0
 11
381.9295847744879
 21
623.2681604891636
 31
0.0
 11
383.5547077249862
 21
625.6373897910781
 31
0.0
 11
385.5301032953023
 21
627.717687946472
 31
0.0
 11
387.8341253545805
 21
629.418322393004
 31
0.0
 11
390.5458571436359
 21
630.6928884131657
 31
0.0
 11
393.4575752875621
 21
631.4023095607587
 31
0.0
 11
396.4516785487272
 21
631.5179311353721
 31
0.0
 11
399.4069187985567
 21
631.0233770794543
 31
0.0
 11
402.2051023600084
 21
629.9502742555173
 31
0.0
 11
404.7332147802438
 21
628.3419660057793
 31
0.0
  0
POINT
  5
10216
330
1F
100
AcDbEntity
  8
HOLES
  6
BYBLOCK
100
AcDbPoint
 10
35.59789436382698
 20
383.2124968142174
 30
0.0
  0
POINT
  5
10218
330
1F
100
AcDbEntity
  8
HOLES
  6
BYBLOCK
100
AcDbPoint
 10
165.6094489130525
 20
383.2124968142174
 30
0.0
  0
POINT
  5
10219
330
1F
100
AcDbEntity
  8
HOLES
  6
BYBLOCK
100
AcDbPoint
 10
256.456224318438
 20
54.06208223405827
 30
0.0
  0
POINT
  5
1021A
330
1F
100
AcDbEntity
  8
HOLES
  6
BYBLOCK
100
AcDbPoint
 10
256.456224318438
 20
158.4426485052747
 30
0.0
  0
POINT
  5
1021B
330
1F
100
AcDbEntity
  8
HOLES
  6
BYBLOCK
100
AcDbPoint
 10
785.5416840698028
 20
341.9350091247435
 30
0.0
  0
POINT
  5
1021C
330
1F
100
AcDbEntity
  8
HOLES
  6
BYBLOCK
100
AcDbPoint
 10
672.8173339591835
 20
341.9350091247435
 30
0.0
  0
POINT
  5
1021D
330
1F
100
AcDbEntity
  8
HOLES
  6
BYBLOCK
100
AcDbPoint
 10
536.4314697791503
 20
54.06208223405827
 30
0.0
  0
POINT
  5
1021E
330
1F
100
AcDbEntity
  8
HOLES
  6
BYBLOCK
100
AcDbPoint
 10
536.4314697791503
 20
158.4426485052747
 30
0.0
  0
POINT
  5
1021F
330
1F
100
AcDbEntity
  8
HOLES
  6
BYBLOCK
100
AcDbPoint
 10
536.4314697791505
 20
995.2233965910635
 30
0.0
  0
POINT
  5
10220
330
1F
100
AcDbEntity
  8
HOLES
  6
BYBLOCK
100
AcDbPoint
 10
536.4314697791505
 20
1099.60396286228
 30
0.0
  0
POINT
  5
10221
330
1F
100
AcDbEntity
  8
HOLES
  6
BYBLOCK
100
AcDbPoint
 10
788.9446679879588
 20
656.1039664541726
 30
0.0
  0
POINT
  5
10222
330
1F
100
AcDbEntity
  8
HOLES
  6
BYBLOCK
100
AcDbPoint
 10
676.2203178773395
 20
656.1039664541726
 30
0.0
  0
POLYLINE
  5
10227
330
1F
100
AcDbEntity
  8
TEXT
  6
BYBLOCK
100
AcDb2dPolyline
 66
     1
 10
0.0
 20
0.0
 30
0.0
  0
VERTEX
  5
10228
330
10227
100
AcDbEntity
  8
TEXT
  6
BYBLOCK
100
AcDbVertex
100
AcDb2dVertex
 10
659.1636628960806
 20
968.9535115785293
 30
0.0
  0
VERTEX
  5
10229
330
10227
100
AcDbEntity
  8
TEXT
  6
BYBLOCK
100
AcDbVertex
100
AcDb2dVertex
 10
659.1636628960806
 20
988.9535115785293
 30
0.0
  0
VERTEX
  5
1022A
330
10227
100
AcDbEntity
  8
TEXT
  6
BYBLOCK
100
AcDbVertex
100
AcDb2dVertex
 10
665.8303295627472
 20
975.6201782451959
 30
0.0
  0
VERTEX
  5
1022B
330
10227
100
AcDbEntity
  8
TEXT
  6
BYBLOCK
100
AcDbVertex
100
AcDb2dVertex
 10
672.496996229414
 20
988.9535115785293
 30
0.0
  0
VERTEX
  5
1022C
330
10227
100
AcDbEntity
  8
TEXT
  6
BYBLOCK
100
AcDbVertex
100
AcDb2dVertex
 10
672.496996229414
 20
968.9535115785293
 30
0.0
  0
SEQEND
  5
1024E
330
10227
100
AcDbEntity
  8
TEXT
  6
BYBLOCK
  0
LINE
  5
1022D
330
1F
100
AcDbEntity
  8
TEXT
  6
BYBLOCK
100
AcDbLine
 10
679.1636628960806
 20
968.9535115785293
 30
0.0
 11
685.8303295627472
 21
968.9535115785293
 31
0.0
  0
LINE
  5
1022E
330
1F
100
AcDbEntity
  8
TEXT
  6
BYBLOCK
100
AcDbLine
 10
682.496996229414
 20
968.9535115785293
 30
0.0
 11
682.496996229414
 21
988.9535115785293
 31
0.0
  0
LINE
  5
1022F
330
1F
100
AcDbEntity
  8
TEXT
  6
BYBLOCK
100
AcDbLine
 10
679.1636628960806
 20
988.9535115785293
 30
0.0
 11
685.8303295627472
 21
988.9535115785293
 31
0.0
  0
POLYLINE
  5
10230
330
1F
100
AcDbEntity
  8
TEXT
  6
BYBLOCK
100
AcDb2dPolyline
 66
     1
 10
0.0
 20
0.0
 30
0.0
  0
VERTEX
  5
10231
330
10230
100
AcDbEntity
  8
TEXT
  6
BYBLOCK
100
AcDbVertex
100
AcDb2dVertex
 10
692.496996229414
 20
968.9535115785293
 30
0.0
  0
VERTEX
  5
10232
330
10230
100
AcDbEntity
  8
TEXT
  6
BYBLOCK
100
AcDbVertex
100
AcDb2dVertex
 10
702.496996229414
 20
968.9535115785293
 30
0.0
  0
VERTEX
  5
10233
330
10230
100
AcDbEntity
  8
TEXT
  6
BYBLOCK
100
AcDbVertex
100
AcDb2dVertex
 10
705.8303295627474
 20
972.2868449118627
 30
0.0
  0
VERTEX
  5
10234
330
10230
100
AcDbEntity
  8
TEXT
  6
BYBLOCK
100
AcDbVertex
100
AcDb2dVertex
 10
705.8303295627474
 20
985.6201782451959
 30
0.0
  0
VERTEX
  5
10235
330
10230
100
AcDbEntity
  8
TEXT
  6
BYBLOCK
100
AcDbVertex
100
AcDb2dVertex
 10
702.496996229414
 20
988.9535115785293
 30
0.0
  0
VERTEX
  5
10236
330
10230
100
AcDbEntity
  8
TEXT
  6
BYBLOCK
100
AcDbVertex
100
AcDb2dVertex
 10
692.496996229414
 20
988.9535115785293
 30
0.0
  0
SEQEND
  5
1024D
330
10230
100
AcDbEntity
  8
TEXT
  6
BYBLOCK
  0
LINE
  5
10237
330
1F
100
AcDbEntity
  8
TEXT
  6
BYBLOCK
100
AcDbLine
 10
695.8303295627474
 20
988.9535115785293
 30
0.0
 11
695.8303295627474
 21
968.9535115785293
 31
0.0
  0
POLYLINE
  5
10238
330
1F
100
AcDbEntity
  8
TEXT
  6
BYBLOCK
100
AcDb2dPolyline
 66
     1
 10
0.0
 20
0.0
 30
0.0
  0
VERTEX
  5
10239
330
10238
100
AcDbEntity
  8
TEXT
  6
BYBLOCK
100
AcDbVertex
100
AcDb2dVertex
 10
712.496996229414
 20
968.9535115785293
 30
0.0
  0
VERTEX
  5
1023A
330
10238
100
AcDbEntity
  8
TEXT
  6
BYBLOCK
100
AcDbVertex
100
AcDb2dVertex
 10
722.496996229414
 20
968.9535115785293
 30
0.0
  0
VERTEX
  5
1023B
330
10238
100
AcDbEntity
  8
TEXT
  6
BYBLOCK
100
AcDbVertex
100
AcDb2dVertex
 10
725.8303295627474
 20
972.2868449118627
 30
0.0
  0
VERTEX
  5
1023C
330
10238
100
AcDbEntity
  8
TEXT
  6
BYBLOCK
100
AcDbVertex
100
AcDb2dVertex
 10
725.8303295627474
 20
985.6201782451959
 30
0.0
  0
VERTEX
  5
1023D
330
10238
100
AcDbEntity
  8
TEXT
  6
BYBLOCK
100
AcDbVertex
100
AcDb2dVertex
 10
722.496996229414
 20
988.9535115785293
 30
0.0
  0
VERTEX
  5
1023E
330
10238
100
AcDbEntity
  8
TEXT
  6
BYBLOCK
100
AcDbVertex
100
AcDb2dVertex
 10
712.496996229414
 20
988.9535115785293
 30
0.0
  0
SEQEND
  5
1024C
330
10238
100
AcDbEntity
  8
TEXT
  6
BYBLOCK
  0
LINE
  5
1023F
330
1F
100
AcDbEntity
  8
TEXT
  6
BYBLOCK
100
AcDbLine
 10
715.8303295627474
 20
988.9535115785293
 30
0.0
 11
715.8303295627474
 21
968.9535115785293
 31
0.0
  0
POLYLINE
  5
10240
330
1F
100
AcDbEntity
  8
TEXT
  6
BYBLOCK
100
AcDb2dPolyline
 66
     1
 10
0.0
 20
0.0
 30
0.0
  0
VERTEX
  5
10241
330
10240
100
AcDbEntity
  8
TEXT
  6
BYBLOCK
100
AcDbVertex
100
AcDb2dVertex
 10
732.496996229414
 20
988.9535115785293
 30
0.0
  0
VERTEX
  5
10242
330
10240
100
AcDbEntity
  8
TEXT
  6
BYBLOCK
100
AcDbVertex
100
AcDb2dVertex
 10
732.496996229414
 20
968.9535115785293
 30
0.0
  0
VERTEX
  5
10243
330
10240
100
AcDbEntity
  8
TEXT
  6
BYBLOCK
100
AcDbVertex
100
AcDb2dVertex
 10
745.8303295627474
 20
968.9535115785293
 30
0.0
  0
SEQEND
  5
1024B
330
10240
100
AcDbEntity
  8
TEXT
  6
BYBLOCK
  0
POLYLINE
  5
10244
330
1F
100
AcDbEntity
  8
TEXT
  6
BYBLOCK
100
AcDb2dPolyline
 66
     1
 10
0.0
 20
0.0
 30
0.0
  0
VERTEX
  5
10245
330
10244
100
AcDbEntity
  8
TEXT
  6
BYBLOCK
100
AcDbVertex
100
AcDb2dVertex
 10
765.8303295627474
 20
968.9535115785293
 30
0.0
  0
VERTEX
  5
10246
330
10244
100
AcDbEntity
  8
TEXT
  6
BYBLOCK
100
AcDbVertex
100
AcDb2dVertex
 10
752.496996229414
 20
968.9535115785293
 30
0.0
  0
VERTEX
  5
10247
330
10244
100
AcDbEntity
  8
TEXT
  6
BYBLOCK
100
AcDbVertex
100
AcDb2dVertex
 10
752.496996229414
 20
988.9535115785293
 30
0.0
  0
VERTEX
  5
10248
330
10244
100
AcDbEntity
  8
TEXT
  6
BYBLOCK
100
AcDbVertex
100
AcDb2dVertex
 10
765.8303295627474
 20
988.9535115785293
 30
0.0
  0
SEQEND
  5
1024A
330
10244
100
AcDbEntity
  8
TEXT
  6
BYBLOCK
  0
LINE
  5
10249
330
1F
100
AcDbEntity
  8
TEXT
  6
BYBLOCK
100
AcDbLine
 10
752.496996229414
 20
978.9535115785293
 30
0.0
 11
759.1636628960806
 21
978.9535115785293
 31
0.0
  0
POLYLINE
  5
1024F
330
1F
100
AcDbEntity
  8
TEXT
  6
BYBLOCK
100
AcDb2dPolyline
 66
     1
 10
0.0
 20
0.0
 30
0.0
  0
VERTEX
  5
10250
330
1024F
100
AcDbEntity
  8
TEXT
  6
BYBLOCK
100
AcDbVertex
100
AcDb2dVertex
 10
678.1855272976363
 20
47.59265736636917
 30
0.0
  0
VERTEX
  5
10251
330
1024F
100
AcDbEntity
  8
TEXT
  6
BYBLOCK
100
AcDbVertex
100
AcDb2dVertex
 10
688.1855272976363
 20
47.59265736636917
 30
0.0
  0
VERTEX
  5
10252
330
1024F
100
AcDbEntity
  8
TEXT
  6
BYBLOCK
100
AcDbVertex
100
AcDb2dVertex
 10
691.5188606309697
 20
50.9259906997025
 30
0.0
  0
VERTEX
  5
10253
330
1024F
100
AcDbEntity
  8
TEXT
  6
BYBLOCK
100
AcDbVertex
100
AcDb2dVertex
 10
691.5188606309697
 20
54.25932403303583
 30
0.0
  0
VERTEX
  5
10254
330
1024F
100
AcDbEntity
  8
TEXT
  6
BYBLOCK
100
AcDbVertex
100
AcDb2dVertex
 10
688.1855272976363
 20
57.59265736636917
 30
0.0
  0
VERTEX
  5
10255
330
1024F
100
AcDbEntity
  8
TEXT
  6
BYBLOCK
100
AcDbVertex
100
AcDb2dVertex
 10
691.5188606309697
 20
60.9259906997025
 30
0.0
  0
VERTEX
  5
10256
330
1024F
100
AcDbEntity
  8
TEXT
  6
BYBLOCK
100
AcDbVertex
100
AcDb2dVertex
 10
691.5188606309697
 20
64.25932403303582
 30
0.0
  0
VERTEX
  5
10257
330
1024F
100
AcDbEntity
  8
TEXT
  6
BYBLOCK
100
AcDbVertex
100
AcDb2dVertex
 10
688.1855272976363
 20
67.59265736636917
 30
0.0
  0
VERTEX
  5
10258
330
1024F
100
AcDbEntity
  8
TEXT
  6
BYBLOCK
100
AcDbVertex
100
AcDb2dVertex
 10
678.1855272976363
 20
67.59265736636917
 30
0.0
  0
SEQEND
  5
10272
330
1024F
100
AcDbEntity
  8
TEXT
  6
BYBLOCK
  0
LINE
  5
10259
330
1F
100
AcDbEntity
  8
TEXT
  6
BYBLOCK
100
AcDbLine
 10
681.5188606309697
 20
67.59265736636917
 30
0.0
 11
681.5188606309697
 21
47.59265736636917
 31
0.0
  0
LINE
  5
1025A
330
1F
100
AcDbEntity
  8
TEXT
  6
BYBLOCK
100
AcDbLine
 10
681.5188606309697
 20
57.59265736636917
 30
0.0
 11
688.1855272976363
 21
57.59265736636917
 31
0.0
  0
POLYLINE
  5
1025B
330
1F
100
AcDbEntity
  8
TEXT
  6
BYBLOCK
100
AcDb2dPolyline
 66
     1
 10
0.0
 20
0.0
 30
0.0
 70
     1
  0
VERTEX
  5
1025C
330
1025B
100
AcDbEntity
  8
TEXT
  6
BYBLOCK
100
AcDbVertex
100
AcDb2dVertex
 10
698.1855272976363
 20
47.59265736636917
 30
0.0
  0
VERTEX
  5
1025D
330
1025B
100
AcDbEntity
  8
TEXT
  6
BYBLOCK
100
AcDbVertex
100
AcDb2dVertex
 10
711.5188606309697
 20
47.59265736636917
 30
0.0
  0
VERTEX
  5
1025E
330
1025B
100
AcDbEntity
  8
TEXT
  6
BYBLOCK
100
AcDbVertex
100
AcDb2dVertex
 10
711.5188606309697
 20
67.59265736636917
 30
0.0
  0
VERTEX
  5
1025F
330
1025B
100
AcDbEntity
  8
TEXT
  6
BYBLOCK
100
AcDbVertex
100
AcDb2dVertex
 10
698.1855272976363
 20
67.59265736636917
 30
0.0
  0
SEQEND
  5
10271
330
1025B
100
AcDbEntity
  8
TEXT
  6
BYBLOCK
  0
LINE
  5
10260
330
1F
100
AcDbEntity
  8
TEXT
  6
BYBLOCK
100
AcDbLine
 10
724.852193964303
 20
47.59265736636917
 30
0.0
 11
724.852193964303
 21
67.59265736636917
 31
0.0
  0
LINE
  5
10261
330
1F
100
AcDbEntity
  8
TEXT
  6
BYBLOCK
100
AcDbLine
 10
718.1855272976363
 20
67.59265736636917
 30
0.0
 11
731.5188606309697
 21
67.59265736636917
 31
0.0
  0
LINE
  5
10262
330
1F
100
AcDbEntity
  8
TEXT
  6
BYBLOCK
100
AcDbLine
 10
744.852193964303
 20
47.59265736636917
 30
0.0
 11
744.852193964303
 21
67.59265736636917
 31
0.0
  0
LINE
  5
10263
330
1F
100
AcDbEntity
  8
TEXT
  6
BYBLOCK
100
AcDbLine
 10
738.1855272976363
 20
67.59265736636917
 30
0.0
 11
751.5188606309697
 21
67.59265736636917
 31
0.0
  0
POLYLINE
  5
10264
330
1F
100
AcDbEntity
  8
TEXT
  6
BYBLOCK
100
AcDb2dPolyline
 66
     1
 10
0.0
 20
0.0
 30
0.0
 70
     1
  0
VERTEX
  5
10265
330
10264
100
AcDbEntity
  8
TEXT
  6
BYBLOCK
100
AcDbVertex
100
AcDb2dVertex
 10
758.1855272976363
 20
47.59265736636917
 30
0.0
  0
VERTEX
  5
10266
330
10264
100
AcDbEntity
  8
TEXT
  6
BYBLOCK
100
AcDbVertex
100
AcDb2dVertex
 10
771.5188606309697
 20
47.59265736636917
 30
0.0
  0
VERTEX
  5
10267
330
10264
100
AcDbEntity
  8
TEXT
  6
BYBLOCK
100
AcDbVertex
100
AcDb2dVertex
 10
771.5188606309697
 20
67.59265736636917
 30
0.0
  0
VERTEX
  5
10268
330
10264
100
AcDbEntity
  8
TEXT
  6
BYBLOCK
100
AcDbVertex
100
AcDb2dVertex
 10
758.1855272976363
 20
67.59265736636917
 30
0.0
  0
SEQEND
  5
10270
330
10264
100
AcDbEntity
  8
TEXT
  6
BYBLOCK
  0
POLYLINE
  5
10269
330
1F
100
AcDbEntity
  8
TEXT
  6
BYBLOCK
100
AcDb2dPolyline
 66
     1
 10
0.0
 20
0.0
 30
0.0
  0
VERTEX
  5
1026A
330
10269
100
AcDbEntity
  8
TEXT
  6
BYBLOCK
100
AcDbVertex
100
AcDb2dVertex
 10
778.1855272976363
 20
47.59265736636917
 30
0.0
  0
VERTEX
  5
1026B
330
10269
100
AcDbEntity
  8
TEXT
  6
BYBLOCK
100
AcDbVertex
100
AcDb2dVertex
 10
778.1855272976363
 20
67.59265736636917
 30
0.0
  0
VERTEX
  5
1026C
330
10269
100
AcDbEntity
  8
TEXT
  6
BYBLOCK
100
AcDbVertex
100
AcDb2dVertex
 10
784.852193964303
 20
54.25932403303583
 30
0.0
  0
VERTEX
  5
1026D
330
10269
100
AcDbEntity
  8
TEXT
  6
BYBLOCK
100
AcDbVertex
100
AcDb2dVertex
 10
791.5188606309697
 20
67.59265736636917
 30
0.0
  0
VERTEX
  5
1026E
330
10269
100
AcDbEntity
  8
TEXT
  6
BYBLOCK
100
AcDbVertex
100
AcDb2dVertex
 10
791.5188606309697
 20
47.59265736636917
 30
0.0
  0
SEQEND
  5
1026F
330
10269
100
AcDbEntity
  8
TEXT
  6
BYBLOCK
  0
LINE
  5
10273
330
1F
100
AcDbEntity
  8
TEXT
  6
BYBLOCK
100
AcDbLine
 10
34.75235989350703
 20
44.9007325876081
 30
0.0
 11
34.75235989350703
 21
64.9007325876081
 31
0.0
  0
LINE
  5
10274
330
1F
100
AcDbEntity
  8
TEXT
  6
BYBLOCK
100
AcDbLine
 10
28.08569322684036
 20
64.9007325876081
 30
0.0
 11
41.41902656017369
 21
64.9007325876081
 31
0.0
  0
POLYLINE
  5
10275
330
1F
100
AcDbEntity
  8
TEXT
  6
BYBLOCK
100
AcDb2dPolyline
 66
     1
 10
0.0
 20
0.0
 30
0.0
 70
     1
  0
VERTEX
  5
10276
330
10275
100
AcDbEntity
  8
TEXT
  6
BYBLOCK
100
AcDbVertex
100
AcDb2dVertex
 10
48.08569322684036
 20
44.9007325876081
 30
0.0
  0
VERTEX
  5
10277
330
10275
100
AcDbEntity
  8
TEXT
  6
BYBLOCK
100
AcDbVertex
100
AcDb2dVertex
 10
61.41902656017369
 20
44.9007325876081
 30
0.0
  0
VERTEX
  5
10278
330
10275
100
AcDbEntity
  8
TEXT
  6
BYBLOCK
100
AcDbVertex
100
AcDb2dVertex
 10
61.41902656017369
 20
64.9007325876081
 30
0.0
  0
VERTEX
  5
10279
330
10275
100
AcDbEntity
  8
TEXT
  6
BYBLOCK
100
AcDbVertex
100
AcDb2dVertex
 10
48.08569322684036
 20
64.9007325876081
 30
0.0
  0
SEQEND
  5
10283
330
10275
100
AcDbEntity
  8
TEXT
  6
BYBLOCK
  0
POLYLINE
  5
1027A
330
1F
100
AcDbEntity
  8
TEXT
  6
BYBLOCK
100
AcDb2dPolyline
 66
     1
 10
0.0
 20
0.0
 30
0.0
  0
VERTEX
  5
1027B
330
1027A
100
AcDbEntity
  8
TEXT
  6
BYBLOCK
100
AcDbVertex
100
AcDb2dVertex
 10
68.08569322684036
 20
44.9007325876081
 30
0.0
  0
VERTEX
  5
1027C
330
1027A
100
AcDbEntity
  8
TEXT
  6
BYBLOCK
100
AcDbVertex
100
AcDb2dVertex
 10
68.08569322684036
 20
64.9007325876081
 30
0.0
  0
VERTEX
  5
1027D
330
1027A
100
AcDbEntity
  8
TEXT
  6
BYBLOCK
100
AcDbVertex
100
AcDb2dVertex
 10
78.08569322684036
 20
64.9007325876081
 30
0.0
  0
VERTEX
  5
1027E
330
1027A
100
AcDbEntity
  8
TEXT
  6
BYBLOCK
100
AcDbVertex
100
AcDb2dVertex
 10
81.41902656017369
 20
61.56739925427477
 30
0.0
  0
VERTEX
  5
1027F
330
1027A
100
AcDbEntity
  8
TEXT
  6
BYBLOCK
100
AcDbVertex
100
AcDb2dVertex
 10
81.41902656017369
 20
58.23406592094143
 30
0.0
  0
VERTEX
  5
10280
330
1027A
100
AcDbEntity
  8
TEXT
  6
BYBLOCK
100
AcDbVertex
100
AcDb2dVertex
 10
78.08569322684036
 20
54.9007325876081
 30
0.0
  0
VERTEX
  5
10281
330
1027A
100
AcDbEntity
  8
TEXT
  6
BYBLOCK
100
AcDbVertex
100
AcDb2dVertex
 10
68.08569322684036
 20
54.9007325876081
 30
0.0
  0
SEQEND
  5
10282
330
1027A
100
AcDbEntity
  8
TEXT
  6
BYBLOCK
  0
ENDSEC
  0
SECTION
  2
OBJECTS
  0
DICTIONARY
  5
C
330
0
100
AcDbDictionary
  3
ACAD_DETAILVIEWSTYLE
350
10170
  3
ACAD_GROUP
350
D
  3
ACAD_IMAGE_VARS
350
10045
  3
ACAD_MLINESTYLE
350
17
  3
ACAD_SCALELIST
350
FFFF
  3
ACAD_SECTIONVIEWSTYLE
350
10171
  3
ACDBVARIABLEDICTIONARY
350
1016C
  3
APPDATA
350
10043
  3
DWGPROPS
350
10287
1001
ACAD
1000
TREAT_AS_HARD
1070
     0
  0
DICTIONARY
  5
1020A
330
2
100
AcDbDictionary
  3
ACAD_LAYERSTATES
360
1020B
  3
ACLYDICTIONARY
360
10215
1001
ACAD
1000
TREAT_AS_HARD
1070
     1
  0
DICTIONARY
  5
10170
102
{ACAD_REACTORS
330
C
102
}
330
C
100
AcDbDictionary
1001
ACAD
1000
TREAT_AS_HARD
1070
     0
  0
DICTIONARY
  5
D
330
C
100
AcDbDictionary
1001
ACAD
1000
TREAT_AS_HARD
1070
     0
  0
RASTERVARIABLES
  5
10045
102
{ACAD_REACTORS
330
C
102
}
330
C
100
AcDbRasterVariables
 90
        0
 70
     1
 71
     1
 72
     0
  0
DICTIONARY
  5
17
330
C
100
AcDbDictionary
  3
STANDARD
350
10209
1001
ACAD
1000
TREAT_AS_HARD
1070
     0
  0
DICTIONARY
  5
FFFF
102
{ACAD_REACTORS
330
C
102
}
330
C
100
AcDbDictionary
1001
ACAD
1000
TREAT_AS_HARD
1070
     0
  0
DICTIONARY
  5
10171
102
{ACAD_REACTORS
330
C
102
}
330
C
100
AcDbDictionary
1001
ACAD
1000
TREAT_AS_HARD
1070
     0
  0
DICTIONARY
  5
1016C
102
{ACAD_REACTORS
330
C
102
}
330
C
100
AcDbDictionary
1001
ACAD
1000
TREAT_AS_HARD
1070
     0
  0
DICTIONARY
  5
10043
102
{ACAD_REACTORS
330
C
102
}
330
C
100
AcDbDictionary
1001
ACAD
1000
TREAT_AS_HARD
1070
     0
  0
XRECORD
  5
10287
102
{ACAD_REACTORS
330
C
102
}
330
C
100
AcDbXrecord
  1
DWGPROPS COOKIE
  2

  3

  4

  6

  7

  8

  9

300
=
301
=
302
=
303
=
304
=
305
=
306
=
307
=
308
=
309
=
 40
0.0
 41
0.0
 42
2456829.107118056
  1

 90
        0
  0
DICTIONARY
  5
1020B
102
{ACAD_REACTORS
330
1020A
102
}
330
1020A
100
AcDbDictionary
1001
ACAD
1000
TREAT_AS_HARD
1070
     0
  0
DICTIONARY
  5
10215
102
{ACAD_REACTORS
330
1020A
102
}
330
1020A
100
AcDbDictionary
1001
ACAD
1000
<All
1000
TREAT_AS_HARD
1070
     0
  0
MLINESTYLE
  5
10209
102
{ACAD_REACTORS
330
17
102
}
330
17
100
AcDbMlineStyle
  2
Standard
 70
     0
  3

 62
   256
 51
90.0
 52
90.0
 71
     2
 49
0.5
 62
   256
  6
BYLAYER
 49
-0.5
 62
   256
  6
BYLAYER
  0
ENDSEC
  0
EOF
