  0
SECTION
  2
HEADER
  9
$ACADVER
  1
AC1014
  9
$HANDSEED
  5
FFFF
  9
$MEASUREMENT
 70
     1
  0
ENDSEC
  0
SECTION
  2
TABLES
  0
TABLE
  2
VPORT
  5
8
330
0
100
AcDbSymbolTable
 70
     4
  0
VPORT
  5
2E
330
8
100
AcDbSymbolTableRecord
100
AcDbViewportTableRecord
  2
*ACTIVE
 70
     0
 10
0.0
 20
0.0
 11
1.0
 21
1.0
 12
210.0
 22
148.5
 13
0.0
 23
0.0
 14
10.0
 24
10.0
 15
10.0
 25
10.0
 16
0.0
 26
0.0
 36
1.0
 17
0.0
 27
0.0
 37
0.0
 40
341.0
 41
1.24
 42
50.0
 43
0.0
 44
0.0
 50
0.0
 51
0.0
 71
     0
 72
   100
 73
     1
 74
     3
 75
     0
 76
     0
 77
     0
 78
     0
  0
ENDTAB
  0
TABLE
  2
LTYPE
  5
5
330
0
100
AcDbSymbolTable
 70
     1
  0
LTYPE
  5
14
330
5
100
AcDbSymbolTableRecord
100
AcDbLinetypeTableRecord
  2
BYBLOCK
 70
     0
  3

 72
    65
 73
     0
 40
0.0
  0
LTYPE
  5
15
330
5
100
AcDbSymbolTableRecord
100
AcDbLinetypeTableRecord
  2
BYLAYER
 70
     0
  3

 72
    65
 73
     0
 40
0.0
  0
LTYPE
  5
16
330
5
100
AcDbSymbolTableRecord
100
AcDbLinetypeTableRecord
  2
CONTINUOUS
 70
     0
  3
Solid line
 72
    65
 73
     0
 40
0.0
  0
ENDTAB
  0
TABLE
  2
LAYER
  5
2
100
AcDbSymbolTable
 70
2
  0
LAYER
  5
50
100
AcDbSymbolTableRecord
100
AcDbLayerTableRecord
  2
0
 70
0
  6
CONTINUOUS
  0
LAYER
  5
51
100
AcDbSymbolTableRecord
100
AcDbLayerTableRecord
  2
magstocklogo
 70
0
  6
CONTINUOUS
  0
ENDTAB
  0
TABLE
  2
STYLE
  5
3
330
0
100
AcDbSymbolTable
 70
     1
  0
STYLE
  5
11
330
3
100
AcDbSymbolTableRecord
100
AcDbTextStyleTableRecord
  2
STANDARD
 70
     0
 40
0.0
 41
1.0
 50
0.0
 71
     0
 42
2.5
  3
txt
  4

  0
ENDTAB
  0
TABLE
  2
VIEW
  5
6
330
0
100
AcDbSymbolTable
 70
     0
  0
ENDTAB
  0
TABLE
  2
UCS
  5
7
330
0
100
AcDbSymbolTable
 70
     0
  0
ENDTAB
  0
TABLE
  2
APPID
  5
9
330
0
100
AcDbSymbolTable
 70
     2
  0
APPID
  5
12
330
9
100
AcDbSymbolTableRecord
100
AcDbRegAppTableRecord
  2
ACAD
 70
     0
  0
ENDTAB
  0
TABLE
  2
DIMSTYLE
  5
A
330
0
100
AcDbSymbolTable
 70
     1
  0
DIMSTYLE
105
27
330
A
100
AcDbSymbolTableRecord
100
AcDbDimStyleTableRecord
  2
ISO-25
 70
     0
  3

  4

  5

  6

  7

 40
1.0
 41
2.5
 42
0.625
 43
3.75
 44
1.25
 45
0.0
 46
0.0
 47
0.0
 48
0.0
140
2.5
141
2.5
142
0.0
143
0.03937007874016
144
1.0
145
0.0
146
1.0
147
0.625
 71
     0
 72
     0
 73
     0
 74
     0
 75
     0
 76
     0
 77
     1
 78
     8
170
     0
171
     3
172
     1
173
     0
174
     0
175
     0
176
     0
177
     0
178
     0
270
     2
271
     2
272
     2
273
     2
274
     3
340
11
275
     0
280
     0
281
     0
282
     0
283
     0
284
     8
285
     0
286
     0
287
     3
288
     0
  0
ENDTAB
  0
TABLE
  2
BLOCK_RECORD
  5
1
330
0
100
AcDbSymbolTable
 70
     1
  0
BLOCK_RECORD
  5
1F
330
1
100
AcDbSymbolTableRecord
100
AcDbBlockTableRecord
  2
*MODEL_SPACE
  0
BLOCK_RECORD
  5
1B
330
1
100
AcDbSymbolTableRecord
100
AcDbBlockTableRecord
  2
*PAPER_SPACE
  0
ENDTAB
  0
ENDSEC
  0
SECTION
  2
BLOCKS
  0
BLOCK
  5
20
330
1F
100
AcDbEntity
  8
0
100
AcDbBlockBegin
  2
*MODEL_SPACE
 70
     0
 10
0.0
 20
0.0
 30
0.0
  3
*MODEL_SPACE
  1

  0
ENDBLK
  5
21
330
1F
100
AcDbEntity
  8
0
100
AcDbBlockEnd
  0
BLOCK
  5
1C
330
1B
100
AcDbEntity
 67
     1
  8
0
100
AcDbBlockBegin
  2
*PAPER_SPACE
  1

  0
ENDBLK
  5
1D
330
1B
100
AcDbEntity
 67
     1
  8
0
100
AcDbBlockEnd
  0
ENDSEC
  0
SECTION
  2
ENTITIES
  0
SPLINE
  5
100
100
AcDbEntity
  8
magstocklogo
 62
7
100
AcDbSpline
 70
8
 71
3
 72
8
 73
4
 74
0
 40
0
 40
0
 40
0
 40
0
 40
1
 40
1
 40
1
 40
1
 10
640.800800
 20
60.479500
 30
0.0
 10
640.800800
 20
40.559500
 30
0.0
 10
640.794800
 20
20.639500
 30
0.0
 10
640.823800
 20
0.719500
 30
0.0
  0
SPLINE
  5
101
100
AcDbEntity
  8
magstocklogo
 62
7
100
AcDbSpline
 70
8
 71
3
 72
8
 73
4
 74
0
 40
0
 40
0
 40
0
 40
0
 40
1
 40
1
 40
1
 40
1
 10
640.823800
 20
0.719500
 30
0.0
 10
640.825800
 20
-0.101500
 30
0.0
 10
640.662800
 20
-0.262500
 30
0.0
 10
639.841800
 20
-0.262500
 30
0.0
  0
SPLINE
  5
102
100
AcDbEntity
  8
magstocklogo
 62
7
100
AcDbSpline
 70
8
 71
3
 72
8
 73
4
 74
0
 40
0
 40
0
 40
0
 40
0
 40
1
 40
1
 40
1
 40
1
 10
639.841800
 20
-0.262500
 30
0.0
 10
426.960800
 20
-0.239500
 30
0.0
 10
214.080800
 20
-0.239500
 30
0.0
 10
1.199800
 20
-0.262500
 30
0.0
  0
SPLINE
  5
103
100
AcDbEntity
  8
magstocklogo
 62
7
100
AcDbSpline
 70
8
 71
3
 72
8
 73
4
 74
0
 40
0
 40
0
 40
0
 40
0
 40
1
 40
1
 40
1
 40
1
 10
1.199800
 20
-0.262500
 30
0.0
 10
0.378800
 20
-0.262500
 30
0.0
 10
0.158800
 20
-0.108500
 30
0.0
 10
0.216800
 20
0.721500
 30
0.0
  0
SPLINE
  5
104
100
AcDbEntity
  8
magstocklogo
 62
7
100
AcDbSpline
 70
8
 71
3
 72
8
 73
4
 74
0
 40
0
 40
0
 40
0
 40
0
 40
1
 40
1
 40
1
 40
1
 10
0.216800
 20
0.721500
 30
0.0
 10
0.304800
 20
1.995500
 30
0.0
 10
0.239800
 20
3.280500
 30
0.0
 10
0.239800
 20
4.559500
 30
0.0
  0
SPLINE
  5
105
100
AcDbEntity
  8
magstocklogo
 62
7
100
AcDbSpline
 70
8
 71
3
 72
8
 73
4
 74
0
 40
0
 40
0
 40
0
 40
0
 40
1
 40
1
 40
1
 40
1
 10
0.239800
 20
4.559500
 30
0.0
 10
0.407800
 20
4.628500
 30
0.0
 10
0.539800
 20
4.585500
 30
0.0
 10
0.635800
 20
4.431500
 30
0.0
  0
SPLINE
  5
106
100
AcDbEntity
  8
magstocklogo
 62
7
100
AcDbSpline
 70
8
 71
3
 72
8
 73
4
 74
0
 40
0
 40
0
 40
0
 40
0
 40
1
 40
1
 40
1
 40
1
 10
0.635800
 20
4.431500
 30
0.0
 10
0.808800
 20
4.155500
 30
0.0
 10
0.859800
 20
3.835500
 30
0.0
 10
0.957800
 20
3.532500
 30
0.0
  0
SPLINE
  5
107
100
AcDbEntity
  8
magstocklogo
 62
7
100
AcDbSpline
 70
8
 71
3
 72
8
 73
4
 74
0
 40
0
 40
0
 40
0
 40
0
 40
1
 40
1
 40
1
 40
1
 10
0.957800
 20
3.532500
 30
0.0
 10
1.534800
 20
1.752500
 30
0.0
 10
2.664800
 20
0.722500
 30
0.0
 10
4.621800
 20
0.646500
 30
0.0
  0
SPLINE
  5
108
100
AcDbEntity
  8
magstocklogo
 62
7
100
AcDbSpline
 70
8
 71
3
 72
8
 73
4
 74
0
 40
0
 40
0
 40
0
 40
0
 40
1
 40
1
 40
1
 40
1
 10
4.621800
 20
0.646500
 30
0.0
 10
6.736800
 20
0.563500
 30
0.0
 10
8.843800
 20
0.370500
 30
0.0
 10
10.966800
 20
0.371500
 30
0.0
  0
SPLINE
  5
109
100
AcDbEntity
  8
magstocklogo
 62
7
100
AcDbSpline
 70
8
 71
3
 72
8
 73
4
 74
0
 40
0
 40
0
 40
0
 40
0
 40
1
 40
1
 40
1
 40
1
 10
10.966800
 20
0.371500
 30
0.0
 10
38.912800
 20
0.390500
 30
0.0
 10
66.859800
 20
0.381500
 30
0.0
 10
94.806800
 20
0.390500
 30
0.0
  0
SPLINE
  5
10a
100
AcDbEntity
  8
magstocklogo
 62
7
100
AcDbSpline
 70
8
 71
3
 72
8
 73
4
 74
0
 40
0
 40
0
 40
0
 40
0
 40
1
 40
1
 40
1
 40
1
 10
94.806800
 20
0.390500
 30
0.0
 10
96.482800
 20
0.391500
 30
0.0
 10
98.162800
 20
0.346500
 30
0.0
 10
99.832800
 20
0.601500
 30
0.0
  0
SPLINE
  5
10b
100
AcDbEntity
  8
magstocklogo
 62
7
100
AcDbSpline
 70
8
 71
3
 72
8
 73
4
 74
0
 40
0
 40
0
 40
0
 40
0
 40
1
 40
1
 40
1
 40
1
 10
99.832800
 20
0.601500
 30
0.0
 10
101.401800
 20
0.840500
 30
0.0
 10
102.327800
 20
1.701500
 30
0.0
 10
102.628800
 20
3.273500
 30
0.0
  0
SPLINE
  5
10c
100
AcDbEntity
  8
magstocklogo
 62
7
100
AcDbSpline
 70
8
 71
3
 72
8
 73
4
 74
0
 40
0
 40
0
 40
0
 40
0
 40
1
 40
1
 40
1
 40
1
 10
102.628800
 20
3.273500
 30
0.0
 10
102.711800
 20
3.706500
 30
0.0
 10
102.798800
 20
4.142500
 30
0.0
 10
102.753800
 20
4.583500
 30
0.0
  0
SPLINE
  5
10d
100
AcDbEntity
  8
magstocklogo
 62
7
100
AcDbSpline
 70
8
 71
3
 72
8
 73
4
 74
0
 40
0
 40
0
 40
0
 40
0
 40
1
 40
1
 40
1
 40
1
 10
102.753800
 20
4.583500
 30
0.0
 10
102.394800
 20
8.093500
 30
0.0
 10
102.587800
 20
11.614500
 30
0.0
 10
102.585800
 20
15.128500
 30
0.0
  0
SPLINE
  5
10e
100
AcDbEntity
  8
magstocklogo
 62
7
100
AcDbSpline
 70
8
 71
3
 72
8
 73
4
 74
0
 40
0
 40
0
 40
0
 40
0
 40
1
 40
1
 40
1
 40
1
 10
102.585800
 20
15.128500
 30
0.0
 10
102.569800
 20
55.070500
 30
0.0
 10
102.575800
 20
95.010500
 30
0.0
 10
102.575800
 20
134.951500
 30
0.0
  0
SPLINE
  5
10f
100
AcDbEntity
  8
magstocklogo
 62
7
100
AcDbSpline
 70
8
 71
3
 72
8
 73
4
 74
0
 40
0
 40
0
 40
0
 40
0
 40
1
 40
1
 40
1
 40
1
 10
102.575800
 20
134.951500
 30
0.0
 10
102.575800
 20
135.271500
 30
0.0
 10
102.560800
 20
135.592500
 30
0.0
 10
102.577800
 20
135.911500
 30
0.0
  0
SPLINE
  5
110
100
AcDbEntity
  8
magstocklogo
 62
7
100
AcDbSpline
 70
8
 71
3
 72
8
 73
4
 74
0
 40
0
 40
0
 40
0
 40
0
 40
1
 40
1
 40
1
 40
1
 10
102.577800
 20
135.911500
 30
0.0
 10
102.711800
 20
138.424500
 30
0.0
 10
102.180800
 20
140.682500
 30
0.0
 10
100.117800
 20
142.357500
 30
0.0
  0
SPLINE
  5
111
100
AcDbEntity
  8
magstocklogo
 62
7
100
AcDbSpline
 70
8
 71
3
 72
8
 73
4
 74
0
 40
0
 40
0
 40
0
 40
0
 40
1
 40
1
 40
1
 40
1
 10
100.117800
 20
142.357500
 30
0.0
 10
100.018800
 20
142.497500
 30
0.0
 10
100.007800
 20
142.645500
 30
0.0
 10
100.079800
 20
142.799500
 30
0.0
  0
SPLINE
  5
112
100
AcDbEntity
  8
magstocklogo
 62
7
100
AcDbSpline
 70
8
 71
3
 72
8
 73
4
 74
0
 40
0
 40
0
 40
0
 40
0
 40
1
 40
1
 40
1
 40
1
 10
100.079800
 20
142.799500
 30
0.0
 10
279.925800
 20
142.799500
 30
0.0
 10
459.771800
 20
142.798500
 30
0.0
 10
639.615800
 20
142.829500
 30
0.0
  0
SPLINE
  5
113
100
AcDbEntity
  8
magstocklogo
 62
7
100
AcDbSpline
 70
8
 71
3
 72
8
 73
4
 74
0
 40
0
 40
0
 40
0
 40
0
 40
1
 40
1
 40
1
 40
1
 10
639.615800
 20
142.829500
 30
0.0
 10
640.671800
 20
142.829500
 30
0.0
 10
640.825800
 20
142.560500
 30
0.0
 10
640.824800
 20
141.585500
 30
0.0
  0
SPLINE
  5
114
100
AcDbEntity
  8
magstocklogo
 62
7
100
AcDbSpline
 70
8
 71
3
 72
8
 73
4
 74
0
 40
0
 40
0
 40
0
 40
0
 40
1
 40
1
 40
1
 40
1
 10
640.824800
 20
141.585500
 30
0.0
 10
640.794800
 20
116.310500
 30
0.0
 10
640.800800
 20
91.035500
 30
0.0
 10
640.800800
 20
65.759500
 30
0.0
  0
SPLINE
  5
115
100
AcDbEntity
  8
magstocklogo
 62
7
100
AcDbSpline
 70
8
 71
3
 72
8
 73
4
 74
0
 40
0
 40
0
 40
0
 40
0
 40
1
 40
1
 40
1
 40
1
 10
640.800800
 20
65.759500
 30
0.0
 10
640.679800
 20
65.678500
 30
0.0
 10
640.568800
 20
65.692500
 30
0.0
 10
640.468800
 20
65.798500
 30
0.0
  0
SPLINE
  5
116
100
AcDbEntity
  8
magstocklogo
 62
7
100
AcDbSpline
 70
8
 71
3
 72
8
 73
4
 74
0
 40
0
 40
0
 40
0
 40
0
 40
1
 40
1
 40
1
 40
1
 10
640.468800
 20
65.798500
 30
0.0
 10
640.100800
 20
66.829500
 30
0.0
 10
640.115800
 20
67.923500
 30
0.0
 10
640.039800
 20
68.983500
 30
0.0
  0
SPLINE
  5
117
100
AcDbEntity
  8
magstocklogo
 62
7
100
AcDbSpline
 70
8
 71
3
 72
8
 73
4
 74
0
 40
0
 40
0
 40
0
 40
0
 40
1
 40
1
 40
1
 40
1
 10
640.039800
 20
68.983500
 30
0.0
 10
639.560800
 20
75.654500
 30
0.0
 10
638.081800
 20
82.093500
 30
0.0
 10
635.743800
 20
88.347500
 30
0.0
  0
SPLINE
  5
118
100
AcDbEntity
  8
magstocklogo
 62
7
100
AcDbSpline
 70
8
 71
3
 72
8
 73
4
 74
0
 40
0
 40
0
 40
0
 40
0
 40
1
 40
1
 40
1
 40
1
 10
635.743800
 20
88.347500
 30
0.0
 10
632.674800
 20
96.560500
 30
0.0
 10
628.180800
 20
103.936500
 30
0.0
 10
622.606800
 20
110.672500
 30
0.0
  0
SPLINE
  5
119
100
AcDbEntity
  8
magstocklogo
 62
7
100
AcDbSpline
 70
8
 71
3
 72
8
 73
4
 74
0
 40
0
 40
0
 40
0
 40
0
 40
1
 40
1
 40
1
 40
1
 10
622.606800
 20
110.672500
 30
0.0
 10
621.075800
 20
112.520500
 30
0.0
 10
619.399800
 20
114.238500
 30
0.0
 10
617.705800
 20
115.937500
 30
0.0
  0
SPLINE
  5
11a
100
AcDbEntity
  8
magstocklogo
 62
7
100
AcDbSpline
 70
8
 71
3
 72
8
 73
4
 74
0
 40
0
 40
0
 40
0
 40
0
 40
1
 40
1
 40
1
 40
1
 10
617.705800
 20
115.937500
 30
0.0
 10
616.667800
 20
116.978500
 30
0.0
 10
615.252800
 20
117.077500
 30
0.0
 10
614.379800
 20
116.228500
 30
0.0
  0
SPLINE
  5
11b
100
AcDbEntity
  8
magstocklogo
 62
7
100
AcDbSpline
 70
8
 71
3
 72
8
 73
4
 74
0
 40
0
 40
0
 40
0
 40
0
 40
1
 40
1
 40
1
 40
1
 10
614.379800
 20
116.228500
 30
0.0
 10
613.531800
 20
115.403500
 30
0.0
 10
613.557800
 20
114.097500
 30
0.0
 10
614.531800
 20
113.007500
 30
0.0
  0
SPLINE
  5
11c
100
AcDbEntity
  8
magstocklogo
 62
7
100
AcDbSpline
 70
8
 71
3
 72
8
 73
4
 74
0
 40
0
 40
0
 40
0
 40
0
 40
1
 40
1
 40
1
 40
1
 10
614.531800
 20
113.007500
 30
0.0
 10
617.461800
 20
109.730500
 30
0.0
 10
620.451800
 20
106.508500
 30
0.0
 10
622.996800
 20
102.905500
 30
0.0
  0
SPLINE
  5
11d
100
AcDbEntity
  8
magstocklogo
 62
7
100
AcDbSpline
 70
8
 71
3
 72
8
 73
4
 74
0
 40
0
 40
0
 40
0
 40
0
 40
1
 40
1
 40
1
 40
1
 10
622.996800
 20
102.905500
 30
0.0
 10
629.644800
 20
93.493500
 30
0.0
 10
633.893800
 20
83.143500
 30
0.0
 10
635.408800
 20
71.681500
 30
0.0
  0
SPLINE
  5
11e
100
AcDbEntity
  8
magstocklogo
 62
7
100
AcDbSpline
 70
8
 71
3
 72
8
 73
4
 74
0
 40
0
 40
0
 40
0
 40
0
 40
1
 40
1
 40
1
 40
1
 10
635.408800
 20
71.681500
 30
0.0
 10
635.791800
 20
68.782500
 30
0.0
 10
636.004800
 20
65.859500
 30
0.0
 10
635.989800
 20
62.968500
 30
0.0
  0
SPLINE
  5
11f
100
AcDbEntity
  8
magstocklogo
 62
7
100
AcDbSpline
 70
8
 71
3
 72
8
 73
4
 74
0
 40
0
 40
0
 40
0
 40
0
 40
1
 40
1
 40
1
 40
1
 10
635.989800
 20
62.968500
 30
0.0
 10
635.960800
 20
56.926500
 30
0.0
 10
635.166800
 20
50.944500
 30
0.0
 10
633.620800
 20
45.076500
 30
0.0
  0
SPLINE
  5
120
100
AcDbEntity
  8
magstocklogo
 62
7
100
AcDbSpline
 70
8
 71
3
 72
8
 73
4
 74
0
 40
0
 40
0
 40
0
 40
0
 40
1
 40
1
 40
1
 40
1
 10
633.620800
 20
45.076500
 30
0.0
 10
631.325800
 20
36.367500
 30
0.0
 10
627.667800
 20
28.288500
 30
0.0
 10
622.536800
 20
20.883500
 30
0.0
  0
SPLINE
  5
121
100
AcDbEntity
  8
magstocklogo
 62
7
100
AcDbSpline
 70
8
 71
3
 72
8
 73
4
 74
0
 40
0
 40
0
 40
0
 40
0
 40
1
 40
1
 40
1
 40
1
 10
622.536800
 20
20.883500
 30
0.0
 10
620.416800
 20
17.823500
 30
0.0
 10
618.139800
 20
14.885500
 30
0.0
 10
615.477800
 20
12.268500
 30
0.0
  0
SPLINE
  5
122
100
AcDbEntity
  8
magstocklogo
 62
7
100
AcDbSpline
 70
8
 71
3
 72
8
 73
4
 74
0
 40
0
 40
0
 40
0
 40
0
 40
1
 40
1
 40
1
 40
1
 10
615.477800
 20
12.268500
 30
0.0
 10
615.020800
 20
11.819500
 30
0.0
 10
614.578800
 20
11.356500
 30
0.0
 10
614.234800
 20
10.810500
 30
0.0
  0
SPLINE
  5
123
100
AcDbEntity
  8
magstocklogo
 62
7
100
AcDbSpline
 70
8
 71
3
 72
8
 73
4
 74
0
 40
0
 40
0
 40
0
 40
0
 40
1
 40
1
 40
1
 40
1
 10
614.234800
 20
10.810500
 30
0.0
 10
613.530800
 20
9.693500
 30
0.0
 10
613.625800
 20
8.474500
 30
0.0
 10
614.472800
 20
7.758500
 30
0.0
  0
SPLINE
  5
124
100
AcDbEntity
  8
magstocklogo
 62
7
100
AcDbSpline
 70
8
 71
3
 72
8
 73
4
 74
0
 40
0
 40
0
 40
0
 40
0
 40
1
 40
1
 40
1
 40
1
 10
614.472800
 20
7.758500
 30
0.0
 10
615.316800
 20
7.044500
 30
0.0
 10
616.551800
 20
7.130500
 30
0.0
 10
617.513800
 20
8.020500
 30
0.0
  0
SPLINE
  5
125
100
AcDbEntity
  8
magstocklogo
 62
7
100
AcDbSpline
 70
8
 71
3
 72
8
 73
4
 74
0
 40
0
 40
0
 40
0
 40
0
 40
1
 40
1
 40
1
 40
1
 10
617.513800
 20
8.020500
 30
0.0
 10
619.396800
 20
9.760500
 30
0.0
 10
621.089800
 20
11.676500
 30
0.0
 10
622.687800
 20
13.680500
 30
0.0
  0
SPLINE
  5
126
100
AcDbEntity
  8
magstocklogo
 62
7
100
AcDbSpline
 70
8
 71
3
 72
8
 73
4
 74
0
 40
0
 40
0
 40
0
 40
0
 40
1
 40
1
 40
1
 40
1
 10
622.687800
 20
13.680500
 30
0.0
 10
630.916800
 20
24.002500
 30
0.0
 10
636.326800
 20
35.633500
 30
0.0
 10
638.889800
 20
48.588500
 30
0.0
  0
SPLINE
  5
127
100
AcDbEntity
  8
magstocklogo
 62
7
100
AcDbSpline
 70
8
 71
3
 72
8
 73
4
 74
0
 40
0
 40
0
 40
0
 40
0
 40
1
 40
1
 40
1
 40
1
 10
638.889800
 20
48.588500
 30
0.0
 10
639.595800
 20
52.161500
 30
0.0
 10
639.988800
 20
55.771500
 30
0.0
 10
640.247800
 20
59.399500
 30
0.0
  0
SPLINE
  5
128
100
AcDbEntity
  8
magstocklogo
 62
7
100
AcDbSpline
 70
8
 71
3
 72
8
 73
4
 74
0
 40
0
 40
0
 40
0
 40
0
 40
1
 40
1
 40
1
 40
1
 10
640.247800
 20
59.399500
 30
0.0
 10
640.273800
 20
59.757500
 30
0.0
 10
640.253800
 20
60.123500
 30
0.0
 10
640.467800
 20
60.440500
 30
0.0
  0
SPLINE
  5
129
100
AcDbEntity
  8
magstocklogo
 62
7
100
AcDbSpline
 70
8
 71
3
 72
8
 73
4
 74
0
 40
0
 40
0
 40
0
 40
0
 40
1
 40
1
 40
1
 40
1
 10
640.467800
 20
60.440500
 30
0.0
 10
640.568800
 20
60.547500
 30
0.0
 10
640.679800
 20
60.560500
 30
0.0
 10
640.800800
 20
60.479500
 30
0.0
  0
SPLINE
  5
12a
100
AcDbEntity
  8
magstocklogo
 62
7
100
AcDbSpline
 70
8
 71
3
 72
8
 73
4
 74
0
 40
0
 40
0
 40
0
 40
0
 40
1
 40
1
 40
1
 40
1
 10
640.603500
 20
60.469700
 30
0.0
 10
640.069500
 20
46.958700
 30
0.0
 10
636.213500
 20
34.424700
 30
0.0
 10
629.397500
 20
22.794700
 30
0.0
  0
SPLINE
  5
12b
100
AcDbEntity
  8
magstocklogo
 62
7
100
AcDbSpline
 70
8
 71
3
 72
8
 73
4
 74
0
 40
0
 40
0
 40
0
 40
0
 40
1
 40
1
 40
1
 40
1
 10
629.397500
 20
22.794700
 30
0.0
 10
626.243500
 20
17.413700
 30
0.0
 10
622.478500
 20
12.471700
 30
0.0
 10
618.054500
 20
8.052700
 30
0.0
  0
SPLINE
  5
12c
100
AcDbEntity
  8
magstocklogo
 62
7
100
AcDbSpline
 70
8
 71
3
 72
8
 73
4
 74
0
 40
0
 40
0
 40
0
 40
0
 40
1
 40
1
 40
1
 40
1
 10
618.054500
 20
8.052700
 30
0.0
 10
616.738500
 20
6.738700
 30
0.0
 10
615.260500
 20
6.561700
 30
0.0
 10
614.172500
 20
7.574700
 30
0.0
  0
SPLINE
  5
12d
100
AcDbEntity
  8
magstocklogo
 62
7
100
AcDbSpline
 70
8
 71
3
 72
8
 73
4
 74
0
 40
0
 40
0
 40
0
 40
0
 40
1
 40
1
 40
1
 40
1
 10
614.172500
 20
7.574700
 30
0.0
 10
613.061500
 20
8.611700
 30
0.0
 10
613.145500
 20
10.247700
 30
0.0
 10
614.455500
 20
11.577700
 30
0.0
  0
SPLINE
  5
12e
100
AcDbEntity
  8
magstocklogo
 62
7
100
AcDbSpline
 70
8
 71
3
 72
8
 73
4
 74
0
 40
0
 40
0
 40
0
 40
0
 40
1
 40
1
 40
1
 40
1
 10
614.455500
 20
11.577700
 30
0.0
 10
620.119500
 20
17.331700
 30
0.0
 10
624.642500
 20
23.878700
 30
0.0
 10
628.142500
 20
31.143700
 30
0.0
  0
SPLINE
  5
12f
100
AcDbEntity
  8
magstocklogo
 62
7
100
AcDbSpline
 70
8
 71
3
 72
8
 73
4
 74
0
 40
0
 40
0
 40
0
 40
0
 40
1
 40
1
 40
1
 40
1
 10
628.142500
 20
31.143700
 30
0.0
 10
631.232500
 20
37.559700
 30
0.0
 10
633.389500
 20
44.262700
 30
0.0
 10
634.601500
 20
51.290700
 30
0.0
  0
SPLINE
  5
130
100
AcDbEntity
  8
magstocklogo
 62
7
100
AcDbSpline
 70
8
 71
3
 72
8
 73
4
 74
0
 40
0
 40
0
 40
0
 40
0
 40
1
 40
1
 40
1
 40
1
 10
634.601500
 20
51.290700
 30
0.0
 10
635.274500
 20
55.189700
 30
0.0
 10
635.658500
 20
59.114700
 30
0.0
 10
635.634500
 20
63.043700
 30
0.0
  0
SPLINE
  5
131
100
AcDbEntity
  8
magstocklogo
 62
7
100
AcDbSpline
 70
8
 71
3
 72
8
 73
4
 74
0
 40
0
 40
0
 40
0
 40
0
 40
1
 40
1
 40
1
 40
1
 10
635.634500
 20
63.043700
 30
0.0
 10
635.555500
 20
76.564700
 30
0.0
 10
631.793500
 20
89.007700
 30
0.0
 10
624.368500
 20
100.332700
 30
0.0
  0
SPLINE
  5
132
100
AcDbEntity
  8
magstocklogo
 62
7
100
AcDbSpline
 70
8
 71
3
 72
8
 73
4
 74
0
 40
0
 40
0
 40
0
 40
0
 40
1
 40
1
 40
1
 40
1
 10
624.368500
 20
100.332700
 30
0.0
 10
621.425500
 20
104.819700
 30
0.0
 10
617.990500
 20
108.895700
 30
0.0
 10
614.285500
 20
112.759700
 30
0.0
  0
SPLINE
  5
133
100
AcDbEntity
  8
magstocklogo
 62
7
100
AcDbSpline
 70
8
 71
3
 72
8
 73
4
 74
0
 40
0
 40
0
 40
0
 40
0
 40
1
 40
1
 40
1
 40
1
 10
614.285500
 20
112.759700
 30
0.0
 10
613.155500
 20
113.938700
 30
0.0
 10
613.110500
 20
115.462700
 30
0.0
 10
614.135500
 20
116.473700
 30
0.0
  0
SPLINE
  5
134
100
AcDbEntity
  8
magstocklogo
 62
7
100
AcDbSpline
 70
8
 71
3
 72
8
 73
4
 74
0
 40
0
 40
0
 40
0
 40
0
 40
1
 40
1
 40
1
 40
1
 10
614.135500
 20
116.473700
 30
0.0
 10
615.188500
 20
117.511700
 30
0.0
 10
616.781500
 20
117.393700
 30
0.0
 10
617.954500
 20
116.201700
 30
0.0
  0
SPLINE
  5
135
100
AcDbEntity
  8
magstocklogo
 62
7
100
AcDbSpline
 70
8
 71
3
 72
8
 73
4
 74
0
 40
0
 40
0
 40
0
 40
0
 40
1
 40
1
 40
1
 40
1
 10
617.954500
 20
116.201700
 30
0.0
 10
624.118500
 20
109.935700
 30
0.0
 10
629.318500
 20
102.968700
 30
0.0
 10
633.197500
 20
95.061700
 30
0.0
  0
SPLINE
  5
136
100
AcDbEntity
  8
magstocklogo
 62
7
100
AcDbSpline
 70
8
 71
3
 72
8
 73
4
 74
0
 40
0
 40
0
 40
0
 40
0
 40
1
 40
1
 40
1
 40
1
 10
633.197500
 20
95.061700
 30
0.0
 10
636.548500
 20
88.228700
 30
0.0
 10
638.834500
 20
81.057700
 30
0.0
 10
639.880500
 20
73.499700
 30
0.0
  0
SPLINE
  5
137
100
AcDbEntity
  8
magstocklogo
 62
7
100
AcDbSpline
 70
8
 71
3
 72
8
 73
4
 74
0
 40
0
 40
0
 40
0
 40
0
 40
1
 40
1
 40
1
 40
1
 10
639.880500
 20
73.499700
 30
0.0
 10
640.236500
 20
70.931700
 30
0.0
 10
640.484500
 20
68.358700
 30
0.0
 10
640.603500
 20
65.770700
 30
0.0
  0
SPLINE
  5
138
100
AcDbEntity
  8
magstocklogo
 62
7
100
AcDbSpline
 70
8
 71
3
 72
8
 73
4
 74
0
 40
0
 40
0
 40
0
 40
0
 40
1
 40
1
 40
1
 40
1
 10
640.603500
 20
65.770700
 30
0.0
 10
640.836500
 20
64.899700
 30
0.0
 10
640.484500
 20
63.984700
 30
0.0
 10
640.800500
 20
63.119700
 30
0.0
  0
SPLINE
  5
139
100
AcDbEntity
  8
magstocklogo
 62
7
100
AcDbSpline
 70
8
 71
3
 72
8
 73
4
 74
0
 40
0
 40
0
 40
0
 40
0
 40
1
 40
1
 40
1
 40
1
 10
640.800500
 20
62.639700
 30
0.0
 10
640.488500
 20
61.938700
 30
0.0
 10
640.834500
 20
61.177700
 30
0.0
 10
640.603500
 20
60.469700
 30
0.0
  0
SPLINE
  5
13a
100
AcDbEntity
  8
magstocklogo
 62
7
100
AcDbSpline
 70
8
 71
3
 72
8
 73
4
 74
0
 40
0
 40
0
 40
0
 40
0
 40
1
 40
1
 40
1
 40
1
 10
100.080100
 20
142.799800
 30
0.0
 10
100.138100
 20
142.744800
 30
0.0
 10
100.163100
 20
142.676800
 30
0.0
 10
100.156100
 20
142.596800
 30
0.0
  0
SPLINE
  5
13b
100
AcDbEntity
  8
magstocklogo
 62
7
100
AcDbSpline
 70
8
 71
3
 72
8
 73
4
 74
0
 40
0
 40
0
 40
0
 40
0
 40
1
 40
1
 40
1
 40
1
 10
100.156100
 20
142.596800
 30
0.0
 10
99.688100
 20
142.081800
 30
0.0
 10
99.057100
 20
142.181800
 30
0.0
 10
98.471100
 20
142.177800
 30
0.0
  0
SPLINE
  5
13c
100
AcDbEntity
  8
magstocklogo
 62
7
100
AcDbSpline
 70
8
 71
3
 72
8
 73
4
 74
0
 40
0
 40
0
 40
0
 40
0
 40
1
 40
1
 40
1
 40
1
 10
98.471100
 20
142.177800
 30
0.0
 10
95.751100
 20
142.159800
 30
0.0
 10
93.032100
 20
142.169800
 30
0.0
 10
90.312100
 20
142.169800
 30
0.0
  0
SPLINE
  5
13d
100
AcDbEntity
  8
magstocklogo
 62
7
100
AcDbSpline
 70
8
 71
3
 72
8
 73
4
 74
0
 40
0
 40
0
 40
0
 40
0
 40
1
 40
1
 40
1
 40
1
 10
90.312100
 20
142.169800
 30
0.0
 10
62.759100
 20
142.169800
 30
0.0
 10
35.205100
 20
142.169800
 30
0.0
 10
7.652100
 20
142.169800
 30
0.0
  0
SPLINE
  5
13e
100
AcDbEntity
  8
magstocklogo
 62
7
100
AcDbSpline
 70
8
 71
3
 72
8
 73
4
 74
0
 40
0
 40
0
 40
0
 40
0
 40
1
 40
1
 40
1
 40
1
 10
7.652100
 20
142.169800
 30
0.0
 10
6.772100
 20
142.169800
 30
0.0
 10
5.896100
 20
142.160800
 30
0.0
 10
5.020100
 20
142.032800
 30
0.0
  0
SPLINE
  5
13f
100
AcDbEntity
  8
magstocklogo
 62
7
100
AcDbSpline
 70
8
 71
3
 72
8
 73
4
 74
0
 40
0
 40
0
 40
0
 40
0
 40
1
 40
1
 40
1
 40
1
 10
5.020100
 20
142.032800
 30
0.0
 10
3.174100
 20
141.761800
 30
0.0
 10
2.131100
 20
140.613800
 30
0.0
 10
1.557100
 20
138.944800
 30
0.0
  0
SPLINE
  5
140
100
AcDbEntity
  8
magstocklogo
 62
7
100
AcDbSpline
 70
8
 71
3
 72
8
 73
4
 74
0
 40
0
 40
0
 40
0
 40
0
 40
1
 40
1
 40
1
 40
1
 10
1.557100
 20
138.944800
 30
0.0
 10
1.148100
 20
137.755800
 30
0.0
 10
1.104100
 20
136.519800
 30
0.0
 10
1.104100
 20
135.272800
 30
0.0
  0
SPLINE
  5
141
100
AcDbEntity
  8
magstocklogo
 62
7
100
AcDbSpline
 70
8
 71
3
 72
8
 73
4
 74
0
 40
0
 40
0
 40
0
 40
0
 40
1
 40
1
 40
1
 40
1
 10
1.104100
 20
135.272800
 30
0.0
 10
1.112100
 20
106.079800
 30
0.0
 10
1.110100
 20
76.885800
 30
0.0
 10
1.109100
 20
47.693800
 30
0.0
  0
SPLINE
  5
142
100
AcDbEntity
  8
magstocklogo
 62
7
100
AcDbSpline
 70
8
 71
3
 72
8
 73
4
 74
0
 40
0
 40
0
 40
0
 40
0
 40
1
 40
1
 40
1
 40
1
 10
1.109100
 20
47.693800
 30
0.0
 10
1.109100
 20
47.093800
 30
0.0
 10
1.145100
 20
46.490800
 30
0.0
 10
1.078100
 20
45.894800
 30
0.0
  0
SPLINE
  5
143
100
AcDbEntity
  8
magstocklogo
 62
7
100
AcDbSpline
 70
8
 71
3
 72
8
 73
4
 74
0
 40
0
 40
0
 40
0
 40
0
 40
1
 40
1
 40
1
 40
1
 10
1.078100
 20
45.894800
 30
0.0
 10
1.030100
 20
45.475800
 30
0.0
 10
1.069100
 20
44.979800
 30
0.0
 10
0.495100
 20
44.838800
 30
0.0
  0
SPLINE
  5
144
100
AcDbEntity
  8
magstocklogo
 62
7
100
AcDbSpline
 70
8
 71
3
 72
8
 73
4
 74
0
 40
0
 40
0
 40
0
 40
0
 40
1
 40
1
 40
1
 40
1
 10
0.495100
 20
44.838800
 30
0.0
 10
0.246100
 20
45.246800
 30
0.0
 10
0.370100
 20
45.697800
 30
0.0
 10
0.370100
 20
46.126800
 30
0.0
  0
SPLINE
  5
145
100
AcDbEntity
  8
magstocklogo
 62
7
100
AcDbSpline
 70
8
 71
3
 72
8
 73
4
 74
0
 40
0
 40
0
 40
0
 40
0
 40
1
 40
1
 40
1
 40
1
 10
0.370100
 20
46.126800
 30
0.0
 10
0.363100
 20
76.305800
 30
0.0
 10
0.363100
 20
106.484800
 30
0.0
 10
0.365100
 20
136.663800
 30
0.0
  0
SPLINE
  5
146
100
AcDbEntity
  8
magstocklogo
 62
7
100
AcDbSpline
 70
8
 71
3
 72
8
 73
4
 74
0
 40
0
 40
0
 40
0
 40
0
 40
1
 40
1
 40
1
 40
1
 10
0.365100
 20
136.663800
 30
0.0
 10
0.365100
 20
137.141800
 30
0.0
 10
0.367100
 20
137.617800
 30
0.0
 10
0.427100
 20
138.097800
 30
0.0
  0
SPLINE
  5
147
100
AcDbEntity
  8
magstocklogo
 62
7
100
AcDbSpline
 70
8
 71
3
 72
8
 73
4
 74
0
 40
0
 40
0
 40
0
 40
0
 40
1
 40
1
 40
1
 40
1
 10
0.427100
 20
138.097800
 30
0.0
 10
0.825100
 20
141.259800
 30
0.0
 10
1.747100
 20
142.261800
 30
0.0
 10
4.800100
 20
142.799800
 30
0.0
  0
LWPOLYLINE
  5
148
100
AcDbEntity
  8
magstocklogo
 62
7
100
AcDbPolyline
 90
2
 70
0
 10
640.800500
 20
63.119700
 30
0.0
 10
640.800500
 20
62.639700
 30
0.0
  0
SPLINE
  5
149
100
AcDbEntity
  8
magstocklogo
 62
7
100
AcDbSpline
 70
8
 71
3
 72
8
 73
4
 74
0
 40
0
 40
0
 40
0
 40
0
 40
1
 40
1
 40
1
 40
1
 10
4.799800
 20
142.799800
 30
0.0
 10
3.639800
 20
142.363800
 30
0.0
 10
2.498800
 20
142.067800
 30
0.0
 10
1.694800
 20
140.864800
 30
0.0
  0
SPLINE
  5
14a
100
AcDbEntity
  8
magstocklogo
 62
7
100
AcDbSpline
 70
8
 71
3
 72
8
 73
4
 74
0
 40
0
 40
0
 40
0
 40
0
 40
1
 40
1
 40
1
 40
1
 10
1.694800
 20
140.864800
 30
0.0
 10
0.885800
 20
139.654800
 30
0.0
 10
0.513800
 20
138.371800
 30
0.0
 10
0.511800
 20
137.054800
 30
0.0
  0
SPLINE
  5
14b
100
AcDbEntity
  8
magstocklogo
 62
7
100
AcDbSpline
 70
8
 71
3
 72
8
 73
4
 74
0
 40
0
 40
0
 40
0
 40
0
 40
1
 40
1
 40
1
 40
1
 10
0.511800
 20
137.054800
 30
0.0
 10
0.477800
 20
111.722800
 30
0.0
 10
0.496800
 20
86.390800
 30
0.0
 10
0.506800
 20
61.058800
 30
0.0
  0
SPLINE
  5
14c
100
AcDbEntity
  8
magstocklogo
 62
7
100
AcDbSpline
 70
8
 71
3
 72
8
 73
4
 74
0
 40
0
 40
0
 40
0
 40
0
 40
1
 40
1
 40
1
 40
1
 10
0.506800
 20
61.058800
 30
0.0
 10
0.508800
 20
55.665800
 30
0.0
 10
0.514800
 20
50.273800
 30
0.0
 10
0.519800
 20
44.880800
 30
0.0
  0
SPLINE
  5
14d
100
AcDbEntity
  8
magstocklogo
 62
7
100
AcDbSpline
 70
8
 71
3
 72
8
 73
4
 74
0
 40
0
 40
0
 40
0
 40
0
 40
1
 40
1
 40
1
 40
1
 10
0.519800
 20
44.880800
 30
0.0
 10
0.866800
 20
44.443800
 30
0.0
 10
0.821800
 20
43.984800
 30
0.0
 10
0.596800
 20
43.514800
 30
0.0
  0
SPLINE
  5
14e
100
AcDbEntity
  8
magstocklogo
 62
7
100
AcDbSpline
 70
8
 71
3
 72
8
 73
4
 74
0
 40
0
 40
0
 40
0
 40
0
 40
1
 40
1
 40
1
 40
1
 10
0.596800
 20
43.514800
 30
0.0
 10
0.499800
 20
43.387800
 30
0.0
 10
0.380800
 20
43.362800
 30
0.0
 10
0.239800
 20
43.439800
 30
0.0
  0
SPLINE
  5
14f
100
AcDbEntity
  8
magstocklogo
 62
7
100
AcDbSpline
 70
8
 71
3
 72
8
 73
4
 74
0
 40
0
 40
0
 40
0
 40
0
 40
1
 40
1
 40
1
 40
1
 10
0.239800
 20
43.439800
 30
0.0
 10
0.239800
 20
76.201800
 30
0.0
 10
0.244800
 20
108.964800
 30
0.0
 10
0.216800
 20
141.726800
 30
0.0
  0
SPLINE
  5
150
100
AcDbEntity
  8
magstocklogo
 62
7
100
AcDbSpline
 70
8
 71
3
 72
8
 73
4
 74
0
 40
0
 40
0
 40
0
 40
0
 40
1
 40
1
 40
1
 40
1
 10
0.216800
 20
141.726800
 30
0.0
 10
0.215800
 20
142.638800
 30
0.0
 10
0.431800
 20
142.887800
 30
0.0
 10
1.325800
 20
142.820800
 30
0.0
  0
SPLINE
  5
151
100
AcDbEntity
  8
magstocklogo
 62
7
100
AcDbSpline
 70
8
 71
3
 72
8
 73
4
 74
0
 40
0
 40
0
 40
0
 40
0
 40
1
 40
1
 40
1
 40
1
 10
1.325800
 20
142.820800
 30
0.0
 10
2.477800
 20
142.734800
 30
0.0
 10
3.641800
 20
142.799800
 30
0.0
 10
4.799800
 20
142.799800
 30
0.0
  0
SPLINE
  5
152
100
AcDbEntity
  8
magstocklogo
 62
7
100
AcDbSpline
 70
8
 71
3
 72
8
 73
4
 74
0
 40
0
 40
0
 40
0
 40
0
 40
1
 40
1
 40
1
 40
1
 10
0.240200
 20
43.439500
 30
0.0
 10
0.307200
 20
43.442500
 30
0.0
 10
0.373200
 20
43.442500
 30
0.0
 10
0.440200
 20
43.440500
 30
0.0
  0
SPLINE
  5
153
100
AcDbEntity
  8
magstocklogo
 62
7
100
AcDbSpline
 70
8
 71
3
 72
8
 73
4
 74
0
 40
0
 40
0
 40
0
 40
0
 40
1
 40
1
 40
1
 40
1
 10
0.440200
 20
43.440500
 30
0.0
 10
0.928200
 20
43.014500
 30
0.0
 10
0.864200
 20
42.426500
 30
0.0
 10
0.865200
 20
41.877500
 30
0.0
  0
SPLINE
  5
154
100
AcDbEntity
  8
magstocklogo
 62
7
100
AcDbSpline
 70
8
 71
3
 72
8
 73
4
 74
0
 40
0
 40
0
 40
0
 40
0
 40
1
 40
1
 40
1
 40
1
 10
0.865200
 20
41.877500
 30
0.0
 10
0.877200
 20
29.960500
 30
0.0
 10
0.877200
 20
18.042500
 30
0.0
 10
0.865200
 20
6.125500
 30
0.0
  0
SPLINE
  5
155
100
AcDbEntity
  8
magstocklogo
 62
7
100
AcDbSpline
 70
8
 71
3
 72
8
 73
4
 74
0
 40
0
 40
0
 40
0
 40
0
 40
1
 40
1
 40
1
 40
1
 10
0.865200
 20
6.125500
 30
0.0
 10
0.864200
 20
5.576500
 30
0.0
 10
0.927200
 20
4.988500
 30
0.0
 10
0.445200
 20
4.558500
 30
0.0
  0
LWPOLYLINE
  5
156
100
AcDbEntity
  8
magstocklogo
 62
7
100
AcDbPolyline
 90
3
 70
1
 10
4.800100
 20
142.799800
 30
0.0
 10
100.080100
 20
142.799800
 30
0.0
 10
100.080100
 20
142.799800
 30
0.0
  0
SPLINE
  5
157
100
AcDbEntity
  8
magstocklogo
 62
7
100
AcDbSpline
 70
8
 71
3
 72
8
 73
4
 74
0
 40
0
 40
0
 40
0
 40
0
 40
1
 40
1
 40
1
 40
1
 10
640.800800
 20
63.120100
 30
0.0
 10
640.299800
 20
63.971100
 30
0.0
 10
640.651800
 20
64.886100
 30
0.0
 10
640.603800
 20
65.770100
 30
0.0
  0
SPLINE
  5
158
100
AcDbEntity
  8
magstocklogo
 62
7
100
AcDbSpline
 70
8
 71
3
 72
8
 73
4
 74
0
 40
0
 40
0
 40
0
 40
0
 40
1
 40
1
 40
1
 40
1
 10
640.603800
 20
65.770100
 30
0.0
 10
640.670800
 20
65.791100
 30
0.0
 10
640.736800
 20
65.787100
 30
0.0
 10
640.800800
 20
65.760100
 30
0.0
  0
LWPOLYLINE
  5
159
100
AcDbEntity
  8
magstocklogo
 62
7
100
AcDbPolyline
 90
5
 70
1
 10
0.445200
 20
4.558500
 30
0.0
 10
0.343200
 20
4.558500
 30
0.0
 10
0.240200
 20
4.559500
 30
0.0
 10
0.240200
 20
43.439500
 30
0.0
 10
0.240200
 20
43.439500
 30
0.0
  0
SPLINE
  5
15a
100
AcDbEntity
  8
magstocklogo
 62
7
100
AcDbSpline
 70
8
 71
3
 72
8
 73
4
 74
0
 40
0
 40
0
 40
0
 40
0
 40
1
 40
1
 40
1
 40
1
 10
640.603500
 20
60.469700
 30
0.0
 10
640.648500
 20
61.194700
 30
0.0
 10
640.309500
 20
61.954700
 30
0.0
 10
640.800500
 20
62.639700
 30
0.0
  0
LWPOLYLINE
  5
15b
100
AcDbEntity
  8
magstocklogo
 62
7
100
AcDbPolyline
 90
3
 70
1
 10
640.800800
 20
65.760100
 30
0.0
 10
640.800800
 20
63.120100
 30
0.0
 10
640.800800
 20
63.120100
 30
0.0
  0
SPLINE
  5
15c
100
AcDbEntity
  8
magstocklogo
 62
7
100
AcDbSpline
 70
8
 71
3
 72
8
 73
4
 74
0
 40
0
 40
0
 40
0
 40
0
 40
1
 40
1
 40
1
 40
1
 10
0.445300
 20
4.558600
 30
0.0
 10
0.457300
 20
14.649600
 30
0.0
 10
0.472300
 20
24.739600
 30
0.0
 10
0.477300
 20
34.829600
 30
0.0
  0
SPLINE
  5
15d
100
AcDbEntity
  8
magstocklogo
 62
7
100
AcDbSpline
 70
8
 71
3
 72
8
 73
4
 74
0
 40
0
 40
0
 40
0
 40
0
 40
1
 40
1
 40
1
 40
1
 10
0.477300
 20
34.829600
 30
0.0
 10
0.479300
 20
37.699600
 30
0.0
 10
0.453300
 20
40.570600
 30
0.0
 10
0.440300
 20
43.440600
 30
0.0
  0
SPLINE
  5
15e
100
AcDbEntity
  8
magstocklogo
 62
7
100
AcDbSpline
 70
8
 71
3
 72
8
 73
4
 74
0
 40
0
 40
0
 40
0
 40
0
 40
1
 40
1
 40
1
 40
1
 10
0.440300
 20
43.440600
 30
0.0
 10
0.466300
 20
43.920600
 30
0.0
 10
0.493300
 20
44.400600
 30
0.0
 10
0.519300
 20
44.880600
 30
0.0
  0
SPLINE
  5
15f
100
AcDbEntity
  8
magstocklogo
 62
7
100
AcDbSpline
 70
8
 71
3
 72
8
 73
4
 74
0
 40
0
 40
0
 40
0
 40
0
 40
1
 40
1
 40
1
 40
1
 10
0.519300
 20
44.880600
 30
0.0
 10
0.887300
 20
45.342600
 30
0.0
 10
0.711300
 20
45.884600
 30
0.0
 10
0.712300
 20
46.385600
 30
0.0
  0
SPLINE
  5
160
100
AcDbEntity
  8
magstocklogo
 62
7
100
AcDbSpline
 70
8
 71
3
 72
8
 73
4
 74
0
 40
0
 40
0
 40
0
 40
0
 40
1
 40
1
 40
1
 40
1
 10
0.712300
 20
46.385600
 30
0.0
 10
0.721300
 20
76.339600
 30
0.0
 10
0.717300
 20
106.293600
 30
0.0
 10
0.729300
 20
136.247600
 30
0.0
  0
SPLINE
  5
161
100
AcDbEntity
  8
magstocklogo
 62
7
100
AcDbSpline
 70
8
 71
3
 72
8
 73
4
 74
0
 40
0
 40
0
 40
0
 40
0
 40
1
 40
1
 40
1
 40
1
 10
0.729300
 20
136.247600
 30
0.0
 10
0.729300
 20
137.765600
 30
0.0
 10
1.029300
 20
139.193600
 30
0.0
 10
1.885300
 20
140.543600
 30
0.0
  0
SPLINE
  5
162
100
AcDbEntity
  8
magstocklogo
 62
7
100
AcDbSpline
 70
8
 71
3
 72
8
 73
4
 74
0
 40
0
 40
0
 40
0
 40
0
 40
1
 40
1
 40
1
 40
1
 10
1.885300
 20
140.543600
 30
0.0
 10
2.851300
 20
142.066600
 30
0.0
 10
4.279300
 20
142.394600
 30
0.0
 10
5.856300
 20
142.554600
 30
0.0
  0
SPLINE
  5
163
100
AcDbEntity
  8
magstocklogo
 62
7
100
AcDbSpline
 70
8
 71
3
 72
8
 73
4
 74
0
 40
0
 40
0
 40
0
 40
0
 40
1
 40
1
 40
1
 40
1
 10
5.856300
 20
142.554600
 30
0.0
 10
6.173300
 20
142.586600
 30
0.0
 10
6.495300
 20
142.559600
 30
0.0
 10
6.815300
 20
142.559600
 30
0.0
  0
SPLINE
  5
164
100
AcDbEntity
  8
magstocklogo
 62
7
100
AcDbSpline
 70
8
 71
3
 72
8
 73
4
 74
0
 40
0
 40
0
 40
0
 40
0
 40
1
 40
1
 40
1
 40
1
 10
6.815300
 20
142.559600
 30
0.0
 10
37.369300
 20
142.559600
 30
0.0
 10
67.923300
 20
142.559600
 30
0.0
 10
98.477300
 20
142.561600
 30
0.0
  0
SPLINE
  5
165
100
AcDbEntity
  8
magstocklogo
 62
7
100
AcDbSpline
 70
8
 71
3
 72
8
 73
4
 74
0
 40
0
 40
0
 40
0
 40
0
 40
1
 40
1
 40
1
 40
1
 10
98.477300
 20
142.561600
 30
0.0
 10
99.036300
 20
142.561600
 30
0.0
 10
99.596300
 20
142.584600
 30
0.0
 10
100.155300
 20
142.596600
 30
0.0
  0
SPLINE
  5
166
100
AcDbEntity
  8
magstocklogo
 62
7
100
AcDbSpline
 70
8
 71
3
 72
8
 73
4
 74
0
 40
0
 40
0
 40
0
 40
0
 40
1
 40
1
 40
1
 40
1
 10
100.155300
 20
142.596600
 30
0.0
 10
102.291300
 20
141.507600
 30
0.0
 10
102.924300
 20
139.536600
 30
0.0
 10
102.929300
 20
137.390600
 30
0.0
  0
SPLINE
  5
167
100
AcDbEntity
  8
magstocklogo
 62
7
100
AcDbSpline
 70
8
 71
3
 72
8
 73
4
 74
0
 40
0
 40
0
 40
0
 40
0
 40
1
 40
1
 40
1
 40
1
 10
102.929300
 20
137.390600
 30
0.0
 10
102.970300
 20
121.871600
 30
0.0
 10
102.948300
 20
106.353600
 30
0.0
 10
102.949300
 20
90.834600
 30
0.0
  0
SPLINE
  5
168
100
AcDbEntity
  8
magstocklogo
 62
7
100
AcDbSpline
 70
8
 71
3
 72
8
 73
4
 74
0
 40
0
 40
0
 40
0
 40
0
 40
1
 40
1
 40
1
 40
1
 10
102.949300
 20
90.834600
 30
0.0
 10
102.949300
 20
62.637600
 30
0.0
 10
102.954300
 20
34.441600
 30
0.0
 10
102.941300
 20
6.244600
 30
0.0
  0
SPLINE
  5
169
100
AcDbEntity
  8
magstocklogo
 62
7
100
AcDbSpline
 70
8
 71
3
 72
8
 73
4
 74
0
 40
0
 40
0
 40
0
 40
0
 40
1
 40
1
 40
1
 40
1
 10
102.941300
 20
6.244600
 30
0.0
 10
102.940300
 20
5.320600
 30
0.0
 10
103.211300
 20
4.454600
 30
0.0
 10
103.083300
 20
3.465600
 30
0.0
  0
SPLINE
  5
16a
100
AcDbEntity
  8
magstocklogo
 62
7
100
AcDbSpline
 70
8
 71
3
 72
8
 73
4
 74
0
 40
0
 40
0
 40
0
 40
0
 40
1
 40
1
 40
1
 40
1
 10
103.083300
 20
3.465600
 30
0.0
 10
102.927300
 20
2.258600
 30
0.0
 10
102.357300
 20
1.503600
 30
0.0
 10
101.622300
 20
0.732600
 30
0.0
  0
SPLINE
  5
16b
100
AcDbEntity
  8
magstocklogo
 62
7
100
AcDbSpline
 70
8
 71
3
 72
8
 73
4
 74
0
 40
0
 40
0
 40
0
 40
0
 40
1
 40
1
 40
1
 40
1
 10
101.622300
 20
0.732600
 30
0.0
 10
101.349300
 20
0.445600
 30
0.0
 10
100.992300
 20
0.274600
 30
0.0
 10
100.588300
 20
0.249600
 30
0.0
  0
SPLINE
  5
16c
100
AcDbEntity
  8
magstocklogo
 62
7
100
AcDbSpline
 70
8
 71
3
 72
8
 73
4
 74
0
 40
0
 40
0
 40
0
 40
0
 40
1
 40
1
 40
1
 40
1
 10
100.588300
 20
0.249600
 30
0.0
 10
99.099300
 20
0.162600
 30
0.0
 10
97.619300
 20
-0.003400
 30
0.0
 10
96.121300
 20
-0.003400
 30
0.0
  0
SPLINE
  5
16d
100
AcDbEntity
  8
magstocklogo
 62
7
100
AcDbSpline
 70
8
 71
3
 72
8
 73
4
 74
0
 40
0
 40
0
 40
0
 40
0
 40
1
 40
1
 40
1
 40
1
 10
96.121300
 20
-0.003400
 30
0.0
 10
66.723300
 20
0.010600
 30
0.0
 10
37.325300
 20
-0.001400
 30
0.0
 10
7.927300
 20
0.028600
 30
0.0
  0
SPLINE
  5
16e
100
AcDbEntity
  8
magstocklogo
 62
7
100
AcDbSpline
 70
8
 71
3
 72
8
 73
4
 74
0
 40
0
 40
0
 40
0
 40
0
 40
1
 40
1
 40
1
 40
1
 10
7.927300
 20
0.028600
 30
0.0
 10
6.249300
 20
0.029600
 30
0.0
 10
4.565300
 20
0.286600
 30
0.0
 10
2.895300
 20
0.508600
 30
0.0
  0
SPLINE
  5
16f
100
AcDbEntity
  8
magstocklogo
 62
7
100
AcDbSpline
 70
8
 71
3
 72
8
 73
4
 74
0
 40
0
 40
0
 40
0
 40
0
 40
1
 40
1
 40
1
 40
1
 10
2.895300
 20
0.508600
 30
0.0
 10
1.949300
 20
0.634600
 30
0.0
 10
0.575300
 20
2.571600
 30
0.0
 10
0.489300
 20
3.722600
 30
0.0
  0
SPLINE
  5
170
100
AcDbEntity
  8
magstocklogo
 62
7
100
AcDbSpline
 70
8
 71
3
 72
8
 73
4
 74
0
 40
0
 40
0
 40
0
 40
0
 40
1
 40
1
 40
1
 40
1
 10
0.489300
 20
3.722600
 30
0.0
 10
0.468300
 20
4.000600
 30
0.0
 10
0.460300
 20
4.280600
 30
0.0
 10
0.445300
 20
4.558600
 30
0.0
  0
SPLINE
  5
171
100
AcDbEntity
  8
magstocklogo
 62
7
100
AcDbSpline
 70
8
 71
3
 72
8
 73
4
 74
0
 40
0
 40
0
 40
0
 40
0
 40
1
 40
1
 40
1
 40
1
 10
292.301800
 20
107.588900
 30
0.0
 10
290.856800
 20
104.041900
 30
0.0
 10
289.543800
 20
100.802900
 30
0.0
 10
288.216800
 20
97.568900
 30
0.0
  0
SPLINE
  5
172
100
AcDbEntity
  8
magstocklogo
 62
7
100
AcDbSpline
 70
8
 71
3
 72
8
 73
4
 74
0
 40
0
 40
0
 40
0
 40
0
 40
1
 40
1
 40
1
 40
1
 10
288.216800
 20
97.568900
 30
0.0
 10
285.739800
 20
91.534900
 30
0.0
 10
283.247800
 20
85.505900
 30
0.0
 10
280.774800
 20
79.470900
 30
0.0
  0
SPLINE
  5
173
100
AcDbEntity
  8
magstocklogo
 62
7
100
AcDbSpline
 70
8
 71
3
 72
8
 73
4
 74
0
 40
0
 40
0
 40
0
 40
0
 40
1
 40
1
 40
1
 40
1
 10
280.774800
 20
79.470900
 30
0.0
 10
278.301800
 20
73.434900
 30
0.0
 10
275.842800
 20
67.393900
 30
0.0
 10
273.379800
 20
61.354900
 30
0.0
  0
SPLINE
  5
174
100
AcDbEntity
  8
magstocklogo
 62
7
100
AcDbSpline
 70
8
 71
3
 72
8
 73
4
 74
0
 40
0
 40
0
 40
0
 40
0
 40
1
 40
1
 40
1
 40
1
 10
273.379800
 20
61.354900
 30
0.0
 10
270.390800
 20
54.026900
 30
0.0
 10
267.405800
 20
46.698900
 30
0.0
 10
264.417800
 20
39.370900
 30
0.0
  0
SPLINE
  5
175
100
AcDbEntity
  8
magstocklogo
 62
7
100
AcDbSpline
 70
8
 71
3
 72
8
 73
4
 74
0
 40
0
 40
0
 40
0
 40
0
 40
1
 40
1
 40
1
 40
1
 10
264.417800
 20
39.370900
 30
0.0
 10
264.357800
 20
39.224900
 30
0.0
 10
264.275800
 20
39.085900
 30
0.0
 10
264.222800
 20
38.936900
 30
0.0
  0
SPLINE
  5
176
100
AcDbEntity
  8
magstocklogo
 62
7
100
AcDbSpline
 70
8
 71
3
 72
8
 73
4
 74
0
 40
0
 40
0
 40
0
 40
0
 40
1
 40
1
 40
1
 40
1
 10
264.222800
 20
38.936900
 30
0.0
 10
263.180800
 20
35.999900
 30
0.0
 10
263.181800
 20
36.006900
 30
0.0
 10
260.087800
 20
36.006900
 30
0.0
  0
SPLINE
  5
177
100
AcDbEntity
  8
magstocklogo
 62
7
100
AcDbSpline
 70
8
 71
3
 72
8
 73
4
 74
0
 40
0
 40
0
 40
0
 40
0
 40
1
 40
1
 40
1
 40
1
 10
260.087800
 20
36.006900
 30
0.0
 10
235.809800
 20
36.008900
 30
0.0
 10
211.530800
 20
36.014900
 30
0.0
 10
187.252800
 20
35.988900
 30
0.0
  0
SPLINE
  5
178
100
AcDbEntity
  8
magstocklogo
 62
7
100
AcDbSpline
 70
8
 71
3
 72
8
 73
4
 74
0
 40
0
 40
0
 40
0
 40
0
 40
1
 40
1
 40
1
 40
1
 10
187.252800
 20
35.988900
 30
0.0
 10
185.807800
 20
35.987900
 30
0.0
 10
184.925800
 20
36.693900
 30
0.0
 10
184.371800
 20
37.857900
 30
0.0
  0
SPLINE
  5
179
100
AcDbEntity
  8
magstocklogo
 62
7
100
AcDbSpline
 70
8
 71
3
 72
8
 73
4
 74
0
 40
0
 40
0
 40
0
 40
0
 40
1
 40
1
 40
1
 40
1
 10
184.371800
 20
37.857900
 30
0.0
 10
180.327800
 20
46.333900
 30
0.0
 10
176.319800
 20
54.826900
 30
0.0
 10
172.294800
 20
63.313900
 30
0.0
  0
SPLINE
  5
17a
100
AcDbEntity
  8
magstocklogo
 62
7
100
AcDbSpline
 70
8
 71
3
 72
8
 73
4
 74
0
 40
0
 40
0
 40
0
 40
0
 40
1
 40
1
 40
1
 40
1
 10
172.294800
 20
63.313900
 30
0.0
 10
165.917800
 20
76.761900
 30
0.0
 10
159.537800
 20
90.208900
 30
0.0
 10
153.147800
 20
103.650900
 30
0.0
  0
SPLINE
  5
17b
100
AcDbEntity
  8
magstocklogo
 62
7
100
AcDbSpline
 70
8
 71
3
 72
8
 73
4
 74
0
 40
0
 40
0
 40
0
 40
0
 40
1
 40
1
 40
1
 40
1
 10
153.147800
 20
103.650900
 30
0.0
 10
152.974800
 20
104.013900
 30
0.0
 10
152.949800
 20
104.643900
 30
0.0
 10
152.439800
 20
104.614900
 30
0.0
  0
SPLINE
  5
17c
100
AcDbEntity
  8
magstocklogo
 62
7
100
AcDbSpline
 70
8
 71
3
 72
8
 73
4
 74
0
 40
0
 40
0
 40
0
 40
0
 40
1
 40
1
 40
1
 40
1
 10
152.439800
 20
104.614900
 30
0.0
 10
152.026800
 20
104.591900
 30
0.0
 10
152.008800
 20
104.008900
 30
0.0
 10
151.851800
 20
103.653900
 30
0.0
  0
SPLINE
  5
17d
100
AcDbEntity
  8
magstocklogo
 62
7
100
AcDbSpline
 70
8
 71
3
 72
8
 73
4
 74
0
 40
0
 40
0
 40
0
 40
0
 40
1
 40
1
 40
1
 40
1
 10
151.851800
 20
103.653900
 30
0.0
 10
147.535800
 20
93.852900
 30
0.0
 10
143.218800
 20
84.050900
 30
0.0
 10
138.905800
 20
74.247900
 30
0.0
  0
SPLINE
  5
17e
100
AcDbEntity
  8
magstocklogo
 62
7
100
AcDbSpline
 70
8
 71
3
 72
8
 73
4
 74
0
 40
0
 40
0
 40
0
 40
0
 40
1
 40
1
 40
1
 40
1
 10
138.905800
 20
74.247900
 30
0.0
 10
135.334800
 20
66.129900
 30
0.0
 10
131.763800
 20
58.011900
 30
0.0
 10
128.200800
 20
49.890900
 30
0.0
  0
SPLINE
  5
17f
100
AcDbEntity
  8
magstocklogo
 62
7
100
AcDbSpline
 70
8
 71
3
 72
8
 73
4
 74
0
 40
0
 40
0
 40
0
 40
0
 40
1
 40
1
 40
1
 40
1
 10
128.200800
 20
49.890900
 30
0.0
 10
126.558800
 20
46.149900
 30
0.0
 10
125.043800
 20
42.346900
 30
0.0
 10
123.245800
 20
38.682900
 30
0.0
  0
SPLINE
  5
180
100
AcDbEntity
  8
magstocklogo
 62
7
100
AcDbSpline
 70
8
 71
3
 72
8
 73
4
 74
0
 40
0
 40
0
 40
0
 40
0
 40
1
 40
1
 40
1
 40
1
 10
123.245800
 20
38.682900
 30
0.0
 10
122.561800
 20
37.287900
 30
0.0
 10
121.493800
 20
36.099900
 30
0.0
 10
119.427800
 20
36.190900
 30
0.0
  0
SPLINE
  5
181
100
AcDbEntity
  8
magstocklogo
 62
7
100
AcDbSpline
 70
8
 71
3
 72
8
 73
4
 74
0
 40
0
 40
0
 40
0
 40
0
 40
1
 40
1
 40
1
 40
1
 10
119.427800
 20
36.190900
 30
0.0
 10
115.156800
 20
36.378900
 30
0.0
 10
110.870800
 20
36.264900
 30
0.0
 10
106.591800
 20
36.231900
 30
0.0
  0
SPLINE
  5
182
100
AcDbEntity
  8
magstocklogo
 62
7
100
AcDbSpline
 70
8
 71
3
 72
8
 73
4
 74
0
 40
0
 40
0
 40
0
 40
0
 40
1
 40
1
 40
1
 40
1
 10
106.591800
 20
36.231900
 30
0.0
 10
105.846800
 20
36.225900
 30
0.0
 10
105.555800
 20
36.362900
 30
0.0
 10
105.586800
 20
37.190900
 30
0.0
  0
SPLINE
  5
183
100
AcDbEntity
  8
magstocklogo
 62
7
100
AcDbSpline
 70
8
 71
3
 72
8
 73
4
 74
0
 40
0
 40
0
 40
0
 40
0
 40
1
 40
1
 40
1
 40
1
 10
105.586800
 20
37.190900
 30
0.0
 10
105.655800
 20
39.067900
 30
0.0
 10
105.640800
 20
40.949900
 30
0.0
 10
105.593800
 20
42.828900
 30
0.0
  0
SPLINE
  5
184
100
AcDbEntity
  8
magstocklogo
 62
7
100
AcDbSpline
 70
8
 71
3
 72
8
 73
4
 74
0
 40
0
 40
0
 40
0
 40
0
 40
1
 40
1
 40
1
 40
1
 10
105.593800
 20
42.828900
 30
0.0
 10
105.575800
 20
43.521900
 30
0.0
 10
105.796800
 20
43.695900
 30
0.0
 10
106.464800
 20
43.686900
 30
0.0
  0
SPLINE
  5
185
100
AcDbEntity
  8
magstocklogo
 62
7
100
AcDbSpline
 70
8
 71
3
 72
8
 73
4
 74
0
 40
0
 40
0
 40
0
 40
0
 40
1
 40
1
 40
1
 40
1
 10
106.464800
 20
43.686900
 30
0.0
 10
108.903800
 20
43.649900
 30
0.0
 10
111.343800
 20
43.672900
 30
0.0
 10
113.783800
 20
43.671900
 30
0.0
  0
SPLINE
  5
186
100
AcDbEntity
  8
magstocklogo
 62
7
100
AcDbSpline
 70
8
 71
3
 72
8
 73
4
 74
0
 40
0
 40
0
 40
0
 40
0
 40
1
 40
1
 40
1
 40
1
 10
113.783800
 20
43.671900
 30
0.0
 10
116.881800
 20
43.670900
 30
0.0
 10
117.040800
 20
43.775900
 30
0.0
 10
118.199800
 20
46.538900
 30
0.0
  0
SPLINE
  5
187
100
AcDbEntity
  8
magstocklogo
 62
7
100
AcDbSpline
 70
8
 71
3
 72
8
 73
4
 74
0
 40
0
 40
0
 40
0
 40
0
 40
1
 40
1
 40
1
 40
1
 10
118.199800
 20
46.538900
 30
0.0
 10
120.864800
 20
52.890900
 30
0.0
 10
123.508800
 20
59.249900
 30
0.0
 10
126.199800
 20
65.590900
 30
0.0
  0
SPLINE
  5
188
100
AcDbEntity
  8
magstocklogo
 62
7
100
AcDbSpline
 70
8
 71
3
 72
8
 73
4
 74
0
 40
0
 40
0
 40
0
 40
0
 40
1
 40
1
 40
1
 40
1
 10
126.199800
 20
65.590900
 30
0.0
 10
132.335800
 20
80.049900
 30
0.0
 10
138.498800
 20
94.497900
 30
0.0
 10
144.641800
 20
108.954900
 30
0.0
  0
SPLINE
  5
189
100
AcDbEntity
  8
magstocklogo
 62
7
100
AcDbSpline
 70
8
 71
3
 72
8
 73
4
 74
0
 40
0
 40
0
 40
0
 40
0
 40
1
 40
1
 40
1
 40
1
 10
144.641800
 20
108.954900
 30
0.0
 10
146.213800
 20
112.651900
 30
0.0
 10
147.721800
 20
116.375900
 30
0.0
 10
149.327800
 20
120.058900
 30
0.0
  0
SPLINE
  5
18a
100
AcDbEntity
  8
magstocklogo
 62
7
100
AcDbSpline
 70
8
 71
3
 72
8
 73
4
 74
0
 40
0
 40
0
 40
0
 40
0
 40
1
 40
1
 40
1
 40
1
 10
149.327800
 20
120.058900
 30
0.0
 10
149.599800
 20
120.683900
 30
0.0
 10
150.148800
 20
121.246900
 30
0.0
 10
150.693800
 20
121.681900
 30
0.0
  0
SPLINE
  5
18b
100
AcDbEntity
  8
magstocklogo
 62
7
100
AcDbSpline
 70
8
 71
3
 72
8
 73
4
 74
0
 40
0
 40
0
 40
0
 40
0
 40
1
 40
1
 40
1
 40
1
 10
150.693800
 20
121.681900
 30
0.0
 10
151.413800
 20
122.255900
 30
0.0
 10
152.065800
 20
121.923900
 30
0.0
 10
152.672800
 20
121.303900
 30
0.0
  0
SPLINE
  5
18c
100
AcDbEntity
  8
magstocklogo
 62
7
100
AcDbSpline
 70
8
 71
3
 72
8
 73
4
 74
0
 40
0
 40
0
 40
0
 40
0
 40
1
 40
1
 40
1
 40
1
 10
152.672800
 20
121.303900
 30
0.0
 10
153.957800
 20
119.989900
 30
0.0
 10
154.663800
 20
118.333900
 30
0.0
 10
155.463800
 20
116.735900
 30
0.0
  0
SPLINE
  5
18d
100
AcDbEntity
  8
magstocklogo
 62
7
100
AcDbSpline
 70
8
 71
3
 72
8
 73
4
 74
0
 40
0
 40
0
 40
0
 40
0
 40
1
 40
1
 40
1
 40
1
 10
155.463800
 20
116.735900
 30
0.0
 10
160.376800
 20
106.916900
 30
0.0
 10
165.259800
 20
97.081900
 30
0.0
 10
170.177800
 20
87.263900
 30
0.0
  0
SPLINE
  5
18e
100
AcDbEntity
  8
magstocklogo
 62
7
100
AcDbSpline
 70
8
 71
3
 72
8
 73
4
 74
0
 40
0
 40
0
 40
0
 40
0
 40
1
 40
1
 40
1
 40
1
 10
170.177800
 20
87.263900
 30
0.0
 10
175.012800
 20
77.610900
 30
0.0
 10
179.878800
 20
67.972900
 30
0.0
 10
184.727800
 20
58.326900
 30
0.0
  0
SPLINE
  5
18f
100
AcDbEntity
  8
magstocklogo
 62
7
100
AcDbSpline
 70
8
 71
3
 72
8
 73
4
 74
0
 40
0
 40
0
 40
0
 40
0
 40
1
 40
1
 40
1
 40
1
 10
184.727800
 20
58.326900
 30
0.0
 10
186.981800
 20
53.841900
 30
0.0
 10
189.248800
 20
49.362900
 30
0.0
 10
191.456800
 20
44.855900
 30
0.0
  0
SPLINE
  5
190
100
AcDbEntity
  8
magstocklogo
 62
7
100
AcDbSpline
 70
8
 71
3
 72
8
 73
4
 74
0
 40
0
 40
0
 40
0
 40
0
 40
1
 40
1
 40
1
 40
1
 10
191.456800
 20
44.855900
 30
0.0
 10
191.809800
 20
44.134900
 30
0.0
 10
192.183800
 20
43.889900
 30
0.0
 10
192.986800
 20
43.890900
 30
0.0
  0
SPLINE
  5
191
100
AcDbEntity
  8
magstocklogo
 62
7
100
AcDbSpline
 70
8
 71
3
 72
8
 73
4
 74
0
 40
0
 40
0
 40
0
 40
0
 40
1
 40
1
 40
1
 40
1
 10
192.986800
 20
43.890900
 30
0.0
 10
214.304800
 20
43.915900
 30
0.0
 10
235.623800
 20
43.916900
 30
0.0
 10
256.942800
 20
43.888900
 30
0.0
  0
SPLINE
  5
192
100
AcDbEntity
  8
magstocklogo
 62
7
100
AcDbSpline
 70
8
 71
3
 72
8
 73
4
 74
0
 40
0
 40
0
 40
0
 40
0
 40
1
 40
1
 40
1
 40
1
 10
256.942800
 20
43.888900
 30
0.0
 10
257.770800
 20
43.887900
 30
0.0
 10
258.133800
 20
44.157900
 30
0.0
 10
258.426800
 20
44.880900
 30
0.0
  0
SPLINE
  5
193
100
AcDbEntity
  8
magstocklogo
 62
7
100
AcDbSpline
 70
8
 71
3
 72
8
 73
4
 74
0
 40
0
 40
0
 40
0
 40
0
 40
1
 40
1
 40
1
 40
1
 10
258.426800
 20
44.880900
 30
0.0
 10
262.735800
 20
55.498900
 30
0.0
 10
267.059800
 20
66.111900
 30
0.0
 10
271.396800
 20
76.719900
 30
0.0
  0
SPLINE
  5
194
100
AcDbEntity
  8
magstocklogo
 62
7
100
AcDbSpline
 70
8
 71
3
 72
8
 73
4
 74
0
 40
0
 40
0
 40
0
 40
0
 40
1
 40
1
 40
1
 40
1
 10
271.396800
 20
76.719900
 30
0.0
 10
275.713800
 20
87.279900
 30
0.0
 10
280.049800
 20
97.831900
 30
0.0
 10
284.376800
 20
108.387900
 30
0.0
  0
SPLINE
  5
195
100
AcDbEntity
  8
magstocklogo
 62
7
100
AcDbSpline
 70
8
 71
3
 72
8
 73
4
 74
0
 40
0
 40
0
 40
0
 40
0
 40
1
 40
1
 40
1
 40
1
 10
284.376800
 20
108.387900
 30
0.0
 10
285.988800
 20
112.320900
 30
0.0
 10
287.613800
 20
116.248900
 30
0.0
 10
289.196800
 20
120.192900
 30
0.0
  0
SPLINE
  5
196
100
AcDbEntity
  8
magstocklogo
 62
7
100
AcDbSpline
 70
8
 71
3
 72
8
 73
4
 74
0
 40
0
 40
0
 40
0
 40
0
 40
1
 40
1
 40
1
 40
1
 10
289.196800
 20
120.192900
 30
0.0
 10
289.562800
 20
121.104900
 30
0.0
 10
290.170800
 20
121.843900
 30
0.0
 10
290.776800
 20
122.554900
 30
0.0
  0
SPLINE
  5
197
100
AcDbEntity
  8
magstocklogo
 62
7
100
AcDbSpline
 70
8
 71
3
 72
8
 73
4
 74
0
 40
0
 40
0
 40
0
 40
0
 40
1
 40
1
 40
1
 40
1
 10
290.776800
 20
122.554900
 30
0.0
 10
291.778800
 20
123.729900
 30
0.0
 10
293.106800
 20
123.462900
 30
0.0
 10
293.864800
 20
121.965900
 30
0.0
  0
SPLINE
  5
198
100
AcDbEntity
  8
magstocklogo
 62
7
100
AcDbSpline
 70
8
 71
3
 72
8
 73
4
 74
0
 40
0
 40
0
 40
0
 40
0
 40
1
 40
1
 40
1
 40
1
 10
293.864800
 20
121.965900
 30
0.0
 10
296.169800
 20
117.413900
 30
0.0
 10
298.442800
 20
112.846900
 30
0.0
 10
300.719800
 20
108.280900
 30
0.0
  0
SPLINE
  5
199
100
AcDbEntity
  8
magstocklogo
 62
7
100
AcDbSpline
 70
8
 71
3
 72
8
 73
4
 74
0
 40
0
 40
0
 40
0
 40
0
 40
1
 40
1
 40
1
 40
1
 10
300.719800
 20
108.280900
 30
0.0
 10
304.503800
 20
100.694900
 30
0.0
 10
308.286800
 20
93.109900
 30
0.0
 10
312.059800
 20
85.518900
 30
0.0
  0
SPLINE
  5
19a
100
AcDbEntity
  8
magstocklogo
 62
7
100
AcDbSpline
 70
8
 71
3
 72
8
 73
4
 74
0
 40
0
 40
0
 40
0
 40
0
 40
1
 40
1
 40
1
 40
1
 10
312.059800
 20
85.518900
 30
0.0
 10
316.117800
 20
77.351900
 30
0.0
 10
320.161800
 20
69.177900
 30
0.0
 10
324.214800
 20
61.006900
 30
0.0
  0
SPLINE
  5
19b
100
AcDbEntity
  8
magstocklogo
 62
7
100
AcDbSpline
 70
8
 71
3
 72
8
 73
4
 74
0
 40
0
 40
0
 40
0
 40
0
 40
1
 40
1
 40
1
 40
1
 10
324.214800
 20
61.006900
 30
0.0
 10
326.973800
 20
55.445900
 30
0.0
 10
329.745800
 20
49.890900
 30
0.0
 10
332.484800
 20
44.318900
 30
0.0
  0
SPLINE
  5
19c
100
AcDbEntity
  8
magstocklogo
 62
7
100
AcDbSpline
 70
8
 71
3
 72
8
 73
4
 74
0
 40
0
 40
0
 40
0
 40
0
 40
1
 40
1
 40
1
 40
1
 10
332.484800
 20
44.318900
 30
0.0
 10
332.800800
 20
43.674900
 30
0.0
 10
333.266800
 20
43.663900
 30
0.0
 10
333.846800
 20
43.664900
 30
0.0
  0
SPLINE
  5
19d
100
AcDbEntity
  8
magstocklogo
 62
7
100
AcDbSpline
 70
8
 71
3
 72
8
 73
4
 74
0
 40
0
 40
0
 40
0
 40
0
 40
1
 40
1
 40
1
 40
1
 10
333.846800
 20
43.664900
 30
0.0
 10
343.965800
 20
43.673900
 30
0.0
 10
354.084800
 20
43.671900
 30
0.0
 10
364.204800
 20
43.671900
 30
0.0
  0
SPLINE
  5
19e
100
AcDbEntity
  8
magstocklogo
 62
7
100
AcDbSpline
 70
8
 71
3
 72
8
 73
4
 74
0
 40
0
 40
0
 40
0
 40
0
 40
1
 40
1
 40
1
 40
1
 10
364.204800
 20
43.671900
 30
0.0
 10
375.123800
 20
43.671900
 30
0.0
 10
386.043800
 20
43.688900
 30
0.0
 10
396.962800
 20
43.644900
 30
0.0
  0
SPLINE
  5
19f
100
AcDbEntity
  8
magstocklogo
 62
7
100
AcDbSpline
 70
8
 71
3
 72
8
 73
4
 74
0
 40
0
 40
0
 40
0
 40
0
 40
1
 40
1
 40
1
 40
1
 10
396.962800
 20
43.644900
 30
0.0
 10
397.987800
 20
43.640900
 30
0.0
 10
398.390800
 20
43.998900
 30
0.0
 10
398.754800
 20
44.899900
 30
0.0
  0
SPLINE
  5
1a0
100
AcDbEntity
  8
magstocklogo
 62
7
100
AcDbSpline
 70
8
 71
3
 72
8
 73
4
 74
0
 40
0
 40
0
 40
0
 40
0
 40
1
 40
1
 40
1
 40
1
 10
398.754800
 20
44.899900
 30
0.0
 10
404.035800
 20
57.924900
 30
0.0
 10
409.372800
 20
70.927900
 30
0.0
 10
414.662800
 20
83.948900
 30
0.0
  0
SPLINE
  5
1a1
100
AcDbEntity
  8
magstocklogo
 62
7
100
AcDbSpline
 70
8
 71
3
 72
8
 73
4
 74
0
 40
0
 40
0
 40
0
 40
0
 40
1
 40
1
 40
1
 40
1
 10
414.662800
 20
83.948900
 30
0.0
 10
419.427800
 20
95.675900
 30
0.0
 10
424.150800
 20
107.418900
 30
0.0
 10
428.893800
 20
119.152900
 30
0.0
  0
SPLINE
  5
1a2
100
AcDbEntity
  8
magstocklogo
 62
7
100
AcDbSpline
 70
8
 71
3
 72
8
 73
4
 74
0
 40
0
 40
0
 40
0
 40
0
 40
1
 40
1
 40
1
 40
1
 10
428.893800
 20
119.152900
 30
0.0
 10
429.590800
 20
120.877900
 30
0.0
 10
430.322800
 20
122.587900
 30
0.0
 10
430.994800
 20
124.320900
 30
0.0
  0
SPLINE
  5
1a3
100
AcDbEntity
  8
magstocklogo
 62
7
100
AcDbSpline
 70
8
 71
3
 72
8
 73
4
 74
0
 40
0
 40
0
 40
0
 40
0
 40
1
 40
1
 40
1
 40
1
 10
430.994800
 20
124.320900
 30
0.0
 10
431.284800
 20
125.068900
 30
0.0
 10
431.741800
 20
125.525900
 30
0.0
 10
432.546800
 20
125.602900
 30
0.0
  0
SPLINE
  5
1a4
100
AcDbEntity
  8
magstocklogo
 62
7
100
AcDbSpline
 70
8
 71
3
 72
8
 73
4
 74
0
 40
0
 40
0
 40
0
 40
0
 40
1
 40
1
 40
1
 40
1
 10
432.546800
 20
125.602900
 30
0.0
 10
433.342800
 20
125.677900
 30
0.0
 10
433.852800
 20
125.216900
 30
0.0
 10
434.161800
 20
124.587900
 30
0.0
  0
SPLINE
  5
1a5
100
AcDbEntity
  8
magstocklogo
 62
7
100
AcDbSpline
 70
8
 71
3
 72
8
 73
4
 74
0
 40
0
 40
0
 40
0
 40
0
 40
1
 40
1
 40
1
 40
1
 10
434.161800
 20
124.587900
 30
0.0
 10
435.379800
 20
122.110900
 30
0.0
 10
436.543800
 20
119.607900
 30
0.0
 10
437.746800
 20
117.122900
 30
0.0
  0
SPLINE
  5
1a6
100
AcDbEntity
  8
magstocklogo
 62
7
100
AcDbSpline
 70
8
 71
3
 72
8
 73
4
 74
0
 40
0
 40
0
 40
0
 40
0
 40
1
 40
1
 40
1
 40
1
 10
437.746800
 20
117.122900
 30
0.0
 10
444.627800
 20
102.912900
 30
0.0
 10
451.511800
 20
88.703900
 30
0.0
 10
458.399800
 20
74.496900
 30
0.0
  0
SPLINE
  5
1a7
100
AcDbEntity
  8
magstocklogo
 62
7
100
AcDbSpline
 70
8
 71
3
 72
8
 73
4
 74
0
 40
0
 40
0
 40
0
 40
0
 40
1
 40
1
 40
1
 40
1
 10
458.399800
 20
74.496900
 30
0.0
 10
462.918800
 20
65.173900
 30
0.0
 10
467.574800
 20
55.914900
 30
0.0
 10
471.881800
 20
46.494900
 30
0.0
  0
SPLINE
  5
1a8
100
AcDbEntity
  8
magstocklogo
 62
7
100
AcDbSpline
 70
8
 71
3
 72
8
 73
4
 74
0
 40
0
 40
0
 40
0
 40
0
 40
1
 40
1
 40
1
 40
1
 10
471.881800
 20
46.494900
 30
0.0
 10
473.043800
 20
43.951900
 30
0.0
 10
474.372800
 20
43.280900
 30
0.0
 10
477.013800
 20
43.361900
 30
0.0
  0
SPLINE
  5
1a9
100
AcDbEntity
  8
magstocklogo
 62
7
100
AcDbSpline
 70
8
 71
3
 72
8
 73
4
 74
0
 40
0
 40
0
 40
0
 40
0
 40
1
 40
1
 40
1
 40
1
 10
477.013800
 20
43.361900
 30
0.0
 10
483.807800
 20
43.569900
 30
0.0
 10
490.611800
 20
43.450900
 30
0.0
 10
497.410800
 20
43.407900
 30
0.0
  0
SPLINE
  5
1aa
100
AcDbEntity
  8
magstocklogo
 62
7
100
AcDbSpline
 70
8
 71
3
 72
8
 73
4
 74
0
 40
0
 40
0
 40
0
 40
0
 40
1
 40
1
 40
1
 40
1
 10
497.410800
 20
43.407900
 30
0.0
 10
498.318800
 20
43.401900
 30
0.0
 10
498.517800
 20
43.633900
 30
0.0
 10
498.511800
 20
44.520900
 30
0.0
  0
SPLINE
  5
1ab
100
AcDbEntity
  8
magstocklogo
 62
7
100
AcDbSpline
 70
8
 71
3
 72
8
 73
4
 74
0
 40
0
 40
0
 40
0
 40
0
 40
1
 40
1
 40
1
 40
1
 10
498.511800
 20
44.520900
 30
0.0
 10
498.468800
 20
50.519900
 30
0.0
 10
498.505800
 20
56.519900
 30
0.0
 10
498.469800
 20
62.519900
 30
0.0
  0
SPLINE
  5
1ac
100
AcDbEntity
  8
magstocklogo
 62
7
100
AcDbSpline
 70
8
 71
3
 72
8
 73
4
 74
0
 40
0
 40
0
 40
0
 40
0
 40
1
 40
1
 40
1
 40
1
 10
498.469800
 20
62.519900
 30
0.0
 10
498.463800
 20
63.371900
 30
0.0
 10
498.610800
 20
63.683900
 30
0.0
 10
499.554800
 20
63.651900
 30
0.0
  0
SPLINE
  5
1ad
100
AcDbEntity
  8
magstocklogo
 62
7
100
AcDbSpline
 70
8
 71
3
 72
8
 73
4
 74
0
 40
0
 40
0
 40
0
 40
0
 40
1
 40
1
 40
1
 40
1
 10
499.554800
 20
63.651900
 30
0.0
 10
501.991800
 20
63.572900
 30
0.0
 10
504.434800
 20
63.596900
 30
0.0
 10
506.872800
 20
63.644900
 30
0.0
  0
SPLINE
  5
1ae
100
AcDbEntity
  8
magstocklogo
 62
7
100
AcDbSpline
 70
8
 71
3
 72
8
 73
4
 74
0
 40
0
 40
0
 40
0
 40
0
 40
1
 40
1
 40
1
 40
1
 10
506.872800
 20
63.644900
 30
0.0
 10
507.657800
 20
63.659900
 30
0.0
 10
507.997800
 20
63.541900
 30
0.0
 10
507.961800
 20
62.632900
 30
0.0
  0
SPLINE
  5
1af
100
AcDbEntity
  8
magstocklogo
 62
7
100
AcDbSpline
 70
8
 71
3
 72
8
 73
4
 74
0
 40
0
 40
0
 40
0
 40
0
 40
1
 40
1
 40
1
 40
1
 10
507.961800
 20
62.632900
 30
0.0
 10
507.885800
 20
60.756900
 30
0.0
 10
507.929800
 20
58.874900
 30
0.0
 10
507.963800
 20
56.995900
 30
0.0
  0
SPLINE
  5
1b0
100
AcDbEntity
  8
magstocklogo
 62
7
100
AcDbSpline
 70
8
 71
3
 72
8
 73
4
 74
0
 40
0
 40
0
 40
0
 40
0
 40
1
 40
1
 40
1
 40
1
 10
507.963800
 20
56.995900
 30
0.0
 10
507.976800
 20
56.343900
 30
0.0
 10
507.789800
 20
56.000900
 30
0.0
 10
507.092800
 20
56.133900
 30
0.0
  0
SPLINE
  5
1b1
100
AcDbEntity
  8
magstocklogo
 62
7
100
AcDbSpline
 70
8
 71
3
 72
8
 73
4
 74
0
 40
0
 40
0
 40
0
 40
0
 40
1
 40
1
 40
1
 40
1
 10
507.092800
 20
56.133900
 30
0.0
 10
506.252800
 20
56.292900
 30
0.0
 10
506.135800
 20
55.873900
 30
0.0
 10
506.138800
 20
55.141900
 30
0.0
  0
SPLINE
  5
1b2
100
AcDbEntity
  8
magstocklogo
 62
7
100
AcDbSpline
 70
8
 71
3
 72
8
 73
4
 74
0
 40
0
 40
0
 40
0
 40
0
 40
1
 40
1
 40
1
 40
1
 10
506.138800
 20
55.141900
 30
0.0
 10
506.164800
 20
49.181900
 30
0.0
 10
506.129800
 20
43.221900
 30
0.0
 10
506.175800
 20
37.262900
 30
0.0
  0
SPLINE
  5
1b3
100
AcDbEntity
  8
magstocklogo
 62
7
100
AcDbSpline
 70
8
 71
3
 72
8
 73
4
 74
0
 40
0
 40
0
 40
0
 40
0
 40
1
 40
1
 40
1
 40
1
 10
506.175800
 20
37.262900
 30
0.0
 10
506.183800
 20
36.237900
 30
0.0
 10
506.011800
 20
35.869900
 30
0.0
 10
504.858800
 20
35.874900
 30
0.0
  0
SPLINE
  5
1b4
100
AcDbEntity
  8
magstocklogo
 62
7
100
AcDbSpline
 70
8
 71
3
 72
8
 73
4
 74
0
 40
0
 40
0
 40
0
 40
0
 40
1
 40
1
 40
1
 40
1
 10
504.858800
 20
35.874900
 30
0.0
 10
492.738800
 20
35.924900
 30
0.0
 10
480.619800
 20
35.918900
 30
0.0
 10
468.500800
 20
35.882900
 30
0.0
  0
SPLINE
  5
1b5
100
AcDbEntity
  8
magstocklogo
 62
7
100
AcDbSpline
 70
8
 71
3
 72
8
 73
4
 74
0
 40
0
 40
0
 40
0
 40
0
 40
1
 40
1
 40
1
 40
1
 10
468.500800
 20
35.882900
 30
0.0
 10
467.455800
 20
35.879900
 30
0.0
 10
466.924800
 20
36.300900
 30
0.0
 10
466.500800
 20
37.165900
 30
0.0
  0
SPLINE
  5
1b6
100
AcDbEntity
  8
magstocklogo
 62
7
100
AcDbSpline
 70
8
 71
3
 72
8
 73
4
 74
0
 40
0
 40
0
 40
0
 40
0
 40
1
 40
1
 40
1
 40
1
 10
466.500800
 20
37.165900
 30
0.0
 10
460.639800
 20
49.118900
 30
0.0
 10
454.756800
 20
61.060900
 30
0.0
 10
448.892800
 20
73.011900
 30
0.0
  0
SPLINE
  5
1b7
100
AcDbEntity
  8
magstocklogo
 62
7
100
AcDbSpline
 70
8
 71
3
 72
8
 73
4
 74
0
 40
0
 40
0
 40
0
 40
0
 40
1
 40
1
 40
1
 40
1
 10
448.892800
 20
73.011900
 30
0.0
 10
443.948800
 20
83.084900
 30
0.0
 10
439.023800
 20
93.166900
 30
0.0
 10
434.077800
 20
103.237900
 30
0.0
  0
SPLINE
  5
1b8
100
AcDbEntity
  8
magstocklogo
 62
7
100
AcDbSpline
 70
8
 71
3
 72
8
 73
4
 74
0
 40
0
 40
0
 40
0
 40
0
 40
1
 40
1
 40
1
 40
1
 10
434.077800
 20
103.237900
 30
0.0
 10
433.914800
 20
103.570900
 30
0.0
 10
433.862800
 20
104.154900
 30
0.0
 10
433.417800
 20
104.119900
 30
0.0
  0
SPLINE
  5
1b9
100
AcDbEntity
  8
magstocklogo
 62
7
100
AcDbSpline
 70
8
 71
3
 72
8
 73
4
 74
0
 40
0
 40
0
 40
0
 40
0
 40
1
 40
1
 40
1
 40
1
 10
433.417800
 20
104.119900
 30
0.0
 10
433.024800
 20
104.088900
 30
0.0
 10
433.002800
 20
103.520900
 30
0.0
 10
432.855800
 20
103.175900
 30
0.0
  0
SPLINE
  5
1ba
100
AcDbEntity
  8
magstocklogo
 62
7
100
AcDbSpline
 70
8
 71
3
 72
8
 73
4
 74
0
 40
0
 40
0
 40
0
 40
0
 40
1
 40
1
 40
1
 40
1
 10
432.855800
 20
103.175900
 30
0.0
 10
429.033800
 20
94.201900
 30
0.0
 10
425.227800
 20
85.221900
 30
0.0
 10
421.401800
 20
76.249900
 30
0.0
  0
SPLINE
  5
1bb
100
AcDbEntity
  8
magstocklogo
 62
7
100
AcDbSpline
 70
8
 71
3
 72
8
 73
4
 74
0
 40
0
 40
0
 40
0
 40
0
 40
1
 40
1
 40
1
 40
1
 10
421.401800
 20
76.249900
 30
0.0
 10
416.780800
 20
65.414900
 30
0.0
 10
412.128800
 20
54.595900
 30
0.0
 10
407.530800
 20
43.751900
 30
0.0
  0
SPLINE
  5
1bc
100
AcDbEntity
  8
magstocklogo
 62
7
100
AcDbSpline
 70
8
 71
3
 72
8
 73
4
 74
0
 40
0
 40
0
 40
0
 40
0
 40
1
 40
1
 40
1
 40
1
 10
407.530800
 20
43.751900
 30
0.0
 10
406.558800
 20
41.455900
 30
0.0
 10
405.405800
 20
39.225900
 30
0.0
 10
404.772800
 20
36.794900
 30
0.0
  0
SPLINE
  5
1bd
100
AcDbEntity
  8
magstocklogo
 62
7
100
AcDbSpline
 70
8
 71
3
 72
8
 73
4
 74
0
 40
0
 40
0
 40
0
 40
0
 40
1
 40
1
 40
1
 40
1
 10
404.772800
 20
36.794900
 30
0.0
 10
404.664800
 20
36.385900
 30
0.0
 10
404.483800
 20
36.181900
 30
0.0
 10
404.035800
 20
36.240900
 30
0.0
  0
SPLINE
  5
1be
100
AcDbEntity
  8
magstocklogo
 62
7
100
AcDbSpline
 70
8
 71
3
 72
8
 73
4
 74
0
 40
0
 40
0
 40
0
 40
0
 40
1
 40
1
 40
1
 40
1
 10
404.035800
 20
36.240900
 30
0.0
 10
403.760800
 20
36.276900
 30
0.0
 10
403.476800
 20
36.246900
 30
0.0
 10
403.196800
 20
36.246900
 30
0.0
  0
SPLINE
  5
1bf
100
AcDbEntity
  8
magstocklogo
 62
7
100
AcDbSpline
 70
8
 71
3
 72
8
 73
4
 74
0
 40
0
 40
0
 40
0
 40
0
 40
1
 40
1
 40
1
 40
1
 10
403.196800
 20
36.246900
 30
0.0
 10
378.917800
 20
36.246900
 30
0.0
 10
354.638800
 20
36.306900
 30
0.0
 10
330.360800
 20
36.163900
 30
0.0
  0
SPLINE
  5
1c0
100
AcDbEntity
  8
magstocklogo
 62
7
100
AcDbSpline
 70
8
 71
3
 72
8
 73
4
 74
0
 40
0
 40
0
 40
0
 40
0
 40
1
 40
1
 40
1
 40
1
 10
330.360800
 20
36.163900
 30
0.0
 10
327.675800
 20
36.148900
 30
0.0
 10
326.357800
 20
36.975900
 30
0.0
 10
325.357800
 20
39.305900
 30
0.0
  0
SPLINE
  5
1c1
100
AcDbEntity
  8
magstocklogo
 62
7
100
AcDbSpline
 70
8
 71
3
 72
8
 73
4
 74
0
 40
0
 40
0
 40
0
 40
0
 40
1
 40
1
 40
1
 40
1
 10
325.357800
 20
39.305900
 30
0.0
 10
323.929800
 20
42.632900
 30
0.0
 10
322.216800
 20
45.838900
 30
0.0
 10
320.635800
 20
49.100900
 30
0.0
  0
SPLINE
  5
1c2
100
AcDbEntity
  8
magstocklogo
 62
7
100
AcDbSpline
 70
8
 71
3
 72
8
 73
4
 74
0
 40
0
 40
0
 40
0
 40
0
 40
1
 40
1
 40
1
 40
1
 10
320.635800
 20
49.100900
 30
0.0
 10
317.526800
 20
55.514900
 30
0.0
 10
314.423800
 20
61.930900
 30
0.0
 10
311.320800
 20
68.347900
 30
0.0
  0
SPLINE
  5
1c3
100
AcDbEntity
  8
magstocklogo
 62
7
100
AcDbSpline
 70
8
 71
3
 72
8
 73
4
 74
0
 40
0
 40
0
 40
0
 40
0
 40
1
 40
1
 40
1
 40
1
 10
311.320800
 20
68.347900
 30
0.0
 10
307.490800
 20
76.265900
 30
0.0
 10
303.661800
 20
84.182900
 30
0.0
 10
299.837800
 20
92.103900
 30
0.0
  0
SPLINE
  5
1c4
100
AcDbEntity
  8
magstocklogo
 62
7
100
AcDbSpline
 70
8
 71
3
 72
8
 73
4
 74
0
 40
0
 40
0
 40
0
 40
0
 40
1
 40
1
 40
1
 40
1
 10
299.837800
 20
92.103900
 30
0.0
 10
297.553800
 20
96.833900
 30
0.0
 10
295.282800
 20
101.569900
 30
0.0
 10
293.001800
 20
106.301900
 30
0.0
  0
SPLINE
  5
1c5
100
AcDbEntity
  8
magstocklogo
 62
7
100
AcDbSpline
 70
8
 71
3
 72
8
 73
4
 74
0
 40
0
 40
0
 40
0
 40
0
 40
1
 40
1
 40
1
 40
1
 10
293.001800
 20
106.301900
 30
0.0
 10
292.834800
 20
106.648900
 30
0.0
 10
292.634800
 20
106.978900
 30
0.0
 10
292.301800
 20
107.588900
 30
0.0
  0
LWPOLYLINE
  5
1c6
100
AcDbEntity
  8
magstocklogo
 62
7
100
AcDbPolyline
 90
5
 70
1
 10
640.800500
 20
62.639700
 30
0.0
 10
640.800500
 20
60.479700
 30
0.0
 10
640.703500
 20
60.456700
 30
0.0
 10
640.603500
 20
60.469700
 30
0.0
 10
640.603500
 20
60.469700
 30
0.0
  0
SPLINE
  5
1c7
100
AcDbEntity
  8
magstocklogo
 62
7
100
AcDbSpline
 70
8
 71
3
 72
8
 73
4
 74
0
 40
0
 40
0
 40
0
 40
0
 40
1
 40
1
 40
1
 40
1
 10
576.036100
 20
-0.157400
 30
0.0
 10
574.247100
 20
1.668600
 30
0.0
 10
572.680100
 20
3.297600
 30
0.0
 10
571.082100
 20
4.896600
 30
0.0
  0
SPLINE
  5
1c8
100
AcDbEntity
  8
magstocklogo
 62
7
100
AcDbSpline
 70
8
 71
3
 72
8
 73
4
 74
0
 40
0
 40
0
 40
0
 40
0
 40
1
 40
1
 40
1
 40
1
 10
571.082100
 20
4.896600
 30
0.0
 10
558.616100
 20
17.370600
 30
0.0
 10
546.146100
 20
29.838600
 30
0.0
 10
533.666100
 20
42.297600
 30
0.0
  0
SPLINE
  5
1c9
100
AcDbEntity
  8
magstocklogo
 62
7
100
AcDbSpline
 70
8
 71
3
 72
8
 73
4
 74
0
 40
0
 40
0
 40
0
 40
0
 40
1
 40
1
 40
1
 40
1
 10
533.666100
 20
42.297600
 30
0.0
 10
533.209100
 20
42.753600
 30
0.0
 10
532.997100
 20
43.204600
 30
0.0
 10
532.999100
 20
43.863600
 30
0.0
  0
SPLINE
  5
1ca
100
AcDbEntity
  8
magstocklogo
 62
7
100
AcDbSpline
 70
8
 71
3
 72
8
 73
4
 74
0
 40
0
 40
0
 40
0
 40
0
 40
1
 40
1
 40
1
 40
1
 10
532.999100
 20
43.863600
 30
0.0
 10
533.018100
 20
55.381600
 30
0.0
 10
533.017100
 20
66.899600
 30
0.0
 10
533.004100
 20
78.417600
 30
0.0
  0
SPLINE
  5
1cb
100
AcDbEntity
  8
magstocklogo
 62
7
100
AcDbSpline
 70
8
 71
3
 72
8
 73
4
 74
0
 40
0
 40
0
 40
0
 40
0
 40
1
 40
1
 40
1
 40
1
 10
533.004100
 20
78.417600
 30
0.0
 10
533.004100
 20
79.012600
 30
0.0
 10
533.141100
 20
79.453600
 30
0.0
 10
533.579100
 20
79.889600
 30
0.0
  0
SPLINE
  5
1cc
100
AcDbEntity
  8
magstocklogo
 62
7
100
AcDbSpline
 70
8
 71
3
 72
8
 73
4
 74
0
 40
0
 40
0
 40
0
 40
0
 40
1
 40
1
 40
1
 40
1
 10
533.579100
 20
79.889600
 30
0.0
 10
547.534100
 20
93.816600
 30
0.0
 10
561.476100
 20
107.755600
 30
0.0
 10
575.412100
 20
121.702600
 30
0.0
  0
SPLINE
  5
1cd
100
AcDbEntity
  8
magstocklogo
 62
7
100
AcDbSpline
 70
8
 71
3
 72
8
 73
4
 74
0
 40
0
 40
0
 40
0
 40
0
 40
1
 40
1
 40
1
 40
1
 10
575.412100
 20
121.702600
 30
0.0
 10
575.568100
 20
121.859600
 30
0.0
 10
575.607100
 20
122.133600
 30
0.0
 10
575.701100
 20
122.352600
 30
0.0
  0
SPLINE
  5
1ce
100
AcDbEntity
  8
magstocklogo
 62
7
100
AcDbSpline
 70
8
 71
3
 72
8
 73
4
 74
0
 40
0
 40
0
 40
0
 40
0
 40
1
 40
1
 40
1
 40
1
 10
575.701100
 20
122.352600
 30
0.0
 10
575.812100
 20
122.247600
 30
0.0
 10
575.925100
 20
122.142600
 30
0.0
 10
576.036100
 20
122.038600
 30
0.0
  0
SPLINE
  5
1cf
100
AcDbEntity
  8
magstocklogo
 62
7
100
AcDbSpline
 70
8
 71
3
 72
8
 73
4
 74
0
 40
0
 40
0
 40
0
 40
0
 40
1
 40
1
 40
1
 40
1
 10
530.403300
 20
61.210000
 30
0.0
 10
530.403300
 20
55.574000
 30
0.0
 10
530.387300
 20
49.939000
 30
0.0
 10
530.420300
 20
44.303000
 30
0.0
  0
SPLINE
  5
1d0
100
AcDbEntity
  8
magstocklogo
 62
7
100
AcDbSpline
 70
8
 71
3
 72
8
 73
4
 74
0
 40
0
 40
0
 40
0
 40
0
 40
1
 40
1
 40
1
 40
1
 10
530.420300
 20
44.303000
 30
0.0
 10
530.424300
 20
43.480000
 30
0.0
 10
530.325300
 20
43.138000
 30
0.0
 10
529.351300
 20
43.147000
 30
0.0
  0
SPLINE
  5
1d1
100
AcDbEntity
  8
magstocklogo
 62
7
100
AcDbSpline
 70
8
 71
3
 72
8
 73
4
 74
0
 40
0
 40
0
 40
0
 40
0
 40
1
 40
1
 40
1
 40
1
 10
529.351300
 20
43.147000
 30
0.0
 10
523.436300
 20
43.200000
 30
0.0
 10
517.520300
 20
43.186000
 30
0.0
 10
511.605300
 20
43.153000
 30
0.0
  0
SPLINE
  5
1d2
100
AcDbEntity
  8
magstocklogo
 62
7
100
AcDbSpline
 70
8
 71
3
 72
8
 73
4
 74
0
 40
0
 40
0
 40
0
 40
0
 40
1
 40
1
 40
1
 40
1
 10
511.605300
 20
43.153000
 30
0.0
 10
510.839300
 20
43.149000
 30
0.0
 10
510.602300
 20
43.342000
 30
0.0
 10
510.604300
 20
44.132000
 30
0.0
  0
SPLINE
  5
1d3
100
AcDbEntity
  8
magstocklogo
 62
7
100
AcDbSpline
 70
8
 71
3
 72
8
 73
4
 74
0
 40
0
 40
0
 40
0
 40
0
 40
1
 40
1
 40
1
 40
1
 10
510.604300
 20
44.132000
 30
0.0
 10
510.629300
 20
55.523000
 30
0.0
 10
510.629300
 20
66.915000
 30
0.0
 10
510.601300
 20
78.306000
 30
0.0
  0
SPLINE
  5
1d4
100
AcDbEntity
  8
magstocklogo
 62
7
100
AcDbSpline
 70
8
 71
3
 72
8
 73
4
 74
0
 40
0
 40
0
 40
0
 40
0
 40
1
 40
1
 40
1
 40
1
 10
510.601300
 20
78.306000
 30
0.0
 10
510.599300
 20
79.087000
 30
0.0
 10
510.858300
 20
79.210000
 30
0.0
 10
511.555300
 20
79.207000
 30
0.0
  0
SPLINE
  5
1d5
100
AcDbEntity
  8
magstocklogo
 62
7
100
AcDbSpline
 70
8
 71
3
 72
8
 73
4
 74
0
 40
0
 40
0
 40
0
 40
0
 40
1
 40
1
 40
1
 40
1
 10
511.555300
 20
79.207000
 30
0.0
 10
517.510300
 20
79.181000
 30
0.0
 10
523.466300
 20
79.169000
 30
0.0
 10
529.422300
 20
79.215000
 30
0.0
  0
SPLINE
  5
1d6
100
AcDbEntity
  8
magstocklogo
 62
7
100
AcDbSpline
 70
8
 71
3
 72
8
 73
4
 74
0
 40
0
 40
0
 40
0
 40
0
 40
1
 40
1
 40
1
 40
1
 10
529.422300
 20
79.215000
 30
0.0
 10
530.335300
 20
79.222000
 30
0.0
 10
530.423300
 20
78.884000
 30
0.0
 10
530.419300
 20
78.117000
 30
0.0
  0
SPLINE
  5
1d7
100
AcDbEntity
  8
magstocklogo
 62
7
100
AcDbSpline
 70
8
 71
3
 72
8
 73
4
 74
0
 40
0
 40
0
 40
0
 40
0
 40
1
 40
1
 40
1
 40
1
 10
530.419300
 20
78.117000
 30
0.0
 10
530.388300
 20
72.481000
 30
0.0
 10
530.403300
 20
66.846000
 30
0.0
 10
530.403300
 20
61.210000
 30
0.0
  0
SPLINE
  5
1d8
100
AcDbEntity
  8
magstocklogo
 62
7
100
AcDbSpline
 70
8
 71
3
 72
8
 73
4
 74
0
 40
0
 40
0
 40
0
 40
0
 40
1
 40
1
 40
1
 40
1
 10
284.044400
 20
28.341800
 30
0.0
 10
288.164400
 20
28.341800
 30
0.0
 10
292.284400
 20
28.368800
 30
0.0
 10
296.404400
 20
28.330800
 30
0.0
  0
SPLINE
  5
1d9
100
AcDbEntity
  8
magstocklogo
 62
7
100
AcDbSpline
 70
8
 71
3
 72
8
 73
4
 74
0
 40
0
 40
0
 40
0
 40
0
 40
1
 40
1
 40
1
 40
1
 10
296.404400
 20
28.330800
 30
0.0
 10
298.775400
 20
28.309800
 30
0.0
 10
300.148400
 20
26.208800
 30
0.0
 10
299.266400
 20
24.025800
 30
0.0
  0
SPLINE
  5
1da
100
AcDbEntity
  8
magstocklogo
 62
7
100
AcDbSpline
 70
8
 71
3
 72
8
 73
4
 74
0
 40
0
 40
0
 40
0
 40
0
 40
1
 40
1
 40
1
 40
1
 10
299.266400
 20
24.025800
 30
0.0
 10
298.847400
 20
22.990800
 30
0.0
 10
298.115400
 20
22.300800
 30
0.0
 10
296.933400
 20
22.283800
 30
0.0
  0
SPLINE
  5
1db
100
AcDbEntity
  8
magstocklogo
 62
7
100
AcDbSpline
 70
8
 71
3
 72
8
 73
4
 74
0
 40
0
 40
0
 40
0
 40
0
 40
1
 40
1
 40
1
 40
1
 10
296.933400
 20
22.283800
 30
0.0
 10
294.574400
 20
22.250800
 30
0.0
 10
292.215400
 20
22.230800
 30
0.0
 10
289.856400
 20
22.226800
 30
0.0
  0
SPLINE
  5
1dc
100
AcDbEntity
  8
magstocklogo
 62
7
100
AcDbSpline
 70
8
 71
3
 72
8
 73
4
 74
0
 40
0
 40
0
 40
0
 40
0
 40
1
 40
1
 40
1
 40
1
 10
289.856400
 20
22.226800
 30
0.0
 10
285.256400
 20
22.217800
 30
0.0
 10
280.656400
 20
22.199800
 30
0.0
 10
276.057400
 20
22.243800
 30
0.0
  0
SPLINE
  5
1dd
100
AcDbEntity
  8
magstocklogo
 62
7
100
AcDbSpline
 70
8
 71
3
 72
8
 73
4
 74
0
 40
0
 40
0
 40
0
 40
0
 40
1
 40
1
 40
1
 40
1
 10
276.057400
 20
22.243800
 30
0.0
 10
275.112400
 20
22.253800
 30
0.0
 10
274.738400
 20
22.084800
 30
0.0
 10
274.773400
 20
21.022800
 30
0.0
  0
SPLINE
  5
1de
100
AcDbEntity
  8
magstocklogo
 62
7
100
AcDbSpline
 70
8
 71
3
 72
8
 73
4
 74
0
 40
0
 40
0
 40
0
 40
0
 40
1
 40
1
 40
1
 40
1
 10
274.773400
 20
21.022800
 30
0.0
 10
274.855400
 20
18.483800
 30
0.0
 10
274.794400
 20
18.481800
 30
0.0
 10
277.325400
 20
18.481800
 30
0.0
  0
SPLINE
  5
1df
100
AcDbEntity
  8
magstocklogo
 62
7
100
AcDbSpline
 70
8
 71
3
 72
8
 73
4
 74
0
 40
0
 40
0
 40
0
 40
0
 40
1
 40
1
 40
1
 40
1
 10
277.325400
 20
18.481800
 30
0.0
 10
283.525400
 20
18.481800
 30
0.0
 10
289.725400
 20
18.486800
 30
0.0
 10
295.925400
 20
18.479800
 30
0.0
  0
SPLINE
  5
1e0
100
AcDbEntity
  8
magstocklogo
 62
7
100
AcDbSpline
 70
8
 71
3
 72
8
 73
4
 74
0
 40
0
 40
0
 40
0
 40
0
 40
1
 40
1
 40
1
 40
1
 10
295.925400
 20
18.479800
 30
0.0
 10
298.632400
 20
18.476800
 30
0.0
 10
299.514400
 20
17.605800
 30
0.0
 10
299.520400
 20
14.937800
 30
0.0
  0
SPLINE
  5
1e1
100
AcDbEntity
  8
magstocklogo
 62
7
100
AcDbSpline
 70
8
 71
3
 72
8
 73
4
 74
0
 40
0
 40
0
 40
0
 40
0
 40
1
 40
1
 40
1
 40
1
 10
299.520400
 20
14.937800
 30
0.0
 10
299.528400
 20
11.857800
 30
0.0
 10
299.533400
 20
8.778800
 30
0.0
 10
299.518400
 20
5.697800
 30
0.0
  0
SPLINE
  5
1e2
100
AcDbEntity
  8
magstocklogo
 62
7
100
AcDbSpline
 70
8
 71
3
 72
8
 73
4
 74
0
 40
0
 40
0
 40
0
 40
0
 40
1
 40
1
 40
1
 40
1
 10
299.518400
 20
5.697800
 30
0.0
 10
299.507400
 20
3.376800
 30
0.0
 10
298.560400
 20
2.406800
 30
0.0
 10
296.268400
 20
2.404800
 30
0.0
  0
SPLINE
  5
1e3
100
AcDbEntity
  8
magstocklogo
 62
7
100
AcDbSpline
 70
8
 71
3
 72
8
 73
4
 74
0
 40
0
 40
0
 40
0
 40
0
 40
1
 40
1
 40
1
 40
1
 10
296.268400
 20
2.404800
 30
0.0
 10
288.148400
 20
2.394800
 30
0.0
 10
280.028400
 20
2.403800
 30
0.0
 10
271.908400
 20
2.402800
 30
0.0
  0
SPLINE
  5
1e4
100
AcDbEntity
  8
magstocklogo
 62
7
100
AcDbSpline
 70
8
 71
3
 72
8
 73
4
 74
0
 40
0
 40
0
 40
0
 40
0
 40
1
 40
1
 40
1
 40
1
 10
271.908400
 20
2.402800
 30
0.0
 10
270.620400
 20
2.402800
 30
0.0
 10
269.534400
 20
2.792800
 30
0.0
 10
269.017400
 20
4.069800
 30
0.0
  0
SPLINE
  5
1e5
100
AcDbEntity
  8
magstocklogo
 62
7
100
AcDbSpline
 70
8
 71
3
 72
8
 73
4
 74
0
 40
0
 40
0
 40
0
 40
0
 40
1
 40
1
 40
1
 40
1
 10
269.017400
 20
4.069800
 30
0.0
 10
268.510400
 20
5.321800
 30
0.0
 10
268.571400
 20
6.552800
 30
0.0
 10
269.471400
 20
7.645800
 30
0.0
  0
SPLINE
  5
1e6
100
AcDbEntity
  8
magstocklogo
 62
7
100
AcDbSpline
 70
8
 71
3
 72
8
 73
4
 74
0
 40
0
 40
0
 40
0
 40
0
 40
1
 40
1
 40
1
 40
1
 10
269.471400
 20
7.645800
 30
0.0
 10
270.208400
 20
8.539800
 30
0.0
 10
271.247400
 20
8.625800
 30
0.0
 10
272.291400
 20
8.626800
 30
0.0
  0
SPLINE
  5
1e7
100
AcDbEntity
  8
magstocklogo
 62
7
100
AcDbSpline
 70
8
 71
3
 72
8
 73
4
 74
0
 40
0
 40
0
 40
0
 40
0
 40
1
 40
1
 40
1
 40
1
 10
272.291400
 20
8.626800
 30
0.0
 10
278.931400
 20
8.634800
 30
0.0
 10
285.571400
 20
8.652800
 30
0.0
 10
292.211400
 20
8.608800
 30
0.0
  0
SPLINE
  5
1e8
100
AcDbEntity
  8
magstocklogo
 62
7
100
AcDbSpline
 70
8
 71
3
 72
8
 73
4
 74
0
 40
0
 40
0
 40
0
 40
0
 40
1
 40
1
 40
1
 40
1
 10
292.211400
 20
8.608800
 30
0.0
 10
293.190400
 20
8.601800
 30
0.0
 10
293.488400
 20
8.801800
 30
0.0
 10
293.446400
 20
9.839800
 30
0.0
  0
SPLINE
  5
1e9
100
AcDbEntity
  8
magstocklogo
 62
7
100
AcDbSpline
 70
8
 71
3
 72
8
 73
4
 74
0
 40
0
 40
0
 40
0
 40
0
 40
1
 40
1
 40
1
 40
1
 10
293.446400
 20
9.839800
 30
0.0
 10
293.350400
 20
12.244800
 30
0.0
 10
293.416400
 20
12.246800
 30
0.0
 10
291.009400
 20
12.247800
 30
0.0
  0
SPLINE
  5
1ea
100
AcDbEntity
  8
magstocklogo
 62
7
100
AcDbSpline
 70
8
 71
3
 72
8
 73
4
 74
0
 40
0
 40
0
 40
0
 40
0
 40
1
 40
1
 40
1
 40
1
 10
291.009400
 20
12.247800
 30
0.0
 10
284.770400
 20
12.248800
 30
0.0
 10
278.529400
 20
12.247800
 30
0.0
 10
272.290400
 20
12.251800
 30
0.0
  0
SPLINE
  5
1eb
100
AcDbEntity
  8
magstocklogo
 62
7
100
AcDbSpline
 70
8
 71
3
 72
8
 73
4
 74
0
 40
0
 40
0
 40
0
 40
0
 40
1
 40
1
 40
1
 40
1
 10
272.290400
 20
12.251800
 30
0.0
 10
269.649400
 20
12.253800
 30
0.0
 10
268.743400
 20
13.101800
 30
0.0
 10
268.714400
 20
15.708800
 30
0.0
  0
SPLINE
  5
1ec
100
AcDbEntity
  8
magstocklogo
 62
7
100
AcDbSpline
 70
8
 71
3
 72
8
 73
4
 74
0
 40
0
 40
0
 40
0
 40
0
 40
1
 40
1
 40
1
 40
1
 10
268.714400
 20
15.708800
 30
0.0
 10
268.680400
 20
18.827800
 30
0.0
 10
268.674400
 20
21.948800
 30
0.0
 10
268.717400
 20
25.068800
 30
0.0
  0
SPLINE
  5
1ed
100
AcDbEntity
  8
magstocklogo
 62
7
100
AcDbSpline
 70
8
 71
3
 72
8
 73
4
 74
0
 40
0
 40
0
 40
0
 40
0
 40
1
 40
1
 40
1
 40
1
 10
268.717400
 20
25.068800
 30
0.0
 10
268.752400
 20
27.581800
 30
0.0
 10
269.539400
 20
28.332800
 30
0.0
 10
272.044400
 20
28.342800
 30
0.0
  0
SPLINE
  5
1ee
100
AcDbEntity
  8
magstocklogo
 62
7
100
AcDbSpline
 70
8
 71
3
 72
8
 73
4
 74
0
 40
0
 40
0
 40
0
 40
0
 40
1
 40
1
 40
1
 40
1
 10
272.044400
 20
28.342800
 30
0.0
 10
276.044400
 20
28.358800
 30
0.0
 10
280.044400
 20
28.347800
 30
0.0
 10
284.044400
 20
28.347800
 30
0.0
  0
LWPOLYLINE
  5
1ef
100
AcDbEntity
  8
magstocklogo
 62
7
100
AcDbPolyline
 90
2
 70
0
 10
576.036100
 20
122.038600
 30
0.0
 10
576.036100
 20
-0.157400
 30
0.0
  0
SPLINE
  5
1f0
100
AcDbEntity
  8
magstocklogo
 62
7
100
AcDbSpline
 70
8
 71
3
 72
8
 73
4
 74
0
 40
0
 40
0
 40
0
 40
0
 40
1
 40
1
 40
1
 40
1
 10
233.103500
 20
28.340800
 30
0.0
 10
237.221500
 20
28.340800
 30
0.0
 10
241.338500
 20
28.352800
 30
0.0
 10
245.456500
 20
28.333800
 30
0.0
  0
SPLINE
  5
1f1
100
AcDbEntity
  8
magstocklogo
 62
7
100
AcDbSpline
 70
8
 71
3
 72
8
 73
4
 74
0
 40
0
 40
0
 40
0
 40
0
 40
1
 40
1
 40
1
 40
1
 10
245.456500
 20
28.333800
 30
0.0
 10
246.912500
 20
28.327800
 30
0.0
 10
247.963500
 20
27.603800
 30
0.0
 10
248.347500
 20
26.441800
 30
0.0
  0
SPLINE
  5
1f2
100
AcDbEntity
  8
magstocklogo
 62
7
100
AcDbSpline
 70
8
 71
3
 72
8
 73
4
 74
0
 40
0
 40
0
 40
0
 40
0
 40
1
 40
1
 40
1
 40
1
 10
248.347500
 20
26.441800
 30
0.0
 10
248.782500
 20
25.124800
 30
0.0
 10
248.339500
 20
23.598800
 30
0.0
 10
247.311500
 20
22.768800
 30
0.0
  0
SPLINE
  5
1f3
100
AcDbEntity
  8
magstocklogo
 62
7
100
AcDbSpline
 70
8
 71
3
 72
8
 73
4
 74
0
 40
0
 40
0
 40
0
 40
0
 40
1
 40
1
 40
1
 40
1
 10
247.311500
 20
22.768800
 30
0.0
 10
246.561500
 20
22.163800
 30
0.0
 10
245.672500
 20
22.230800
 30
0.0
 10
244.808500
 20
22.229800
 30
0.0
  0
SPLINE
  5
1f4
100
AcDbEntity
  8
magstocklogo
 62
7
100
AcDbSpline
 70
8
 71
3
 72
8
 73
4
 74
0
 40
0
 40
0
 40
0
 40
0
 40
1
 40
1
 40
1
 40
1
 10
244.808500
 20
22.229800
 30
0.0
 10
238.252500
 20
22.219800
 30
0.0
 10
231.696500
 20
22.199800
 30
0.0
 10
225.140500
 20
22.250800
 30
0.0
  0
SPLINE
  5
1f5
100
AcDbEntity
  8
magstocklogo
 62
7
100
AcDbSpline
 70
8
 71
3
 72
8
 73
4
 74
0
 40
0
 40
0
 40
0
 40
0
 40
1
 40
1
 40
1
 40
1
 10
225.140500
 20
22.250800
 30
0.0
 10
224.049500
 20
22.259800
 30
0.0
 10
223.724500
 20
21.988800
 30
0.0
 10
223.747500
 20
20.866800
 30
0.0
  0
SPLINE
  5
1f6
100
AcDbEntity
  8
magstocklogo
 62
7
100
AcDbSpline
 70
8
 71
3
 72
8
 73
4
 74
0
 40
0
 40
0
 40
0
 40
0
 40
1
 40
1
 40
1
 40
1
 10
223.747500
 20
20.866800
 30
0.0
 10
223.822500
 20
17.151800
 30
0.0
 10
223.809500
 20
13.431800
 30
0.0
 10
223.750500
 20
9.714800
 30
0.0
  0
SPLINE
  5
1f7
100
AcDbEntity
  8
magstocklogo
 62
7
100
AcDbSpline
 70
8
 71
3
 72
8
 73
4
 74
0
 40
0
 40
0
 40
0
 40
0
 40
1
 40
1
 40
1
 40
1
 10
223.750500
 20
9.714800
 30
0.0
 10
223.735500
 20
8.787800
 30
0.0
 10
224.013500
 20
8.603800
 30
0.0
 10
224.889500
 20
8.610800
 30
0.0
  0
SPLINE
  5
1f8
100
AcDbEntity
  8
magstocklogo
 62
7
100
AcDbSpline
 70
8
 71
3
 72
8
 73
4
 74
0
 40
0
 40
0
 40
0
 40
0
 40
1
 40
1
 40
1
 40
1
 10
224.889500
 20
8.610800
 30
0.0
 10
230.406500
 20
8.652800
 30
0.0
 10
235.923500
 20
8.647800
 30
0.0
 10
241.439500
 20
8.613800
 30
0.0
  0
SPLINE
  5
1f9
100
AcDbEntity
  8
magstocklogo
 62
7
100
AcDbSpline
 70
8
 71
3
 72
8
 73
4
 74
0
 40
0
 40
0
 40
0
 40
0
 40
1
 40
1
 40
1
 40
1
 10
241.439500
 20
8.613800
 30
0.0
 10
242.210500
 20
8.609800
 30
0.0
 10
242.436500
 20
8.794800
 30
0.0
 10
242.430500
 20
9.587800
 30
0.0
  0
SPLINE
  5
1fa
100
AcDbEntity
  8
magstocklogo
 62
7
100
AcDbSpline
 70
8
 71
3
 72
8
 73
4
 74
0
 40
0
 40
0
 40
0
 40
0
 40
1
 40
1
 40
1
 40
1
 10
242.430500
 20
9.587800
 30
0.0
 10
242.408500
 20
12.246800
 30
0.0
 10
242.442500
 20
12.246800
 30
0.0
 10
239.785500
 20
12.246800
 30
0.0
  0
SPLINE
  5
1fb
100
AcDbEntity
  8
magstocklogo
 62
7
100
AcDbSpline
 70
8
 71
3
 72
8
 73
4
 74
0
 40
0
 40
0
 40
0
 40
0
 40
1
 40
1
 40
1
 40
1
 10
239.785500
 20
12.246800
 30
0.0
 10
237.626500
 20
12.247800
 30
0.0
 10
235.468500
 20
12.228800
 30
0.0
 10
233.309500
 20
12.255800
 30
0.0
  0
SPLINE
  5
1fc
100
AcDbEntity
  8
magstocklogo
 62
7
100
AcDbSpline
 70
8
 71
3
 72
8
 73
4
 74
0
 40
0
 40
0
 40
0
 40
0
 40
1
 40
1
 40
1
 40
1
 10
233.309500
 20
12.255800
 30
0.0
 10
232.047500
 20
12.271800
 30
0.0
 10
230.942500
 20
12.666800
 30
0.0
 10
230.391500
 20
13.926800
 30
0.0
  0
SPLINE
  5
1fd
100
AcDbEntity
  8
magstocklogo
 62
7
100
AcDbSpline
 70
8
 71
3
 72
8
 73
4
 74
0
 40
0
 40
0
 40
0
 40
0
 40
1
 40
1
 40
1
 40
1
 10
230.391500
 20
13.926800
 30
0.0
 10
229.880500
 20
15.092800
 30
0.0
 10
229.915500
 20
16.251800
 30
0.0
 10
230.669500
 20
17.319800
 30
0.0
  0
SPLINE
  5
1fe
100
AcDbEntity
  8
magstocklogo
 62
7
100
AcDbSpline
 70
8
 71
3
 72
8
 73
4
 74
0
 40
0
 40
0
 40
0
 40
0
 40
1
 40
1
 40
1
 40
1
 10
230.669500
 20
17.319800
 30
0.0
 10
231.271500
 20
18.172800
 30
0.0
 10
232.161500
 20
18.470800
 30
0.0
 10
233.160500
 20
18.472800
 30
0.0
  0
SPLINE
  5
1ff
100
AcDbEntity
  8
magstocklogo
 62
7
100
AcDbSpline
 70
8
 71
3
 72
8
 73
4
 74
0
 40
0
 40
0
 40
0
 40
0
 40
1
 40
1
 40
1
 40
1
 10
233.160500
 20
18.472800
 30
0.0
 10
237.997500
 20
18.481800
 30
0.0
 10
242.834500
 20
18.463800
 30
0.0
 10
247.671500
 20
18.498800
 30
0.0
  0
SPLINE
  5
200
100
AcDbEntity
  8
magstocklogo
 62
7
100
AcDbSpline
 70
8
 71
3
 72
8
 73
4
 74
0
 40
0
 40
0
 40
0
 40
0
 40
1
 40
1
 40
1
 40
1
 10
247.671500
 20
18.498800
 30
0.0
 10
248.395500
 20
18.503800
 30
0.0
 10
248.514500
 20
18.235800
 30
0.0
 10
248.510500
 20
17.602800
 30
0.0
  0
SPLINE
  5
201
100
AcDbEntity
  8
magstocklogo
 62
7
100
AcDbSpline
 70
8
 71
3
 72
8
 73
4
 74
0
 40
0
 40
0
 40
0
 40
0
 40
1
 40
1
 40
1
 40
1
 10
248.510500
 20
17.602800
 30
0.0
 10
248.487500
 20
13.605800
 30
0.0
 10
248.523500
 20
9.607800
 30
0.0
 10
248.488500
 20
5.610800
 30
0.0
  0
SPLINE
  5
202
100
AcDbEntity
  8
magstocklogo
 62
7
100
AcDbSpline
 70
8
 71
3
 72
8
 73
4
 74
0
 40
0
 40
0
 40
0
 40
0
 40
1
 40
1
 40
1
 40
1
 10
248.488500
 20
5.610800
 30
0.0
 10
248.467500
 20
3.273800
 30
0.0
 10
247.542500
 20
2.403800
 30
0.0
 10
245.183500
 20
2.401800
 30
0.0
  0
SPLINE
  5
203
100
AcDbEntity
  8
magstocklogo
 62
7
100
AcDbSpline
 70
8
 71
3
 72
8
 73
4
 74
0
 40
0
 40
0
 40
0
 40
0
 40
1
 40
1
 40
1
 40
1
 10
245.183500
 20
2.401800
 30
0.0
 10
237.147500
 20
2.393800
 30
0.0
 10
229.112500
 20
2.393800
 30
0.0
 10
221.077500
 20
2.401800
 30
0.0
  0
SPLINE
  5
204
100
AcDbEntity
  8
magstocklogo
 62
7
100
AcDbSpline
 70
8
 71
3
 72
8
 73
4
 74
0
 40
0
 40
0
 40
0
 40
0
 40
1
 40
1
 40
1
 40
1
 10
221.077500
 20
2.401800
 30
0.0
 10
218.645500
 20
2.403800
 30
0.0
 10
217.692500
 20
3.370800
 30
0.0
 10
217.691500
 20
5.799800
 30
0.0
  0
SPLINE
  5
205
100
AcDbEntity
  8
magstocklogo
 62
7
100
AcDbSpline
 70
8
 71
3
 72
8
 73
4
 74
0
 40
0
 40
0
 40
0
 40
0
 40
1
 40
1
 40
1
 40
1
 10
217.691500
 20
5.799800
 30
0.0
 10
217.686500
 20
12.195800
 30
0.0
 10
217.685500
 20
18.592800
 30
0.0
 10
217.690500
 20
24.988800
 30
0.0
  0
SPLINE
  5
206
100
AcDbEntity
  8
magstocklogo
 62
7
100
AcDbSpline
 70
8
 71
3
 72
8
 73
4
 74
0
 40
0
 40
0
 40
0
 40
0
 40
1
 40
1
 40
1
 40
1
 10
217.690500
 20
24.988800
 30
0.0
 10
217.692500
 20
27.378800
 30
0.0
 10
218.616500
 20
28.331800
 30
0.0
 10
220.990500
 20
28.342800
 30
0.0
  0
SPLINE
  5
207
100
AcDbEntity
  8
magstocklogo
 62
7
100
AcDbSpline
 70
8
 71
3
 72
8
 73
4
 74
0
 40
0
 40
0
 40
0
 40
0
 40
1
 40
1
 40
1
 40
1
 10
220.990500
 20
28.342800
 30
0.0
 10
225.028500
 20
28.361800
 30
0.0
 10
229.065500
 20
28.348800
 30
0.0
 10
233.103500
 20
28.348800
 30
0.0
  0
LWPOLYLINE
  5
208
100
AcDbEntity
  8
magstocklogo
 62
7
100
AcDbPolyline
 90
3
 70
1
 10
284.044400
 20
28.347800
 30
0.0
 10
284.044400
 20
28.341800
 30
0.0
 10
284.044400
 20
28.341800
 30
0.0
  0
SPLINE
  5
209
100
AcDbEntity
  8
magstocklogo
 62
7
100
AcDbSpline
 70
8
 71
3
 72
8
 73
4
 74
0
 40
0
 40
0
 40
0
 40
0
 40
1
 40
1
 40
1
 40
1
 10
379.323200
 20
29.066400
 30
0.0
 10
383.241200
 20
29.066400
 30
0.0
 10
387.159200
 20
29.068400
 30
0.0
 10
391.077200
 20
29.065400
 30
0.0
  0
SPLINE
  5
20a
100
AcDbEntity
  8
magstocklogo
 62
7
100
AcDbSpline
 70
8
 71
3
 72
8
 73
4
 74
0
 40
0
 40
0
 40
0
 40
0
 40
1
 40
1
 40
1
 40
1
 10
391.077200
 20
29.065400
 30
0.0
 10
393.883200
 20
29.063400
 30
0.0
 10
394.899200
 20
27.927400
 30
0.0
 10
394.898200
 20
25.121400
 30
0.0
  0
SPLINE
  5
20b
100
AcDbEntity
  8
magstocklogo
 62
7
100
AcDbSpline
 70
8
 71
3
 72
8
 73
4
 74
0
 40
0
 40
0
 40
0
 40
0
 40
1
 40
1
 40
1
 40
1
 10
394.898200
 20
25.121400
 30
0.0
 10
394.897200
 20
19.128400
 30
0.0
 10
394.991200
 20
13.136400
 30
0.0
 10
395.029200
 20
7.143400
 30
0.0
  0
SPLINE
  5
20c
100
AcDbEntity
  8
magstocklogo
 62
7
100
AcDbSpline
 70
8
 71
3
 72
8
 73
4
 74
0
 40
0
 40
0
 40
0
 40
0
 40
1
 40
1
 40
1
 40
1
 10
395.029200
 20
7.143400
 30
0.0
 10
395.047200
 20
4.434400
 30
0.0
 10
393.726200
 20
3.120400
 30
0.0
 10
391.031200
 20
3.119400
 30
0.0
  0
SPLINE
  5
20d
100
AcDbEntity
  8
magstocklogo
 62
7
100
AcDbSpline
 70
8
 71
3
 72
8
 73
4
 74
0
 40
0
 40
0
 40
0
 40
0
 40
1
 40
1
 40
1
 40
1
 10
391.031200
 20
3.119400
 30
0.0
 10
383.115200
 20
3.116400
 30
0.0
 10
375.199200
 20
3.117400
 30
0.0
 10
367.283200
 20
3.119400
 30
0.0
  0
SPLINE
  5
20e
100
AcDbEntity
  8
magstocklogo
 62
7
100
AcDbSpline
 70
8
 71
3
 72
8
 73
4
 74
0
 40
0
 40
0
 40
0
 40
0
 40
1
 40
1
 40
1
 40
1
 10
367.283200
 20
3.119400
 30
0.0
 10
366.041200
 20
3.119400
 30
0.0
 10
364.916200
 20
3.329400
 30
0.0
 10
364.282200
 20
4.602400
 30
0.0
  0
SPLINE
  5
20f
100
AcDbEntity
  8
magstocklogo
 62
7
100
AcDbSpline
 70
8
 71
3
 72
8
 73
4
 74
0
 40
0
 40
0
 40
0
 40
0
 40
1
 40
1
 40
1
 40
1
 10
364.282200
 20
4.602400
 30
0.0
 10
364.016200
 20
5.134400
 30
0.0
 10
364.021200
 20
5.693400
 30
0.0
 10
364.020200
 20
6.234400
 30
0.0
  0
SPLINE
  5
210
100
AcDbEntity
  8
magstocklogo
 62
7
100
AcDbSpline
 70
8
 71
3
 72
8
 73
4
 74
0
 40
0
 40
0
 40
0
 40
0
 40
1
 40
1
 40
1
 40
1
 10
364.020200
 20
6.234400
 30
0.0
 10
364.015200
 20
12.989400
 30
0.0
 10
364.012200
 20
19.743400
 30
0.0
 10
364.072200
 20
26.497400
 30
0.0
  0
SPLINE
  5
211
100
AcDbEntity
  8
magstocklogo
 62
7
100
AcDbSpline
 70
8
 71
3
 72
8
 73
4
 74
0
 40
0
 40
0
 40
0
 40
0
 40
1
 40
1
 40
1
 40
1
 10
364.072200
 20
26.497400
 30
0.0
 10
364.088200
 20
28.191400
 30
0.0
 10
365.003200
 20
29.022400
 30
0.0
 10
366.729200
 20
29.037400
 30
0.0
  0
SPLINE
  5
212
100
AcDbEntity
  8
magstocklogo
 62
7
100
AcDbSpline
 70
8
 71
3
 72
8
 73
4
 74
0
 40
0
 40
0
 40
0
 40
0
 40
1
 40
1
 40
1
 40
1
 10
366.729200
 20
29.037400
 30
0.0
 10
370.927200
 20
29.073400
 30
0.0
 10
375.125200
 20
29.048400
 30
0.0
 10
379.323200
 20
29.048400
 30
0.0
  0
LWPOLYLINE
  5
213
100
AcDbEntity
  8
magstocklogo
 62
7
100
AcDbPolyline
 90
3
 70
1
 10
233.103500
 20
28.348800
 30
0.0
 10
233.103500
 20
28.340800
 30
0.0
 10
233.103500
 20
28.340800
 30
0.0
  0
SPLINE
  5
214
100
AcDbEntity
  8
magstocklogo
 62
7
100
AcDbSpline
 70
8
 71
3
 72
8
 73
4
 74
0
 40
0
 40
0
 40
0
 40
0
 40
1
 40
1
 40
1
 40
1
 10
127.440400
 20
13.527300
 30
0.0
 10
127.440400
 20
10.683300
 30
0.0
 10
127.437400
 20
7.926300
 30
0.0
 10
127.441400
 20
5.170300
 30
0.0
  0
SPLINE
  5
215
100
AcDbEntity
  8
magstocklogo
 62
7
100
AcDbSpline
 70
8
 71
3
 72
8
 73
4
 74
0
 40
0
 40
0
 40
0
 40
0
 40
1
 40
1
 40
1
 40
1
 10
127.441400
 20
5.170300
 30
0.0
 10
127.443400
 20
3.969300
 30
0.0
 10
127.049400
 20
2.973300
 30
0.0
 10
125.944400
 20
2.393300
 30
0.0
  0
SPLINE
  5
216
100
AcDbEntity
  8
magstocklogo
 62
7
100
AcDbSpline
 70
8
 71
3
 72
8
 73
4
 74
0
 40
0
 40
0
 40
0
 40
0
 40
1
 40
1
 40
1
 40
1
 10
125.944400
 20
2.393300
 30
0.0
 10
124.804400
 20
1.795300
 30
0.0
 10
123.665400
 20
1.857300
 30
0.0
 10
122.559400
 20
2.530300
 30
0.0
  0
SPLINE
  5
217
100
AcDbEntity
  8
magstocklogo
 62
7
100
AcDbSpline
 70
8
 71
3
 72
8
 73
4
 74
0
 40
0
 40
0
 40
0
 40
0
 40
1
 40
1
 40
1
 40
1
 10
122.559400
 20
2.530300
 30
0.0
 10
121.909400
 20
2.925300
 30
0.0
 10
121.493400
 20
3.474300
 30
0.0
 10
121.432400
 20
4.246300
 30
0.0
  0
SPLINE
  5
218
100
AcDbEntity
  8
magstocklogo
 62
7
100
AcDbSpline
 70
8
 71
3
 72
8
 73
4
 74
0
 40
0
 40
0
 40
0
 40
0
 40
1
 40
1
 40
1
 40
1
 10
121.432400
 20
4.246300
 30
0.0
 10
121.385400
 20
4.841300
 30
0.0
 10
121.348400
 20
5.439300
 30
0.0
 10
121.348400
 20
6.036300
 30
0.0
  0
SPLINE
  5
219
100
AcDbEntity
  8
magstocklogo
 62
7
100
AcDbSpline
 70
8
 71
3
 72
8
 73
4
 74
0
 40
0
 40
0
 40
0
 40
0
 40
1
 40
1
 40
1
 40
1
 10
121.348400
 20
6.036300
 30
0.0
 10
121.341400
 20
12.152300
 30
0.0
 10
121.339400
 20
18.268300
 30
0.0
 10
121.350400
 20
24.383300
 30
0.0
  0
SPLINE
  5
21a
100
AcDbEntity
  8
magstocklogo
 62
7
100
AcDbSpline
 70
8
 71
3
 72
8
 73
4
 74
0
 40
0
 40
0
 40
0
 40
0
 40
1
 40
1
 40
1
 40
1
 10
121.350400
 20
24.383300
 30
0.0
 10
121.352400
 20
25.019300
 30
0.0
 10
121.327400
 20
25.693300
 30
0.0
 10
121.518400
 20
26.283300
 30
0.0
  0
SPLINE
  5
21b
100
AcDbEntity
  8
magstocklogo
 62
7
100
AcDbSpline
 70
8
 71
3
 72
8
 73
4
 74
0
 40
0
 40
0
 40
0
 40
0
 40
1
 40
1
 40
1
 40
1
 10
121.518400
 20
26.283300
 30
0.0
 10
121.848400
 20
27.303300
 30
0.0
 10
122.517400
 20
28.124300
 30
0.0
 10
123.653400
 20
28.295300
 30
0.0
  0
SPLINE
  5
21c
100
AcDbEntity
  8
magstocklogo
 62
7
100
AcDbSpline
 70
8
 71
3
 72
8
 73
4
 74
0
 40
0
 40
0
 40
0
 40
0
 40
1
 40
1
 40
1
 40
1
 10
123.653400
 20
28.295300
 30
0.0
 10
124.861400
 20
28.476300
 30
0.0
 10
125.871400
 20
27.987300
 30
0.0
 10
126.526400
 20
26.981300
 30
0.0
  0
SPLINE
  5
21d
100
AcDbEntity
  8
magstocklogo
 62
7
100
AcDbSpline
 70
8
 71
3
 72
8
 73
4
 74
0
 40
0
 40
0
 40
0
 40
0
 40
1
 40
1
 40
1
 40
1
 10
126.526400
 20
26.981300
 30
0.0
 10
128.284400
 20
24.285300
 30
0.0
 10
129.998400
 20
21.560300
 30
0.0
 10
131.711400
 20
18.837300
 30
0.0
  0
SPLINE
  5
21e
100
AcDbEntity
  8
magstocklogo
 62
7
100
AcDbSpline
 70
8
 71
3
 72
8
 73
4
 74
0
 40
0
 40
0
 40
0
 40
0
 40
1
 40
1
 40
1
 40
1
 10
131.711400
 20
18.837300
 30
0.0
 10
133.357400
 20
16.219300
 30
0.0
 10
134.981400
 20
13.589300
 30
0.0
 10
136.702400
 20
10.822300
 30
0.0
  0
SPLINE
  5
21f
100
AcDbEntity
  8
magstocklogo
 62
7
100
AcDbSpline
 70
8
 71
3
 72
8
 73
4
 74
0
 40
0
 40
0
 40
0
 40
0
 40
1
 40
1
 40
1
 40
1
 10
136.702400
 20
10.822300
 30
0.0
 10
138.625400
 20
13.877300
 30
0.0
 10
140.457400
 20
16.795300
 30
0.0
 10
142.295400
 20
19.709300
 30
0.0
  0
SPLINE
  5
220
100
AcDbEntity
  8
magstocklogo
 62
7
100
AcDbSpline
 70
8
 71
3
 72
8
 73
4
 74
0
 40
0
 40
0
 40
0
 40
0
 40
1
 40
1
 40
1
 40
1
 10
142.295400
 20
19.709300
 30
0.0
 10
143.736400
 20
21.993300
 30
0.0
 10
145.164400
 20
24.286300
 30
0.0
 10
146.637400
 20
26.549300
 30
0.0
  0
SPLINE
  5
221
100
AcDbEntity
  8
magstocklogo
 62
7
100
AcDbSpline
 70
8
 71
3
 72
8
 73
4
 74
0
 40
0
 40
0
 40
0
 40
0
 40
1
 40
1
 40
1
 40
1
 10
146.637400
 20
26.549300
 30
0.0
 10
147.580400
 20
27.999300
 30
0.0
 10
148.822400
 20
28.593300
 30
0.0
 10
150.001400
 20
28.266300
 30
0.0
  0
SPLINE
  5
222
100
AcDbEntity
  8
magstocklogo
 62
7
100
AcDbSpline
 70
8
 71
3
 72
8
 73
4
 74
0
 40
0
 40
0
 40
0
 40
0
 40
1
 40
1
 40
1
 40
1
 10
150.001400
 20
28.266300
 30
0.0
 10
151.232400
 20
27.924300
 30
0.0
 10
152.145400
 20
26.527300
 30
0.0
 10
152.147400
 20
24.877300
 30
0.0
  0
SPLINE
  5
223
100
AcDbEntity
  8
magstocklogo
 62
7
100
AcDbSpline
 70
8
 71
3
 72
8
 73
4
 74
0
 40
0
 40
0
 40
0
 40
0
 40
1
 40
1
 40
1
 40
1
 10
152.147400
 20
24.877300
 30
0.0
 10
152.158400
 20
18.282300
 30
0.0
 10
152.158400
 20
11.686300
 30
0.0
 10
152.145400
 20
5.090300
 30
0.0
  0
SPLINE
  5
224
100
AcDbEntity
  8
magstocklogo
 62
7
100
AcDbSpline
 70
8
 71
3
 72
8
 73
4
 74
0
 40
0
 40
0
 40
0
 40
0
 40
1
 40
1
 40
1
 40
1
 10
152.145400
 20
5.090300
 30
0.0
 10
152.141400
 20
3.262300
 30
0.0
 10
150.891400
 20
1.998300
 30
0.0
 10
149.103400
 20
1.934300
 30
0.0
  0
SPLINE
  5
225
100
AcDbEntity
  8
magstocklogo
 62
7
100
AcDbSpline
 70
8
 71
3
 72
8
 73
4
 74
0
 40
0
 40
0
 40
0
 40
0
 40
1
 40
1
 40
1
 40
1
 10
149.103400
 20
1.934300
 30
0.0
 10
147.359400
 20
1.873300
 30
0.0
 10
146.087400
 20
3.139300
 30
0.0
 10
146.066400
 20
5.033300
 30
0.0
  0
SPLINE
  5
226
100
AcDbEntity
  8
magstocklogo
 62
7
100
AcDbSpline
 70
8
 71
3
 72
8
 73
4
 74
0
 40
0
 40
0
 40
0
 40
0
 40
1
 40
1
 40
1
 40
1
 10
146.066400
 20
5.033300
 30
0.0
 10
146.039400
 20
7.551300
 30
0.0
 10
146.060400
 20
10.069300
 30
0.0
 10
146.060400
 20
12.588300
 30
0.0
  0
LWPOLYLINE
  5
227
100
AcDbEntity
  8
magstocklogo
 62
7
100
AcDbPolyline
 90
3
 70
1
 10
379.323200
 20
29.048400
 30
0.0
 10
379.323200
 20
29.066400
 30
0.0
 10
379.323200
 20
29.066400
 30
0.0
  0
SPLINE
  5
228
100
AcDbEntity
  8
magstocklogo
 62
7
100
AcDbSpline
 70
8
 71
3
 72
8
 73
4
 74
0
 40
0
 40
0
 40
0
 40
0
 40
1
 40
1
 40
1
 40
1
 10
146.060400
 20
13.926300
 30
0.0
 10
145.002400
 20
12.703300
 30
0.0
 10
144.443400
 20
11.538300
 30
0.0
 10
143.758400
 20
10.463300
 30
0.0
  0
SPLINE
  5
229
100
AcDbEntity
  8
magstocklogo
 62
7
100
AcDbSpline
 70
8
 71
3
 72
8
 73
4
 74
0
 40
0
 40
0
 40
0
 40
0
 40
1
 40
1
 40
1
 40
1
 10
143.758400
 20
10.463300
 30
0.0
 10
142.155400
 20
7.951300
 30
0.0
 10
140.630400
 20
5.388300
 30
0.0
 10
138.966400
 20
2.919300
 30
0.0
  0
SPLINE
  5
22a
100
AcDbEntity
  8
magstocklogo
 62
7
100
AcDbSpline
 70
8
 71
3
 72
8
 73
4
 74
0
 40
0
 40
0
 40
0
 40
0
 40
1
 40
1
 40
1
 40
1
 10
138.966400
 20
2.919300
 30
0.0
 10
137.690400
 20
1.026300
 30
0.0
 10
135.891400
 20
1.059300
 30
0.0
 10
134.500400
 20
2.873300
 30
0.0
  0
SPLINE
  5
22b
100
AcDbEntity
  8
magstocklogo
 62
7
100
AcDbSpline
 70
8
 71
3
 72
8
 73
4
 74
0
 40
0
 40
0
 40
0
 40
0
 40
1
 40
1
 40
1
 40
1
 10
134.500400
 20
2.873300
 30
0.0
 10
134.210400
 20
3.252300
 30
0.0
 10
133.936400
 20
3.645300
 30
0.0
 10
133.684400
 20
4.050300
 30
0.0
  0
SPLINE
  5
22c
100
AcDbEntity
  8
magstocklogo
 62
7
100
AcDbSpline
 70
8
 71
3
 72
8
 73
4
 74
0
 40
0
 40
0
 40
0
 40
0
 40
1
 40
1
 40
1
 40
1
 10
133.684400
 20
4.050300
 30
0.0
 10
131.898400
 20
6.915300
 30
0.0
 10
130.128400
 20
9.788300
 30
0.0
 10
128.331400
 20
12.644300
 30
0.0
  0
SPLINE
  5
22d
100
AcDbEntity
  8
magstocklogo
 62
7
100
AcDbSpline
 70
8
 71
3
 72
8
 73
4
 74
0
 40
0
 40
0
 40
0
 40
0
 40
1
 40
1
 40
1
 40
1
 10
128.331400
 20
12.644300
 30
0.0
 10
128.136400
 20
12.954300
 30
0.0
 10
128.062400
 20
13.413300
 30
0.0
 10
127.440400
 20
13.527300
 30
0.0
  0
SPLINE
  5
22e
100
AcDbEntity
  8
magstocklogo
 62
7
100
AcDbSpline
 70
8
 71
3
 72
8
 73
4
 74
0
 40
0
 40
0
 40
0
 40
0
 40
1
 40
1
 40
1
 40
1
 10
431.267600
 20
3.120100
 30
0.0
 10
427.228600
 20
3.118100
 30
0.0
 10
423.189600
 20
3.110100
 30
0.0
 10
419.150600
 20
3.121100
 30
0.0
  0
SPLINE
  5
22f
100
AcDbEntity
  8
magstocklogo
 62
7
100
AcDbSpline
 70
8
 71
3
 72
8
 73
4
 74
0
 40
0
 40
0
 40
0
 40
0
 40
1
 40
1
 40
1
 40
1
 10
419.150600
 20
3.121100
 30
0.0
 10
416.815600
 20
3.127100
 30
0.0
 10
415.896600
 20
3.872100
 30
0.0
 10
415.874600
 20
6.207100
 30
0.0
  0
SPLINE
  5
230
100
AcDbEntity
  8
magstocklogo
 62
7
100
AcDbSpline
 70
8
 71
3
 72
8
 73
4
 74
0
 40
0
 40
0
 40
0
 40
0
 40
1
 40
1
 40
1
 40
1
 10
415.874600
 20
6.207100
 30
0.0
 10
415.811600
 20
12.883100
 30
0.0
 10
415.829600
 20
19.560100
 30
0.0
 10
415.900600
 20
26.236100
 30
0.0
  0
SPLINE
  5
231
100
AcDbEntity
  8
magstocklogo
 62
7
100
AcDbSpline
 70
8
 71
3
 72
8
 73
4
 74
0
 40
0
 40
0
 40
0
 40
0
 40
1
 40
1
 40
1
 40
1
 10
415.900600
 20
26.236100
 30
0.0
 10
415.922600
 20
28.336100
 30
0.0
 10
416.761600
 20
29.046100
 30
0.0
 10
418.908600
 20
29.055100
 30
0.0
  0
SPLINE
  5
232
100
AcDbEntity
  8
magstocklogo
 62
7
100
AcDbSpline
 70
8
 71
3
 72
8
 73
4
 74
0
 40
0
 40
0
 40
0
 40
0
 40
1
 40
1
 40
1
 40
1
 10
418.908600
 20
29.055100
 30
0.0
 10
424.867600
 20
29.079100
 30
0.0
 10
430.825600
 20
29.065100
 30
0.0
 10
436.784600
 20
29.066100
 30
0.0
  0
SPLINE
  5
233
100
AcDbEntity
  8
magstocklogo
 62
7
100
AcDbSpline
 70
8
 71
3
 72
8
 73
4
 74
0
 40
0
 40
0
 40
0
 40
0
 40
1
 40
1
 40
1
 40
1
 10
436.784600
 20
29.066100
 30
0.0
 10
439.023600
 20
29.067100
 30
0.0
 10
441.262600
 20
29.098100
 30
0.0
 10
443.501600
 20
29.061100
 30
0.0
  0
SPLINE
  5
234
100
AcDbEntity
  8
magstocklogo
 62
7
100
AcDbSpline
 70
8
 71
3
 72
8
 73
4
 74
0
 40
0
 40
0
 40
0
 40
0
 40
1
 40
1
 40
1
 40
1
 10
443.501600
 20
29.061100
 30
0.0
 10
446.087600
 20
29.020100
 30
0.0
 10
447.438600
 20
26.636100
 30
0.0
 10
446.205600
 20
24.365100
 30
0.0
  0
SPLINE
  5
235
100
AcDbEntity
  8
magstocklogo
 62
7
100
AcDbSpline
 70
8
 71
3
 72
8
 73
4
 74
0
 40
0
 40
0
 40
0
 40
0
 40
1
 40
1
 40
1
 40
1
 10
446.205600
 20
24.365100
 30
0.0
 10
445.774600
 20
23.570100
 30
0.0
 10
445.146600
 20
23.084100
 30
0.0
 10
444.234600
 20
23.021100
 30
0.0
  0
SPLINE
  5
236
100
AcDbEntity
  8
magstocklogo
 62
7
100
AcDbSpline
 70
8
 71
3
 72
8
 73
4
 74
0
 40
0
 40
0
 40
0
 40
0
 40
1
 40
1
 40
1
 40
1
 10
444.234600
 20
23.021100
 30
0.0
 10
443.558600
 20
22.975100
 30
0.0
 10
442.879600
 20
22.947100
 30
0.0
 10
442.202600
 20
22.947100
 30
0.0
  0
SPLINE
  5
237
100
AcDbEntity
  8
magstocklogo
 62
7
100
AcDbSpline
 70
8
 71
3
 72
8
 73
4
 74
0
 40
0
 40
0
 40
0
 40
0
 40
1
 40
1
 40
1
 40
1
 10
442.202600
 20
22.947100
 30
0.0
 10
435.883600
 20
22.943100
 30
0.0
 10
429.565600
 20
22.929100
 30
0.0
 10
423.246600
 20
22.970100
 30
0.0
  0
SPLINE
  5
238
100
AcDbEntity
  8
magstocklogo
 62
7
100
AcDbSpline
 70
8
 71
3
 72
8
 73
4
 74
0
 40
0
 40
0
 40
0
 40
0
 40
1
 40
1
 40
1
 40
1
 10
423.246600
 20
22.970100
 30
0.0
 10
422.264600
 20
22.975100
 30
0.0
 10
421.862600
 20
22.836100
 30
0.0
 10
421.889600
 20
21.691100
 30
0.0
  0
SPLINE
  5
239
100
AcDbEntity
  8
magstocklogo
 62
7
100
AcDbSpline
 70
8
 71
3
 72
8
 73
4
 74
0
 40
0
 40
0
 40
0
 40
0
 40
1
 40
1
 40
1
 40
1
 10
421.889600
 20
21.691100
 30
0.0
 10
421.977600
 20
17.896100
 30
0.0
 10
421.947600
 20
14.099100
 30
0.0
 10
421.902600
 20
10.304100
 30
0.0
  0
SPLINE
  5
23a
100
AcDbEntity
  8
magstocklogo
 62
7
100
AcDbSpline
 70
8
 71
3
 72
8
 73
4
 74
0
 40
0
 40
0
 40
0
 40
0
 40
1
 40
1
 40
1
 40
1
 10
421.902600
 20
10.304100
 30
0.0
 10
421.893600
 20
9.506100
 30
0.0
 10
422.121600
 20
9.329100
 30
0.0
 10
422.895600
 20
9.333100
 30
0.0
  0
SPLINE
  5
23b
100
AcDbEntity
  8
magstocklogo
 62
7
100
AcDbSpline
 70
8
 71
3
 72
8
 73
4
 74
0
 40
0
 40
0
 40
0
 40
0
 40
1
 40
1
 40
1
 40
1
 10
422.895600
 20
9.333100
 30
0.0
 10
429.654600
 20
9.365100
 30
0.0
 10
436.412600
 20
9.362100
 30
0.0
 10
443.170600
 20
9.346100
 30
0.0
  0
SPLINE
  5
23c
100
AcDbEntity
  8
magstocklogo
 62
7
100
AcDbSpline
 70
8
 71
3
 72
8
 73
4
 74
0
 40
0
 40
0
 40
0
 40
0
 40
1
 40
1
 40
1
 40
1
 10
443.170600
 20
9.346100
 30
0.0
 10
445.882600
 20
9.339100
 30
0.0
 10
447.454600
 20
7.038100
 30
0.0
 10
446.314600
 20
4.777100
 30
0.0
  0
SPLINE
  5
23d
100
AcDbEntity
  8
magstocklogo
 62
7
100
AcDbSpline
 70
8
 71
3
 72
8
 73
4
 74
0
 40
0
 40
0
 40
0
 40
0
 40
1
 40
1
 40
1
 40
1
 10
446.314600
 20
4.777100
 30
0.0
 10
445.739600
 20
3.637100
 30
0.0
 10
444.774600
 20
3.118100
 30
0.0
 10
443.504600
 20
3.120100
 30
0.0
  0
SPLINE
  5
23e
100
AcDbEntity
  8
magstocklogo
 62
7
100
AcDbSpline
 70
8
 71
3
 72
8
 73
4
 74
0
 40
0
 40
0
 40
0
 40
0
 40
1
 40
1
 40
1
 40
1
 10
443.504600
 20
3.120100
 30
0.0
 10
439.425600
 20
3.125100
 30
0.0
 10
435.346600
 20
3.122100
 30
0.0
 10
431.267600
 20
3.120100
 30
0.0
  0
SPLINE
  5
23f
100
AcDbEntity
  8
magstocklogo
 62
7
100
AcDbSpline
 70
8
 71
3
 72
8
 73
4
 74
0
 40
0
 40
0
 40
0
 40
0
 40
1
 40
1
 40
1
 40
1
 10
476.731400
 20
17.032200
 30
0.0
 10
480.159400
 20
17.032200
 30
0.0
 10
483.232400
 20
17.035200
 30
0.0
 10
486.305400
 20
17.030200
 30
0.0
  0
SPLINE
  5
240
100
AcDbEntity
  8
magstocklogo
 62
7
100
AcDbSpline
 70
8
 71
3
 72
8
 73
4
 74
0
 40
0
 40
0
 40
0
 40
0
 40
1
 40
1
 40
1
 40
1
 10
486.305400
 20
17.030200
 30
0.0
 10
487.808400
 20
17.028200
 30
0.0
 10
488.793400
 20
16.392200
 30
0.0
 10
488.813400
 20
14.933200
 30
0.0
  0
SPLINE
  5
241
100
AcDbEntity
  8
magstocklogo
 62
7
100
AcDbSpline
 70
8
 71
3
 72
8
 73
4
 74
0
 40
0
 40
0
 40
0
 40
0
 40
1
 40
1
 40
1
 40
1
 10
488.813400
 20
14.933200
 30
0.0
 10
488.862400
 20
11.510200
 30
0.0
 10
489.046400
 20
8.081200
 30
0.0
 10
488.705400
 20
4.651200
 30
0.0
  0
SPLINE
  5
242
100
AcDbEntity
  8
magstocklogo
 62
7
100
AcDbSpline
 70
8
 71
3
 72
8
 73
4
 74
0
 40
0
 40
0
 40
0
 40
0
 40
1
 40
1
 40
1
 40
1
 10
488.705400
 20
4.651200
 30
0.0
 10
488.564400
 20
3.246200
 30
0.0
 10
487.718400
 20
2.822200
 30
0.0
 10
486.634400
 20
2.672200
 30
0.0
  0
SPLINE
  5
243
100
AcDbEntity
  8
magstocklogo
 62
7
100
AcDbSpline
 70
8
 71
3
 72
8
 73
4
 74
0
 40
0
 40
0
 40
0
 40
0
 40
1
 40
1
 40
1
 40
1
 10
486.634400
 20
2.672200
 30
0.0
 10
485.503400
 20
2.515200
 30
0.0
 10
484.496400
 20
2.942200
 30
0.0
 10
483.872400
 20
3.962200
 30
0.0
  0
SPLINE
  5
244
100
AcDbEntity
  8
magstocklogo
 62
7
100
AcDbSpline
 70
8
 71
3
 72
8
 73
4
 74
0
 40
0
 40
0
 40
0
 40
0
 40
1
 40
1
 40
1
 40
1
 10
483.872400
 20
3.962200
 30
0.0
 10
483.521400
 20
4.536200
 30
0.0
 10
483.337400
 20
5.174200
 30
0.0
 10
483.355400
 20
5.886200
 30
0.0
  0
SPLINE
  5
245
100
AcDbEntity
  8
magstocklogo
 62
7
100
AcDbSpline
 70
8
 71
3
 72
8
 73
4
 74
0
 40
0
 40
0
 40
0
 40
0
 40
1
 40
1
 40
1
 40
1
 10
483.355400
 20
5.886200
 30
0.0
 10
483.397400
 20
7.524200
 30
0.0
 10
483.344400
 20
9.165200
 30
0.0
 10
483.381400
 20
10.803200
 30
0.0
  0
SPLINE
  5
246
100
AcDbEntity
  8
magstocklogo
 62
7
100
AcDbSpline
 70
8
 71
3
 72
8
 73
4
 74
0
 40
0
 40
0
 40
0
 40
0
 40
1
 40
1
 40
1
 40
1
 10
483.381400
 20
10.803200
 30
0.0
 10
483.394400
 20
11.380200
 30
0.0
 10
483.222400
 20
11.544200
 30
0.0
 10
482.646400
 20
11.540200
 30
0.0
  0
SPLINE
  5
247
100
AcDbEntity
  8
magstocklogo
 62
7
100
AcDbSpline
 70
8
 71
3
 72
8
 73
4
 74
0
 40
0
 40
0
 40
0
 40
0
 40
1
 40
1
 40
1
 40
1
 10
482.646400
 20
11.540200
 30
0.0
 10
478.487400
 20
11.516200
 30
0.0
 10
474.328400
 20
11.508200
 30
0.0
 10
470.169400
 20
11.547200
 30
0.0
  0
SPLINE
  5
248
100
AcDbEntity
  8
magstocklogo
 62
7
100
AcDbSpline
 70
8
 71
3
 72
8
 73
4
 74
0
 40
0
 40
0
 40
0
 40
0
 40
1
 40
1
 40
1
 40
1
 10
470.169400
 20
11.547200
 30
0.0
 10
469.452400
 20
11.553200
 30
0.0
 10
469.418400
 20
11.242200
 30
0.0
 10
469.424400
 20
10.697200
 30
0.0
  0
SPLINE
  5
249
100
AcDbEntity
  8
magstocklogo
 62
7
100
AcDbSpline
 70
8
 71
3
 72
8
 73
4
 74
0
 40
0
 40
0
 40
0
 40
0
 40
1
 40
1
 40
1
 40
1
 10
469.424400
 20
10.697200
 30
0.0
 10
469.446400
 20
9.018200
 30
0.0
 10
469.442400
 20
7.339200
 30
0.0
 10
469.430400
 20
5.659200
 30
0.0
  0
SPLINE
  5
24a
100
AcDbEntity
  8
magstocklogo
 62
7
100
AcDbSpline
 70
8
 71
3
 72
8
 73
4
 74
0
 40
0
 40
0
 40
0
 40
0
 40
1
 40
1
 40
1
 40
1
 10
469.430400
 20
5.659200
 30
0.0
 10
469.419400
 20
3.989200
 30
0.0
 10
468.287400
 20
2.842200
 30
0.0
 10
466.514400
 20
2.675200
 30
0.0
  0
SPLINE
  5
24b
100
AcDbEntity
  8
magstocklogo
 62
7
100
AcDbSpline
 70
8
 71
3
 72
8
 73
4
 74
0
 40
0
 40
0
 40
0
 40
0
 40
1
 40
1
 40
1
 40
1
 10
466.514400
 20
2.675200
 30
0.0
 10
465.115400
 20
2.543200
 30
0.0
 10
463.754400
 20
3.633200
 30
0.0
 10
463.411400
 20
5.076200
 30
0.0
  0
SPLINE
  5
24c
100
AcDbEntity
  8
magstocklogo
 62
7
100
AcDbSpline
 70
8
 71
3
 72
8
 73
4
 74
0
 40
0
 40
0
 40
0
 40
0
 40
1
 40
1
 40
1
 40
1
 10
463.411400
 20
5.076200
 30
0.0
 10
463.252400
 20
5.738200
 30
0.0
 10
463.206400
 20
6.392200
 30
0.0
 10
463.206400
 20
7.064200
 30
0.0
  0
SPLINE
  5
24d
100
AcDbEntity
  8
magstocklogo
 62
7
100
AcDbSpline
 70
8
 71
3
 72
8
 73
4
 74
0
 40
0
 40
0
 40
0
 40
0
 40
1
 40
1
 40
1
 40
1
 10
463.206400
 20
7.064200
 30
0.0
 10
463.210400
 20
13.543200
 30
0.0
 10
463.208400
 20
20.021200
 30
0.0
 10
463.209400
 20
26.499200
 30
0.0
  0
SPLINE
  5
24e
100
AcDbEntity
  8
magstocklogo
 62
7
100
AcDbSpline
 70
8
 71
3
 72
8
 73
4
 74
0
 40
0
 40
0
 40
0
 40
0
 40
1
 40
1
 40
1
 40
1
 10
463.209400
 20
26.499200
 30
0.0
 10
463.210400
 20
28.532200
 30
0.0
 10
464.220400
 20
29.511200
 30
0.0
 10
466.312400
 20
29.511200
 30
0.0
  0
SPLINE
  5
24f
100
AcDbEntity
  8
magstocklogo
 62
7
100
AcDbSpline
 70
8
 71
3
 72
8
 73
4
 74
0
 40
0
 40
0
 40
0
 40
0
 40
1
 40
1
 40
1
 40
1
 10
466.312400
 20
29.511200
 30
0.0
 10
468.410400
 20
29.511200
 30
0.0
 10
469.671400
 20
28.336200
 30
0.0
 10
469.672400
 20
26.381200
 30
0.0
  0
SPLINE
  5
250
100
AcDbEntity
  8
magstocklogo
 62
7
100
AcDbSpline
 70
8
 71
3
 72
8
 73
4
 74
0
 40
0
 40
0
 40
0
 40
0
 40
1
 40
1
 40
1
 40
1
 10
469.672400
 20
26.381200
 30
0.0
 10
469.673400
 20
24.502200
 30
0.0
 10
469.672400
 20
22.624200
 30
0.0
 10
469.672400
 20
20.568200
 30
0.0
  0
SPLINE
  5
251
100
AcDbEntity
  8
magstocklogo
 62
7
100
AcDbSpline
 70
8
 71
3
 72
8
 73
4
 74
0
 40
0
 40
0
 40
0
 40
0
 40
1
 40
1
 40
1
 40
1
 10
469.672400
 20
20.568200
 30
0.0
 10
471.606400
 20
21.609200
 30
0.0
 10
473.449400
 20
22.584200
 30
0.0
 10
475.275400
 20
23.590200
 30
0.0
  0
SPLINE
  5
252
100
AcDbEntity
  8
magstocklogo
 62
7
100
AcDbSpline
 70
8
 71
3
 72
8
 73
4
 74
0
 40
0
 40
0
 40
0
 40
0
 40
1
 40
1
 40
1
 40
1
 10
475.275400
 20
23.590200
 30
0.0
 10
478.397400
 20
25.310200
 30
0.0
 10
481.520400
 20
27.028200
 30
0.0
 10
484.616400
 20
28.797200
 30
0.0
  0
SPLINE
  5
253
100
AcDbEntity
  8
magstocklogo
 62
7
100
AcDbSpline
 70
8
 71
3
 72
8
 73
4
 74
0
 40
0
 40
0
 40
0
 40
0
 40
1
 40
1
 40
1
 40
1
 10
484.616400
 20
28.797200
 30
0.0
 10
485.472400
 20
29.285200
 30
0.0
 10
486.364400
 20
29.384200
 30
0.0
 10
487.264400
 20
29.254200
 30
0.0
  0
SPLINE
  5
254
100
AcDbEntity
  8
magstocklogo
 62
7
100
AcDbSpline
 70
8
 71
3
 72
8
 73
4
 74
0
 40
0
 40
0
 40
0
 40
0
 40
1
 40
1
 40
1
 40
1
 10
487.264400
 20
29.254200
 30
0.0
 10
488.078400
 20
29.136200
 30
0.0
 10
488.811400
 20
28.615200
 30
0.0
 10
488.970400
 20
27.798200
 30
0.0
  0
SPLINE
  5
255
100
AcDbEntity
  8
magstocklogo
 62
7
100
AcDbSpline
 70
8
 71
3
 72
8
 73
4
 74
0
 40
0
 40
0
 40
0
 40
0
 40
1
 40
1
 40
1
 40
1
 10
488.970400
 20
27.798200
 30
0.0
 10
489.159400
 20
26.829200
 30
0.0
 10
489.502400
 20
25.749200
 30
0.0
 10
488.353400
 20
24.983200
 30
0.0
  0
SPLINE
  5
256
100
AcDbEntity
  8
magstocklogo
 62
7
100
AcDbSpline
 70
8
 71
3
 72
8
 73
4
 74
0
 40
0
 40
0
 40
0
 40
0
 40
1
 40
1
 40
1
 40
1
 10
488.353400
 20
24.983200
 30
0.0
 10
485.701400
 20
23.215200
 30
0.0
 10
483.079400
 20
21.399200
 30
0.0
 10
480.448400
 20
19.599200
 30
0.0
  0
SPLINE
  5
257
100
AcDbEntity
  8
magstocklogo
 62
7
100
AcDbSpline
 70
8
 71
3
 72
8
 73
4
 74
0
 40
0
 40
0
 40
0
 40
0
 40
1
 40
1
 40
1
 40
1
 10
480.448400
 20
19.599200
 30
0.0
 10
479.302400
 20
18.815200
 30
0.0
 10
478.164400
 20
18.022200
 30
0.0
 10
476.731400
 20
17.032200
 30
0.0
  0
SPLINE
  5
258
100
AcDbEntity
  8
magstocklogo
 62
7
100
AcDbSpline
 70
8
 71
3
 72
8
 73
4
 74
0
 40
0
 40
0
 40
0
 40
0
 40
1
 40
1
 40
1
 40
1
 10
619.191400
 20
62.668000
 30
0.0
 10
618.922400
 20
49.649000
 30
0.0
 10
614.891400
 20
38.061000
 30
0.0
 10
606.728400
 20
27.969000
 30
0.0
  0
SPLINE
  5
259
100
AcDbEntity
  8
magstocklogo
 62
7
100
AcDbSpline
 70
8
 71
3
 72
8
 73
4
 74
0
 40
0
 40
0
 40
0
 40
0
 40
1
 40
1
 40
1
 40
1
 10
606.728400
 20
27.969000
 30
0.0
 10
605.651400
 20
26.637000
 30
0.0
 10
604.446400
 20
25.410000
 30
0.0
 10
603.330400
 20
24.109000
 30
0.0
  0
SPLINE
  5
25a
100
AcDbEntity
  8
magstocklogo
 62
7
100
AcDbSpline
 70
8
 71
3
 72
8
 73
4
 74
0
 40
0
 40
0
 40
0
 40
0
 40
1
 40
1
 40
1
 40
1
 10
603.330400
 20
24.109000
 30
0.0
 10
602.281400
 20
22.888000
 30
0.0
 10
600.366400
 20
23.065000
 30
0.0
 10
599.574400
 20
23.871000
 30
0.0
  0
SPLINE
  5
25b
100
AcDbEntity
  8
magstocklogo
 62
7
100
AcDbSpline
 70
8
 71
3
 72
8
 73
4
 74
0
 40
0
 40
0
 40
0
 40
0
 40
1
 40
1
 40
1
 40
1
 10
599.574400
 20
23.871000
 30
0.0
 10
598.498400
 20
24.965000
 30
0.0
 10
598.535400
 20
26.458000
 30
0.0
 10
599.743400
 20
27.693000
 30
0.0
  0
SPLINE
  5
25c
100
AcDbEntity
  8
magstocklogo
 62
7
100
AcDbSpline
 70
8
 71
3
 72
8
 73
4
 74
0
 40
0
 40
0
 40
0
 40
0
 40
1
 40
1
 40
1
 40
1
 10
599.743400
 20
27.693000
 30
0.0
 10
606.677400
 20
34.788000
 30
0.0
 10
611.197400
 20
43.209000
 30
0.0
 10
613.103400
 20
52.913000
 30
0.0
  0
SPLINE
  5
25d
100
AcDbEntity
  8
magstocklogo
 62
7
100
AcDbSpline
 70
8
 71
3
 72
8
 73
4
 74
0
 40
0
 40
0
 40
0
 40
0
 40
1
 40
1
 40
1
 40
1
 10
613.103400
 20
52.913000
 30
0.0
 10
615.930400
 20
67.308000
 30
0.0
 10
612.723400
 20
80.344000
 30
0.0
 10
603.700400
 20
91.930000
 30
0.0
  0
SPLINE
  5
25e
100
AcDbEntity
  8
magstocklogo
 62
7
100
AcDbSpline
 70
8
 71
3
 72
8
 73
4
 74
0
 40
0
 40
0
 40
0
 40
0
 40
1
 40
1
 40
1
 40
1
 10
603.700400
 20
91.930000
 30
0.0
 10
602.472400
 20
93.506000
 30
0.0
 10
601.125400
 20
94.977000
 30
0.0
 10
599.745400
 20
96.422000
 30
0.0
  0
SPLINE
  5
25f
100
AcDbEntity
  8
magstocklogo
 62
7
100
AcDbSpline
 70
8
 71
3
 72
8
 73
4
 74
0
 40
0
 40
0
 40
0
 40
0
 40
1
 40
1
 40
1
 40
1
 10
599.745400
 20
96.422000
 30
0.0
 10
598.531400
 20
97.693000
 30
0.0
 10
598.494400
 20
99.176000
 30
0.0
 10
599.580400
 20
100.219000
 30
0.0
  0
SPLINE
  5
260
100
AcDbEntity
  8
magstocklogo
 62
7
100
AcDbSpline
 70
8
 71
3
 72
8
 73
4
 74
0
 40
0
 40
0
 40
0
 40
0
 40
1
 40
1
 40
1
 40
1
 10
599.580400
 20
100.219000
 30
0.0
 10
600.631400
 20
101.230000
 30
0.0
 10
602.229400
 20
101.100000
 30
0.0
 10
603.390400
 20
99.915000
 30
0.0
  0
SPLINE
  5
261
100
AcDbEntity
  8
magstocklogo
 62
7
100
AcDbSpline
 70
8
 71
3
 72
8
 73
4
 74
0
 40
0
 40
0
 40
0
 40
0
 40
1
 40
1
 40
1
 40
1
 10
603.390400
 20
99.915000
 30
0.0
 10
610.316400
 20
92.851000
 30
0.0
 10
615.220400
 20
84.634000
 30
0.0
 10
617.638400
 20
74.991000
 30
0.0
  0
SPLINE
  5
262
100
AcDbEntity
  8
magstocklogo
 62
7
100
AcDbSpline
 70
8
 71
3
 72
8
 73
4
 74
0
 40
0
 40
0
 40
0
 40
0
 40
1
 40
1
 40
1
 40
1
 10
617.638400
 20
74.991000
 30
0.0
 10
618.661400
 20
70.917000
 30
0.0
 10
619.054400
 20
66.770000
 30
0.0
 10
619.191400
 20
62.668000
 30
0.0
  0
SPLINE
  5
263
100
AcDbEntity
  8
magstocklogo
 62
7
100
AcDbSpline
 70
8
 71
3
 72
8
 73
4
 74
0
 40
0
 40
0
 40
0
 40
0
 40
1
 40
1
 40
1
 40
1
 10
195.900400
 20
2.147500
 30
0.0
 10
194.850400
 20
2.112500
 30
0.0
 10
194.082400
 20
2.851500
 30
0.0
 10
193.460400
 20
3.761500
 30
0.0
  0
SPLINE
  5
264
100
AcDbEntity
  8
magstocklogo
 62
7
100
AcDbSpline
 70
8
 71
3
 72
8
 73
4
 74
0
 40
0
 40
0
 40
0
 40
0
 40
1
 40
1
 40
1
 40
1
 10
193.460400
 20
3.761500
 30
0.0
 10
192.406400
 20
5.304500
 30
0.0
 10
191.382400
 20
6.868500
 30
0.0
 10
190.375400
 20
8.442500
 30
0.0
  0
SPLINE
  5
265
100
AcDbEntity
  8
magstocklogo
 62
7
100
AcDbSpline
 70
8
 71
3
 72
8
 73
4
 74
0
 40
0
 40
0
 40
0
 40
0
 40
1
 40
1
 40
1
 40
1
 10
190.375400
 20
8.442500
 30
0.0
 10
190.071400
 20
8.918500
 30
0.0
 10
189.748400
 20
9.140500
 30
0.0
 10
189.144400
 20
9.134500
 30
0.0
  0
SPLINE
  5
266
100
AcDbEntity
  8
magstocklogo
 62
7
100
AcDbSpline
 70
8
 71
3
 72
8
 73
4
 74
0
 40
0
 40
0
 40
0
 40
0
 40
1
 40
1
 40
1
 40
1
 10
189.144400
 20
9.134500
 30
0.0
 10
185.628400
 20
9.100500
 30
0.0
 10
182.109400
 20
9.095500
 30
0.0
 10
178.593400
 20
9.136500
 30
0.0
  0
SPLINE
  5
267
100
AcDbEntity
  8
magstocklogo
 62
7
100
AcDbSpline
 70
8
 71
3
 72
8
 73
4
 74
0
 40
0
 40
0
 40
0
 40
0
 40
1
 40
1
 40
1
 40
1
 10
178.593400
 20
9.136500
 30
0.0
 10
177.931400
 20
9.144500
 30
0.0
 10
177.608400
 20
8.892500
 30
0.0
 10
177.278400
 20
8.376500
 30
0.0
  0
SPLINE
  5
268
100
AcDbEntity
  8
magstocklogo
 62
7
100
AcDbSpline
 70
8
 71
3
 72
8
 73
4
 74
0
 40
0
 40
0
 40
0
 40
0
 40
1
 40
1
 40
1
 40
1
 10
177.278400
 20
8.376500
 30
0.0
 10
176.207400
 20
6.702500
 30
0.0
 10
175.140400
 20
5.020500
 30
0.0
 10
173.963400
 20
3.421500
 30
0.0
  0
SPLINE
  5
269
100
AcDbEntity
  8
magstocklogo
 62
7
100
AcDbSpline
 70
8
 71
3
 72
8
 73
4
 74
0
 40
0
 40
0
 40
0
 40
0
 40
1
 40
1
 40
1
 40
1
 10
173.963400
 20
3.421500
 30
0.0
 10
172.717400
 20
1.731500
 30
0.0
 10
170.680400
 20
1.673500
 30
0.0
 10
169.228400
 20
3.174500
 30
0.0
  0
SPLINE
  5
26a
100
AcDbEntity
  8
magstocklogo
 62
7
100
AcDbSpline
 70
8
 71
3
 72
8
 73
4
 74
0
 40
0
 40
0
 40
0
 40
0
 40
1
 40
1
 40
1
 40
1
 10
169.228400
 20
3.174500
 30
0.0
 10
168.213400
 20
4.224500
 30
0.0
 10
168.160400
 20
5.645500
 30
0.0
 10
169.122400
 20
7.219500
 30
0.0
  0
SPLINE
  5
26b
100
AcDbEntity
  8
magstocklogo
 62
7
100
AcDbSpline
 70
8
 71
3
 72
8
 73
4
 74
0
 40
0
 40
0
 40
0
 40
0
 40
1
 40
1
 40
1
 40
1
 10
169.122400
 20
7.219500
 30
0.0
 10
170.655400
 20
9.727500
 30
0.0
 10
172.186400
 20
12.238500
 30
0.0
 10
173.764400
 20
14.718500
 30
0.0
  0
SPLINE
  5
26c
100
AcDbEntity
  8
magstocklogo
 62
7
100
AcDbSpline
 70
8
 71
3
 72
8
 73
4
 74
0
 40
0
 40
0
 40
0
 40
0
 40
1
 40
1
 40
1
 40
1
 10
173.764400
 20
14.718500
 30
0.0
 10
176.022400
 20
18.265500
 30
0.0
 10
178.094400
 20
21.929500
 30
0.0
 10
180.472400
 20
25.402500
 30
0.0
  0
SPLINE
  5
26d
100
AcDbEntity
  8
magstocklogo
 62
7
100
AcDbSpline
 70
8
 71
3
 72
8
 73
4
 74
0
 40
0
 40
0
 40
0
 40
0
 40
1
 40
1
 40
1
 40
1
 10
180.472400
 20
25.402500
 30
0.0
 10
180.817400
 20
25.906500
 30
0.0
 10
181.229400
 20
26.332500
 30
0.0
 10
181.662400
 20
26.737500
 30
0.0
  0
SPLINE
  5
26e
100
AcDbEntity
  8
magstocklogo
 62
7
100
AcDbSpline
 70
8
 71
3
 72
8
 73
4
 74
0
 40
0
 40
0
 40
0
 40
0
 40
1
 40
1
 40
1
 40
1
 10
181.662400
 20
26.737500
 30
0.0
 10
183.108400
 20
28.088500
 30
0.0
 10
184.927400
 20
28.071500
 30
0.0
 10
186.334400
 20
26.653500
 30
0.0
  0
SPLINE
  5
26f
100
AcDbEntity
  8
magstocklogo
 62
7
100
AcDbSpline
 70
8
 71
3
 72
8
 73
4
 74
0
 40
0
 40
0
 40
0
 40
0
 40
1
 40
1
 40
1
 40
1
 10
186.334400
 20
26.653500
 30
0.0
 10
187.808400
 20
25.168500
 30
0.0
 10
188.700400
 20
23.272500
 30
0.0
 10
189.790400
 20
21.522500
 30
0.0
  0
SPLINE
  5
270
100
AcDbEntity
  8
magstocklogo
 62
7
100
AcDbSpline
 70
8
 71
3
 72
8
 73
4
 74
0
 40
0
 40
0
 40
0
 40
0
 40
1
 40
1
 40
1
 40
1
 10
189.790400
 20
21.522500
 30
0.0
 10
192.772400
 20
16.739500
 30
0.0
 10
195.714400
 20
11.931500
 30
0.0
 10
198.661400
 20
7.127500
 30
0.0
  0
SPLINE
  5
271
100
AcDbEntity
  8
magstocklogo
 62
7
100
AcDbSpline
 70
8
 71
3
 72
8
 73
4
 74
0
 40
0
 40
0
 40
0
 40
0
 40
1
 40
1
 40
1
 40
1
 10
198.661400
 20
7.127500
 30
0.0
 10
199.345400
 20
6.013500
 30
0.0
 10
199.602400
 20
4.813500
 30
0.0
 10
198.881400
 20
3.639500
 30
0.0
  0
SPLINE
  5
272
100
AcDbEntity
  8
magstocklogo
 62
7
100
AcDbSpline
 70
8
 71
3
 72
8
 73
4
 74
0
 40
0
 40
0
 40
0
 40
0
 40
1
 40
1
 40
1
 40
1
 10
198.881400
 20
3.639500
 30
0.0
 10
198.261400
 20
2.631500
 30
0.0
 10
197.295400
 20
2.112500
 30
0.0
 10
195.900400
 20
2.147500
 30
0.0
  0
SPLINE
  5
273
100
AcDbEntity
  8
magstocklogo
 62
7
100
AcDbSpline
 70
8
 71
3
 72
8
 73
4
 74
0
 40
0
 40
0
 40
0
 40
0
 40
1
 40
1
 40
1
 40
1
 10
598.819300
 20
61.521500
 30
0.0
 10
598.480300
 20
52.069500
 30
0.0
 10
594.959300
 20
42.999500
 30
0.0
 10
587.650300
 20
35.507500
 30
0.0
  0
SPLINE
  5
274
100
AcDbEntity
  8
magstocklogo
 62
7
100
AcDbSpline
 70
8
 71
3
 72
8
 73
4
 74
0
 40
0
 40
0
 40
0
 40
0
 40
1
 40
1
 40
1
 40
1
 10
587.650300
 20
35.507500
 30
0.0
 10
586.106300
 20
33.924500
 30
0.0
 10
583.799300
 20
34.478500
 30
0.0
 10
583.265300
 20
36.519500
 30
0.0
  0
SPLINE
  5
275
100
AcDbEntity
  8
magstocklogo
 62
7
100
AcDbSpline
 70
8
 71
3
 72
8
 73
4
 74
0
 40
0
 40
0
 40
0
 40
0
 40
1
 40
1
 40
1
 40
1
 10
583.265300
 20
36.519500
 30
0.0
 10
582.981300
 20
37.602500
 30
0.0
 10
583.493300
 20
38.467500
 30
0.0
 10
584.218300
 20
39.195500
 30
0.0
  0
SPLINE
  5
276
100
AcDbEntity
  8
magstocklogo
 62
7
100
AcDbSpline
 70
8
 71
3
 72
8
 73
4
 74
0
 40
0
 40
0
 40
0
 40
0
 40
1
 40
1
 40
1
 40
1
 10
584.218300
 20
39.195500
 30
0.0
 10
586.343300
 20
41.329500
 30
0.0
 10
588.106300
 20
43.732500
 30
0.0
 10
589.518300
 20
46.380500
 30
0.0
  0
SPLINE
  5
277
100
AcDbEntity
  8
magstocklogo
 62
7
100
AcDbSpline
 70
8
 71
3
 72
8
 73
4
 74
0
 40
0
 40
0
 40
0
 40
0
 40
1
 40
1
 40
1
 40
1
 10
589.518300
 20
46.380500
 30
0.0
 10
593.018300
 20
52.948500
 30
0.0
 10
594.541300
 20
59.866500
 30
0.0
 10
593.331300
 20
67.318500
 30
0.0
  0
SPLINE
  5
278
100
AcDbEntity
  8
magstocklogo
 62
7
100
AcDbSpline
 70
8
 71
3
 72
8
 73
4
 74
0
 40
0
 40
0
 40
0
 40
0
 40
1
 40
1
 40
1
 40
1
 10
593.331300
 20
67.318500
 30
0.0
 10
592.294300
 20
73.710500
 30
0.0
 10
589.467300
 20
79.170500
 30
0.0
 10
585.130300
 20
83.907500
 30
0.0
  0
SPLINE
  5
279
100
AcDbEntity
  8
magstocklogo
 62
7
100
AcDbSpline
 70
8
 71
3
 72
8
 73
4
 74
0
 40
0
 40
0
 40
0
 40
0
 40
1
 40
1
 40
1
 40
1
 10
585.130300
 20
83.907500
 30
0.0
 10
584.725300
 20
84.348500
 30
0.0
 10
584.338300
 20
84.805500
 30
0.0
 10
583.952300
 20
85.263500
 30
0.0
  0
SPLINE
  5
27a
100
AcDbEntity
  8
magstocklogo
 62
7
100
AcDbSpline
 70
8
 71
3
 72
8
 73
4
 74
0
 40
0
 40
0
 40
0
 40
0
 40
1
 40
1
 40
1
 40
1
 10
583.952300
 20
85.263500
 30
0.0
 10
582.907300
 20
86.508500
 30
0.0
 10
582.946300
 20
87.834500
 30
0.0
 10
584.051300
 20
88.848500
 30
0.0
  0
SPLINE
  5
27b
100
AcDbEntity
  8
magstocklogo
 62
7
100
AcDbSpline
 70
8
 71
3
 72
8
 73
4
 74
0
 40
0
 40
0
 40
0
 40
0
 40
1
 40
1
 40
1
 40
1
 10
584.051300
 20
88.848500
 30
0.0
 10
585.120300
 20
89.827500
 30
0.0
 10
586.577300
 20
89.769500
 30
0.0
 10
587.677300
 20
88.642500
 30
0.0
  0
SPLINE
  5
27c
100
AcDbEntity
  8
magstocklogo
 62
7
100
AcDbSpline
 70
8
 71
3
 72
8
 73
4
 74
0
 40
0
 40
0
 40
0
 40
0
 40
1
 40
1
 40
1
 40
1
 10
587.677300
 20
88.642500
 30
0.0
 10
590.246300
 20
86.010500
 30
0.0
 10
592.498300
 20
83.134500
 30
0.0
 10
594.282300
 20
79.908500
 30
0.0
  0
SPLINE
  5
27d
100
AcDbEntity
  8
magstocklogo
 62
7
100
AcDbSpline
 70
8
 71
3
 72
8
 73
4
 74
0
 40
0
 40
0
 40
0
 40
0
 40
1
 40
1
 40
1
 40
1
 10
594.282300
 20
79.908500
 30
0.0
 10
597.284300
 20
74.479500
 30
0.0
 10
598.763300
 20
68.655500
 30
0.0
 10
598.819300
 20
61.521500
 30
0.0
  0
SPLINE
  5
27e
100
AcDbEntity
  8
magstocklogo
 62
7
100
AcDbSpline
 70
8
 71
3
 72
8
 73
4
 74
0
 40
0
 40
0
 40
0
 40
0
 40
1
 40
1
 40
1
 40
1
 10
330.496100
 20
28.573200
 30
0.0
 10
334.653100
 20
28.573200
 30
0.0
 10
338.811100
 20
28.588200
 30
0.0
 10
342.969100
 20
28.566200
 30
0.0
  0
SPLINE
  5
27f
100
AcDbEntity
  8
magstocklogo
 62
7
100
AcDbSpline
 70
8
 71
3
 72
8
 73
4
 74
0
 40
0
 40
0
 40
0
 40
0
 40
1
 40
1
 40
1
 40
1
 10
342.969100
 20
28.566200
 30
0.0
 10
344.385100
 20
28.558200
 30
0.0
 10
345.408100
 20
27.800200
 30
0.0
 10
345.792100
 20
26.594200
 30
0.0
  0
SPLINE
  5
280
100
AcDbEntity
  8
magstocklogo
 62
7
100
AcDbSpline
 70
8
 71
3
 72
8
 73
4
 74
0
 40
0
 40
0
 40
0
 40
0
 40
1
 40
1
 40
1
 40
1
 10
345.792100
 20
26.594200
 30
0.0
 10
346.204100
 20
25.295200
 30
0.0
 10
345.770100
 20
23.841200
 30
0.0
 10
344.765100
 20
23.028200
 30
0.0
  0
SPLINE
  5
281
100
AcDbEntity
  8
magstocklogo
 62
7
100
AcDbSpline
 70
8
 71
3
 72
8
 73
4
 74
0
 40
0
 40
0
 40
0
 40
0
 40
1
 40
1
 40
1
 40
1
 10
344.765100
 20
23.028200
 30
0.0
 10
344.052100
 20
22.453200
 30
0.0
 10
343.210100
 20
22.468200
 30
0.0
 10
342.381100
 20
22.464200
 30
0.0
  0
SPLINE
  5
282
100
AcDbEntity
  8
magstocklogo
 62
7
100
AcDbSpline
 70
8
 71
3
 72
8
 73
4
 74
0
 40
0
 40
0
 40
0
 40
0
 40
1
 40
1
 40
1
 40
1
 10
342.381100
 20
22.464200
 30
0.0
 10
339.823100
 20
22.449200
 30
0.0
 10
337.264100
 20
22.430200
 30
0.0
 10
334.706100
 20
22.487200
 30
0.0
  0
SPLINE
  5
283
100
AcDbEntity
  8
magstocklogo
 62
7
100
AcDbSpline
 70
8
 71
3
 72
8
 73
4
 74
0
 40
0
 40
0
 40
0
 40
0
 40
1
 40
1
 40
1
 40
1
 10
334.706100
 20
22.487200
 30
0.0
 10
333.819100
 20
22.507200
 30
0.0
 10
333.570100
 20
22.260200
 30
0.0
 10
333.579100
 20
21.350200
 30
0.0
  0
SPLINE
  5
284
100
AcDbEntity
  8
magstocklogo
 62
7
100
AcDbSpline
 70
8
 71
3
 72
8
 73
4
 74
0
 40
0
 40
0
 40
0
 40
0
 40
1
 40
1
 40
1
 40
1
 10
333.579100
 20
21.350200
 30
0.0
 10
333.626100
 20
16.154200
 30
0.0
 10
333.618100
 20
10.956200
 30
0.0
 10
333.590100
 20
5.759200
 30
0.0
  0
SPLINE
  5
285
100
AcDbEntity
  8
magstocklogo
 62
7
100
AcDbSpline
 70
8
 71
3
 72
8
 73
4
 74
0
 40
0
 40
0
 40
0
 40
0
 40
1
 40
1
 40
1
 40
1
 10
333.590100
 20
5.759200
 30
0.0
 10
333.577100
 20
3.304200
 30
0.0
 10
331.201100
 20
1.931200
 30
0.0
 10
329.030100
 20
3.087200
 30
0.0
  0
SPLINE
  5
286
100
AcDbEntity
  8
magstocklogo
 62
7
100
AcDbSpline
 70
8
 71
3
 72
8
 73
4
 74
0
 40
0
 40
0
 40
0
 40
0
 40
1
 40
1
 40
1
 40
1
 10
329.030100
 20
3.087200
 30
0.0
 10
328.172100
 20
3.543200
 30
0.0
 10
327.585100
 20
4.212200
 30
0.0
 10
327.576100
 20
5.247200
 30
0.0
  0
SPLINE
  5
287
100
AcDbEntity
  8
magstocklogo
 62
7
100
AcDbSpline
 70
8
 71
3
 72
8
 73
4
 74
0
 40
0
 40
0
 40
0
 40
0
 40
1
 40
1
 40
1
 40
1
 10
327.576100
 20
5.247200
 30
0.0
 10
327.549100
 20
8.124200
 30
0.0
 10
327.520100
 20
11.001200
 30
0.0
 10
327.507100
 20
13.877200
 30
0.0
  0
SPLINE
  5
288
100
AcDbEntity
  8
magstocklogo
 62
7
100
AcDbSpline
 70
8
 71
3
 72
8
 73
4
 74
0
 40
0
 40
0
 40
0
 40
0
 40
1
 40
1
 40
1
 40
1
 10
327.507100
 20
13.877200
 30
0.0
 10
327.496100
 20
16.316200
 30
0.0
 10
327.440100
 20
18.757200
 30
0.0
 10
327.535100
 20
21.192200
 30
0.0
  0
SPLINE
  5
289
100
AcDbEntity
  8
magstocklogo
 62
7
100
AcDbSpline
 70
8
 71
3
 72
8
 73
4
 74
0
 40
0
 40
0
 40
0
 40
0
 40
1
 40
1
 40
1
 40
1
 10
327.535100
 20
21.192200
 30
0.0
 10
327.579100
 20
22.304200
 30
0.0
 10
327.198100
 20
22.511200
 30
0.0
 10
326.184100
 20
22.487200
 30
0.0
  0
SPLINE
  5
28a
100
AcDbEntity
  8
magstocklogo
 62
7
100
AcDbSpline
 70
8
 71
3
 72
8
 73
4
 74
0
 40
0
 40
0
 40
0
 40
0
 40
1
 40
1
 40
1
 40
1
 10
326.184100
 20
22.487200
 30
0.0
 10
323.467100
 20
22.421200
 30
0.0
 10
320.748100
 20
22.467200
 30
0.0
 10
318.030100
 20
22.471200
 30
0.0
  0
SPLINE
  5
28b
100
AcDbEntity
  8
magstocklogo
 62
7
100
AcDbSpline
 70
8
 71
3
 72
8
 73
4
 74
0
 40
0
 40
0
 40
0
 40
0
 40
1
 40
1
 40
1
 40
1
 10
318.030100
 20
22.471200
 30
0.0
 10
316.801100
 20
22.473200
 30
0.0
 10
315.864100
 20
22.985200
 30
0.0
 10
315.381100
 20
24.136200
 30
0.0
  0
SPLINE
  5
28c
100
AcDbEntity
  8
magstocklogo
 62
7
100
AcDbSpline
 70
8
 71
3
 72
8
 73
4
 74
0
 40
0
 40
0
 40
0
 40
0
 40
1
 40
1
 40
1
 40
1
 10
315.381100
 20
24.136200
 30
0.0
 10
314.890100
 20
25.307200
 30
0.0
 10
314.955100
 20
26.462200
 30
0.0
 10
315.737100
 20
27.513200
 30
0.0
  0
SPLINE
  5
28d
100
AcDbEntity
  8
magstocklogo
 62
7
100
AcDbSpline
 70
8
 71
3
 72
8
 73
4
 74
0
 40
0
 40
0
 40
0
 40
0
 40
1
 40
1
 40
1
 40
1
 10
315.737100
 20
27.513200
 30
0.0
 10
316.399100
 20
28.402200
 30
0.0
 10
317.344100
 20
28.592200
 30
0.0
 10
318.383100
 20
28.589200
 30
0.0
  0
SPLINE
  5
28e
100
AcDbEntity
  8
magstocklogo
 62
7
100
AcDbSpline
 70
8
 71
3
 72
8
 73
4
 74
0
 40
0
 40
0
 40
0
 40
0
 40
1
 40
1
 40
1
 40
1
 10
318.383100
 20
28.589200
 30
0.0
 10
322.421100
 20
28.579200
 30
0.0
 10
326.458100
 20
28.585200
 30
0.0
 10
330.496100
 20
28.585200
 30
0.0
  0
LWPOLYLINE
  5
28f
100
AcDbEntity
  8
magstocklogo
 62
7
100
AcDbPolyline
 90
2
 70
0
 10
146.060400
 20
12.588300
 30
0.0
 10
146.060400
 20
13.926300
 30
0.0
  0
SPLINE
  5
290
100
AcDbEntity
  8
magstocklogo
 62
7
100
AcDbSpline
 70
8
 71
3
 72
8
 73
4
 74
0
 40
0
 40
0
 40
0
 40
0
 40
1
 40
1
 40
1
 40
1
 10
53.041500
 20
78.944800
 30
0.0
 10
40.966500
 20
78.944800
 30
0.0
 10
28.891500
 20
78.944800
 30
0.0
 10
16.816500
 20
78.944800
 30
0.0
  0
SPLINE
  5
291
100
AcDbEntity
  8
magstocklogo
 62
7
100
AcDbSpline
 70
8
 71
3
 72
8
 73
4
 74
0
 40
0
 40
0
 40
0
 40
0
 40
1
 40
1
 40
1
 40
1
 10
16.816500
 20
78.944800
 30
0.0
 10
14.899500
 20
78.944800
 30
0.0
 10
14.165500
 20
79.688800
 30
0.0
 10
14.165500
 20
81.642800
 30
0.0
  0
SPLINE
  5
292
100
AcDbEntity
  8
magstocklogo
 62
7
100
AcDbSpline
 70
8
 71
3
 72
8
 73
4
 74
0
 40
0
 40
0
 40
0
 40
0
 40
1
 40
1
 40
1
 40
1
 10
14.165500
 20
81.642800
 30
0.0
 10
14.163500
 20
96.195800
 30
0.0
 10
14.161500
 20
110.749800
 30
0.0
 10
14.160500
 20
125.303800
 30
0.0
  0
SPLINE
  5
293
100
AcDbEntity
  8
magstocklogo
 62
7
100
AcDbSpline
 70
8
 71
3
 72
8
 73
4
 74
0
 40
0
 40
0
 40
0
 40
0
 40
1
 40
1
 40
1
 40
1
 10
14.160500
 20
125.303800
 30
0.0
 10
14.160500
 20
127.670800
 30
0.0
 10
14.877500
 20
128.399800
 30
0.0
 10
17.213500
 20
128.399800
 30
0.0
  0
SPLINE
  5
294
100
AcDbEntity
  8
magstocklogo
 62
7
100
AcDbSpline
 70
8
 71
3
 72
8
 73
4
 74
0
 40
0
 40
0
 40
0
 40
0
 40
1
 40
1
 40
1
 40
1
 10
17.213500
 20
128.399800
 30
0.0
 10
41.083500
 20
128.400800
 30
0.0
 10
64.954500
 20
128.400800
 30
0.0
 10
88.823500
 20
128.399800
 30
0.0
  0
SPLINE
  5
295
100
AcDbEntity
  8
magstocklogo
 62
7
100
AcDbSpline
 70
8
 71
3
 72
8
 73
4
 74
0
 40
0
 40
0
 40
0
 40
0
 40
1
 40
1
 40
1
 40
1
 10
88.823500
 20
128.399800
 30
0.0
 10
90.541500
 20
128.399800
 30
0.0
 10
91.197500
 20
127.751800
 30
0.0
 10
91.198500
 20
126.015800
 30
0.0
  0
SPLINE
  5
296
100
AcDbEntity
  8
magstocklogo
 62
7
100
AcDbSpline
 70
8
 71
3
 72
8
 73
4
 74
0
 40
0
 40
0
 40
0
 40
0
 40
1
 40
1
 40
1
 40
1
 10
91.198500
 20
126.015800
 30
0.0
 10
91.202500
 20
110.982800
 30
0.0
 10
91.202500
 20
95.948800
 30
0.0
 10
91.200500
 20
80.914800
 30
0.0
  0
SPLINE
  5
297
100
AcDbEntity
  8
magstocklogo
 62
7
100
AcDbSpline
 70
8
 71
3
 72
8
 73
4
 74
0
 40
0
 40
0
 40
0
 40
0
 40
1
 40
1
 40
1
 40
1
 10
91.200500
 20
80.914800
 30
0.0
 10
91.199500
 20
79.462800
 30
0.0
 10
90.668500
 20
78.963800
 30
0.0
 10
89.145500
 20
78.962800
 30
0.0
  0
SPLINE
  5
298
100
AcDbEntity
  8
magstocklogo
 62
7
100
AcDbSpline
 70
8
 71
3
 72
8
 73
4
 74
0
 40
0
 40
0
 40
0
 40
0
 40
1
 40
1
 40
1
 40
1
 10
89.145500
 20
78.962800
 30
0.0
 10
77.111500
 20
78.961800
 30
0.0
 10
65.076500
 20
78.962800
 30
0.0
 10
53.041500
 20
78.962800
 30
0.0
  0
LWPOLYLINE
  5
299
100
AcDbEntity
  8
magstocklogo
 62
7
100
AcDbPolyline
 90
3
 70
1
 10
330.496100
 20
28.585200
 30
0.0
 10
330.496100
 20
28.573200
 30
0.0
 10
330.496100
 20
28.573200
 30
0.0
  0
SPLINE
  5
29a
100
AcDbEntity
  8
magstocklogo
 62
7
100
AcDbSpline
 70
8
 71
3
 72
8
 73
4
 74
0
 40
0
 40
0
 40
0
 40
0
 40
1
 40
1
 40
1
 40
1
 10
36.240200
 20
39.872100
 30
0.0
 10
36.240200
 20
38.473100
 30
0.0
 10
36.209200
 20
37.072100
 30
0.0
 10
36.254200
 20
35.675100
 30
0.0
  0
SPLINE
  5
29b
100
AcDbEntity
  8
magstocklogo
 62
7
100
AcDbSpline
 70
8
 71
3
 72
8
 73
4
 74
0
 40
0
 40
0
 40
0
 40
0
 40
1
 40
1
 40
1
 40
1
 10
36.254200
 20
35.675100
 30
0.0
 10
36.275200
 20
35.034100
 30
0.0
 10
36.057200
 20
34.864100
 30
0.0
 10
35.439200
 20
34.869100
 30
0.0
  0
SPLINE
  5
29c
100
AcDbEntity
  8
magstocklogo
 62
7
100
AcDbSpline
 70
8
 71
3
 72
8
 73
4
 74
0
 40
0
 40
0
 40
0
 40
0
 40
1
 40
1
 40
1
 40
1
 10
35.439200
 20
34.869100
 30
0.0
 10
33.561200
 20
34.886100
 30
0.0
 10
31.680200
 20
34.788100
 30
0.0
 10
29.804200
 20
34.844100
 30
0.0
  0
SPLINE
  5
29d
100
AcDbEntity
  8
magstocklogo
 62
7
100
AcDbSpline
 70
8
 71
3
 72
8
 73
4
 74
0
 40
0
 40
0
 40
0
 40
0
 40
1
 40
1
 40
1
 40
1
 10
29.804200
 20
34.844100
 30
0.0
 10
28.930200
 20
34.870100
 30
0.0
 10
28.757200
 20
34.587100
 30
0.0
 10
28.780200
 20
33.773100
 30
0.0
  0
SPLINE
  5
29e
100
AcDbEntity
  8
magstocklogo
 62
7
100
AcDbSpline
 70
8
 71
3
 72
8
 73
4
 74
0
 40
0
 40
0
 40
0
 40
0
 40
1
 40
1
 40
1
 40
1
 10
28.780200
 20
33.773100
 30
0.0
 10
28.840200
 20
31.657100
 30
0.0
 10
28.775200
 20
29.536100
 30
0.0
 10
28.815200
 20
27.418100
 30
0.0
  0
SPLINE
  5
29f
100
AcDbEntity
  8
magstocklogo
 62
7
100
AcDbSpline
 70
8
 71
3
 72
8
 73
4
 74
0
 40
0
 40
0
 40
0
 40
0
 40
1
 40
1
 40
1
 40
1
 10
28.815200
 20
27.418100
 30
0.0
 10
28.827200
 20
26.783100
 30
0.0
 10
28.636200
 20
26.619100
 30
0.0
 10
28.014200
 20
26.626100
 30
0.0
  0
SPLINE
  5
2a0
100
AcDbEntity
  8
magstocklogo
 62
7
100
AcDbSpline
 70
8
 71
3
 72
8
 73
4
 74
0
 40
0
 40
0
 40
0
 40
0
 40
1
 40
1
 40
1
 40
1
 10
28.014200
 20
26.626100
 30
0.0
 10
25.177200
 20
26.658100
 30
0.0
 10
22.338200
 20
26.659100
 30
0.0
 10
19.500200
 20
26.625100
 30
0.0
  0
SPLINE
  5
2a1
100
AcDbEntity
  8
magstocklogo
 62
7
100
AcDbSpline
 70
8
 71
3
 72
8
 73
4
 74
0
 40
0
 40
0
 40
0
 40
0
 40
1
 40
1
 40
1
 40
1
 10
19.500200
 20
26.625100
 30
0.0
 10
18.868200
 20
26.617100
 30
0.0
 10
18.695200
 20
26.798100
 30
0.0
 10
18.705200
 20
27.424100
 30
0.0
  0
SPLINE
  5
2a2
100
AcDbEntity
  8
magstocklogo
 62
7
100
AcDbSpline
 70
8
 71
3
 72
8
 73
4
 74
0
 40
0
 40
0
 40
0
 40
0
 40
1
 40
1
 40
1
 40
1
 10
18.705200
 20
27.424100
 30
0.0
 10
18.743200
 20
29.582100
 30
0.0
 10
18.682200
 20
31.741100
 30
0.0
 10
18.740200
 20
33.898100
 30
0.0
  0
SPLINE
  5
2a3
100
AcDbEntity
  8
magstocklogo
 62
7
100
AcDbSpline
 70
8
 71
3
 72
8
 73
4
 74
0
 40
0
 40
0
 40
0
 40
0
 40
1
 40
1
 40
1
 40
1
 10
18.740200
 20
33.898100
 30
0.0
 10
18.761200
 20
34.666100
 30
0.0
 10
18.524200
 20
34.831100
 30
0.0
 10
17.801200
 20
34.806100
 30
0.0
  0
SPLINE
  5
2a4
100
AcDbEntity
  8
magstocklogo
 62
7
100
AcDbSpline
 70
8
 71
3
 72
8
 73
4
 74
0
 40
0
 40
0
 40
0
 40
0
 40
1
 40
1
 40
1
 40
1
 10
17.801200
 20
34.806100
 30
0.0
 10
15.924200
 20
34.737100
 30
0.0
 10
14.043200
 20
34.781100
 30
0.0
 10
12.166200
 20
34.723100
 30
0.0
  0
SPLINE
  5
2a5
100
AcDbEntity
  8
magstocklogo
 62
7
100
AcDbSpline
 70
8
 71
3
 72
8
 73
4
 74
0
 40
0
 40
0
 40
0
 40
0
 40
1
 40
1
 40
1
 40
1
 10
12.166200
 20
34.723100
 30
0.0
 10
11.515200
 20
34.702100
 30
0.0
 10
11.263200
 20
34.831100
 30
0.0
 10
11.273200
 20
35.553100
 30
0.0
  0
SPLINE
  5
2a6
100
AcDbEntity
  8
magstocklogo
 62
7
100
AcDbSpline
 70
8
 71
3
 72
8
 73
4
 74
0
 40
0
 40
0
 40
0
 40
0
 40
1
 40
1
 40
1
 40
1
 10
11.273200
 20
35.553100
 30
0.0
 10
11.310200
 20
38.351100
 30
0.0
 10
11.303200
 20
41.149100
 30
0.0
 10
11.258200
 20
43.946100
 30
0.0
  0
SPLINE
  5
2a7
100
AcDbEntity
  8
magstocklogo
 62
7
100
AcDbSpline
 70
8
 71
3
 72
8
 73
4
 74
0
 40
0
 40
0
 40
0
 40
0
 40
1
 40
1
 40
1
 40
1
 10
11.258200
 20
43.946100
 30
0.0
 10
11.246200
 20
44.642100
 30
0.0
 10
11.468200
 20
44.824100
 30
0.0
 10
12.133200
 20
44.817100
 30
0.0
  0
SPLINE
  5
2a8
100
AcDbEntity
  8
magstocklogo
 62
7
100
AcDbSpline
 70
8
 71
3
 72
8
 73
4
 74
0
 40
0
 40
0
 40
0
 40
0
 40
1
 40
1
 40
1
 40
1
 10
12.133200
 20
44.817100
 30
0.0
 10
14.051200
 20
44.798100
 30
0.0
 10
15.970200
 20
44.875100
 30
0.0
 10
17.888200
 20
44.845100
 30
0.0
  0
SPLINE
  5
2a9
100
AcDbEntity
  8
magstocklogo
 62
7
100
AcDbSpline
 70
8
 71
3
 72
8
 73
4
 74
0
 40
0
 40
0
 40
0
 40
0
 40
1
 40
1
 40
1
 40
1
 10
17.888200
 20
44.845100
 30
0.0
 10
18.584200
 20
44.834100
 30
0.0
 10
18.751200
 20
45.059100
 30
0.0
 10
18.735200
 20
45.720100
 30
0.0
  0
SPLINE
  5
2aa
100
AcDbEntity
  8
magstocklogo
 62
7
100
AcDbSpline
 70
8
 71
3
 72
8
 73
4
 74
0
 40
0
 40
0
 40
0
 40
0
 40
1
 40
1
 40
1
 40
1
 10
18.735200
 20
45.720100
 30
0.0
 10
18.691200
 20
47.437100
 30
0.0
 10
18.743200
 20
49.158100
 30
0.0
 10
18.707200
 20
50.876100
 30
0.0
  0
SPLINE
  5
2ab
100
AcDbEntity
  8
magstocklogo
 62
7
100
AcDbSpline
 70
8
 71
3
 72
8
 73
4
 74
0
 40
0
 40
0
 40
0
 40
0
 40
1
 40
1
 40
1
 40
1
 10
18.707200
 20
50.876100
 30
0.0
 10
18.695200
 20
51.451100
 30
0.0
 10
18.862200
 20
51.618100
 30
0.0
 10
19.440200
 20
51.612100
 30
0.0
  0
SPLINE
  5
2ac
100
AcDbEntity
  8
magstocklogo
 62
7
100
AcDbSpline
 70
8
 71
3
 72
8
 73
4
 74
0
 40
0
 40
0
 40
0
 40
0
 40
1
 40
1
 40
1
 40
1
 10
19.440200
 20
51.612100
 30
0.0
 10
22.318200
 20
51.584100
 30
0.0
 10
25.197200
 20
51.585100
 30
0.0
 10
28.075200
 20
51.612100
 30
0.0
  0
SPLINE
  5
2ad
100
AcDbEntity
  8
magstocklogo
 62
7
100
AcDbSpline
 70
8
 71
3
 72
8
 73
4
 74
0
 40
0
 40
0
 40
0
 40
0
 40
1
 40
1
 40
1
 40
1
 10
28.075200
 20
51.612100
 30
0.0
 10
28.646200
 20
51.618100
 30
0.0
 10
28.825200
 20
51.463100
 30
0.0
 10
28.813200
 20
50.881100
 30
0.0
  0
SPLINE
  5
2ae
100
AcDbEntity
  8
magstocklogo
 62
7
100
AcDbSpline
 70
8
 71
3
 72
8
 73
4
 74
0
 40
0
 40
0
 40
0
 40
0
 40
1
 40
1
 40
1
 40
1
 10
28.813200
 20
50.881100
 30
0.0
 10
28.776200
 20
49.163100
 30
0.0
 10
28.833200
 20
47.442100
 30
0.0
 10
28.783200
 20
45.725100
 30
0.0
  0
SPLINE
  5
2af
100
AcDbEntity
  8
magstocklogo
 62
7
100
AcDbSpline
 70
8
 71
3
 72
8
 73
4
 74
0
 40
0
 40
0
 40
0
 40
0
 40
1
 40
1
 40
1
 40
1
 10
28.783200
 20
45.725100
 30
0.0
 10
28.763200
 20
45.029100
 30
0.0
 10
28.991200
 20
44.856100
 30
0.0
 10
29.656200
 20
44.878100
 30
0.0
  0
SPLINE
  5
2b0
100
AcDbEntity
  8
magstocklogo
 62
7
100
AcDbSpline
 70
8
 71
3
 72
8
 73
4
 74
0
 40
0
 40
0
 40
0
 40
0
 40
1
 40
1
 40
1
 40
1
 10
29.656200
 20
44.878100
 30
0.0
 10
31.493200
 20
44.936100
 30
0.0
 10
33.335200
 20
44.885100
 30
0.0
 10
35.171200
 20
44.964100
 30
0.0
  0
SPLINE
  5
2b1
100
AcDbEntity
  8
magstocklogo
 62
7
100
AcDbSpline
 70
8
 71
3
 72
8
 73
4
 74
0
 40
0
 40
0
 40
0
 40
0
 40
1
 40
1
 40
1
 40
1
 10
35.171200
 20
44.964100
 30
0.0
 10
35.981200
 20
44.998100
 30
0.0
 10
36.300200
 20
44.829100
 30
0.0
 10
36.250200
 20
43.948100
 30
0.0
  0
SPLINE
  5
2b2
100
AcDbEntity
  8
magstocklogo
 62
7
100
AcDbSpline
 70
8
 71
3
 72
8
 73
4
 74
0
 40
0
 40
0
 40
0
 40
0
 40
1
 40
1
 40
1
 40
1
 10
36.250200
 20
43.948100
 30
0.0
 10
36.173200
 20
42.593100
 30
0.0
 10
36.230200
 20
41.231100
 30
0.0
 10
36.230200
 20
39.872100
 30
0.0
  0
LWPOLYLINE
  5
2b3
100
AcDbEntity
  8
magstocklogo
 62
7
100
AcDbPolyline
 90
3
 70
1
 10
53.041500
 20
78.962800
 30
0.0
 10
53.041500
 20
78.944800
 30
0.0
 10
53.041500
 20
78.944800
 30
0.0
  0
SPLINE
  5
2b4
100
AcDbEntity
  8
magstocklogo
 62
7
100
AcDbSpline
 70
8
 71
3
 72
8
 73
4
 74
0
 40
0
 40
0
 40
0
 40
0
 40
1
 40
1
 40
1
 40
1
 10
82.812000
 20
62.425800
 30
0.0
 10
85.868000
 20
62.421800
 30
0.0
 10
88.277000
 20
60.002800
 30
0.0
 10
88.256000
 20
56.957800
 30
0.0
  0
SPLINE
  5
2b5
100
AcDbEntity
  8
magstocklogo
 62
7
100
AcDbSpline
 70
8
 71
3
 72
8
 73
4
 74
0
 40
0
 40
0
 40
0
 40
0
 40
1
 40
1
 40
1
 40
1
 10
88.256000
 20
56.957800
 30
0.0
 10
88.235000
 20
53.922800
 30
0.0
 10
85.806000
 20
51.557800
 30
0.0
 10
82.728000
 20
51.573800
 30
0.0
  0
SPLINE
  5
2b6
100
AcDbEntity
  8
magstocklogo
 62
7
100
AcDbSpline
 70
8
 71
3
 72
8
 73
4
 74
0
 40
0
 40
0
 40
0
 40
0
 40
1
 40
1
 40
1
 40
1
 10
82.728000
 20
51.573800
 30
0.0
 10
79.741000
 20
51.590800
 30
0.0
 10
77.352000
 20
53.990800
 30
0.0
 10
77.344000
 20
56.982800
 30
0.0
  0
SPLINE
  5
2b7
100
AcDbEntity
  8
magstocklogo
 62
7
100
AcDbSpline
 70
8
 71
3
 72
8
 73
4
 74
0
 40
0
 40
0
 40
0
 40
0
 40
1
 40
1
 40
1
 40
1
 10
77.344000
 20
56.982800
 30
0.0
 10
77.336000
 20
60.024800
 30
0.0
 10
79.751000
 20
62.428800
 30
0.0
 10
82.812000
 20
62.425800
 30
0.0
  0
SPLINE
  5
2b8
100
AcDbEntity
  8
magstocklogo
 62
7
100
AcDbSpline
 70
8
 71
3
 72
8
 73
4
 74
0
 40
0
 40
0
 40
0
 40
0
 40
1
 40
1
 40
1
 40
1
 10
72.004400
 20
21.334000
 30
0.0
 10
68.944400
 20
21.333000
 30
0.0
 10
66.531400
 20
23.742000
 30
0.0
 10
66.544400
 20
26.786000
 30
0.0
  0
SPLINE
  5
2b9
100
AcDbEntity
  8
magstocklogo
 62
7
100
AcDbSpline
 70
8
 71
3
 72
8
 73
4
 74
0
 40
0
 40
0
 40
0
 40
0
 40
1
 40
1
 40
1
 40
1
 10
66.544400
 20
26.786000
 30
0.0
 10
66.557400
 20
29.821000
 30
0.0
 10
68.984400
 20
32.200000
 30
0.0
 10
72.055400
 20
32.186000
 30
0.0
  0
SPLINE
  5
2ba
100
AcDbEntity
  8
magstocklogo
 62
7
100
AcDbSpline
 70
8
 71
3
 72
8
 73
4
 74
0
 40
0
 40
0
 40
0
 40
0
 40
1
 40
1
 40
1
 40
1
 10
72.055400
 20
32.186000
 30
0.0
 10
75.049400
 20
32.172000
 30
0.0
 10
77.438400
 20
29.786000
 30
0.0
 10
77.455400
 20
26.795000
 30
0.0
  0
SPLINE
  5
2bb
100
AcDbEntity
  8
magstocklogo
 62
7
100
AcDbSpline
 70
8
 71
3
 72
8
 73
4
 74
0
 40
0
 40
0
 40
0
 40
0
 40
1
 40
1
 40
1
 40
1
 10
77.455400
 20
26.795000
 30
0.0
 10
77.473400
 20
23.751000
 30
0.0
 10
75.062400
 20
21.335000
 30
0.0
 10
72.004400
 20
21.334000
 30
0.0
  0
SPLINE
  5
2bc
100
AcDbEntity
  8
magstocklogo
 62
7
100
AcDbSpline
 70
8
 71
3
 72
8
 73
4
 74
0
 40
0
 40
0
 40
0
 40
0
 40
1
 40
1
 40
1
 40
1
 10
97.616200
 20
40.022500
 30
0.0
 10
97.585200
 20
36.992500
 30
0.0
 10
95.074200
 20
34.560500
 30
0.0
 10
92.043200
 20
34.624500
 30
0.0
  0
SPLINE
  5
2bd
100
AcDbEntity
  8
magstocklogo
 62
7
100
AcDbSpline
 70
8
 71
3
 72
8
 73
4
 74
0
 40
0
 40
0
 40
0
 40
0
 40
1
 40
1
 40
1
 40
1
 10
92.043200
 20
34.624500
 30
0.0
 10
89.061200
 20
34.687500
 30
0.0
 10
86.673200
 20
37.152500
 30
0.0
 10
86.704200
 20
40.136500
 30
0.0
  0
SPLINE
  5
2be
100
AcDbEntity
  8
magstocklogo
 62
7
100
AcDbSpline
 70
8
 71
3
 72
8
 73
4
 74
0
 40
0
 40
0
 40
0
 40
0
 40
1
 40
1
 40
1
 40
1
 10
86.704200
 20
40.136500
 30
0.0
 10
86.735200
 20
43.168500
 30
0.0
 10
89.245200
 20
45.598500
 30
0.0
 10
92.277200
 20
45.535500
 30
0.0
  0
SPLINE
  5
2bf
100
AcDbEntity
  8
magstocklogo
 62
7
100
AcDbSpline
 70
8
 71
3
 72
8
 73
4
 74
0
 40
0
 40
0
 40
0
 40
0
 40
1
 40
1
 40
1
 40
1
 10
92.277200
 20
45.535500
 30
0.0
 10
95.259200
 20
45.472500
 30
0.0
 10
97.647200
 20
43.006500
 30
0.0
 10
97.616200
 20
40.022500
 30
0.0
  0
SPLINE
  5
2c0
100
AcDbEntity
  8
magstocklogo
 62
7
100
AcDbSpline
 70
8
 71
3
 72
8
 73
4
 74
0
 40
0
 40
0
 40
0
 40
0
 40
1
 40
1
 40
1
 40
1
 10
59.734400
 20
42.573200
 30
0.0
 10
59.727400
 20
45.669200
 30
0.0
 10
62.073400
 20
48.025200
 30
0.0
 10
65.163400
 20
48.025200
 30
0.0
  0
SPLINE
  5
2c1
100
AcDbEntity
  8
magstocklogo
 62
7
100
AcDbSpline
 70
8
 71
3
 72
8
 73
4
 74
0
 40
0
 40
0
 40
0
 40
0
 40
1
 40
1
 40
1
 40
1
 10
65.163400
 20
48.025200
 30
0.0
 10
68.250400
 20
48.025200
 30
0.0
 10
70.593400
 20
45.666200
 30
0.0
 10
70.586400
 20
42.566200
 30
0.0
  0
SPLINE
  5
2c2
100
AcDbEntity
  8
magstocklogo
 62
7
100
AcDbSpline
 70
8
 71
3
 72
8
 73
4
 74
0
 40
0
 40
0
 40
0
 40
0
 40
1
 40
1
 40
1
 40
1
 10
70.586400
 20
42.566200
 30
0.0
 10
70.580400
 20
39.538200
 30
0.0
 10
68.237400
 20
37.186200
 30
0.0
 10
65.216400
 20
37.174200
 30
0.0
  0
SPLINE
  5
2c3
100
AcDbEntity
  8
magstocklogo
 62
7
100
AcDbSpline
 70
8
 71
3
 72
8
 73
4
 74
0
 40
0
 40
0
 40
0
 40
0
 40
1
 40
1
 40
1
 40
1
 10
65.216400
 20
37.174200
 30
0.0
 10
62.104400
 20
37.161200
 30
0.0
 10
59.741400
 20
39.487200
 30
0.0
 10
59.734400
 20
42.573200
 30
0.0
  0
SPLINE
  5
2c4
100
AcDbEntity
  8
magstocklogo
 62
7
100
AcDbSpline
 70
8
 71
3
 72
8
 73
4
 74
0
 40
0
 40
0
 40
0
 40
0
 40
1
 40
1
 40
1
 40
1
 10
379.462900
 20
22.824200
 30
0.0
 10
382.218900
 20
22.824200
 30
0.0
 10
384.974900
 20
22.798200
 30
0.0
 10
387.728900
 20
22.843200
 30
0.0
  0
SPLINE
  5
2c5
100
AcDbEntity
  8
magstocklogo
 62
7
100
AcDbSpline
 70
8
 71
3
 72
8
 73
4
 74
0
 40
0
 40
0
 40
0
 40
0
 40
1
 40
1
 40
1
 40
1
 10
387.728900
 20
22.843200
 30
0.0
 10
388.431900
 20
22.854200
 30
0.0
 10
388.577900
 20
22.634200
 30
0.0
 10
388.574900
 20
21.977200
 30
0.0
  0
SPLINE
  5
2c6
100
AcDbEntity
  8
magstocklogo
 62
7
100
AcDbSpline
 70
8
 71
3
 72
8
 73
4
 74
0
 40
0
 40
0
 40
0
 40
0
 40
1
 40
1
 40
1
 40
1
 10
388.574900
 20
21.977200
 30
0.0
 10
388.551900
 20
18.101200
 30
0.0
 10
388.550900
 20
14.225200
 30
0.0
 10
388.595900
 20
10.350200
 30
0.0
  0
SPLINE
  5
2c7
100
AcDbEntity
  8
magstocklogo
 62
7
100
AcDbSpline
 70
8
 71
3
 72
8
 73
4
 74
0
 40
0
 40
0
 40
0
 40
0
 40
1
 40
1
 40
1
 40
1
 10
388.595900
 20
10.350200
 30
0.0
 10
388.603900
 20
9.667200
 30
0.0
 10
388.343900
 20
9.431200
 30
0.0
 10
387.747900
 20
9.388200
 30
0.0
  0
SPLINE
  5
2c8
100
AcDbEntity
  8
magstocklogo
 62
7
100
AcDbSpline
 70
8
 71
3
 72
8
 73
4
 74
0
 40
0
 40
0
 40
0
 40
0
 40
1
 40
1
 40
1
 40
1
 10
387.747900
 20
9.388200
 30
0.0
 10
387.509900
 20
9.372200
 30
0.0
 10
387.270900
 20
9.361200
 30
0.0
 10
387.030900
 20
9.361200
 30
0.0
  0
SPLINE
  5
2c9
100
AcDbEntity
  8
magstocklogo
 62
7
100
AcDbSpline
 70
8
 71
3
 72
8
 73
4
 74
0
 40
0
 40
0
 40
0
 40
0
 40
1
 40
1
 40
1
 40
1
 10
387.030900
 20
9.361200
 30
0.0
 10
381.717900
 20
9.359200
 30
0.0
 10
376.402900
 20
9.377200
 30
0.0
 10
371.089900
 20
9.341200
 30
0.0
  0
SPLINE
  5
2ca
100
AcDbEntity
  8
magstocklogo
 62
7
100
AcDbSpline
 70
8
 71
3
 72
8
 73
4
 74
0
 40
0
 40
0
 40
0
 40
0
 40
1
 40
1
 40
1
 40
1
 10
371.089900
 20
9.341200
 30
0.0
 10
370.302900
 20
9.336200
 30
0.0
 10
370.091900
 20
9.547200
 30
0.0
 10
370.100900
 20
10.330200
 30
0.0
  0
SPLINE
  5
2cb
100
AcDbEntity
  8
magstocklogo
 62
7
100
AcDbSpline
 70
8
 71
3
 72
8
 73
4
 74
0
 40
0
 40
0
 40
0
 40
0
 40
1
 40
1
 40
1
 40
1
 10
370.100900
 20
10.330200
 30
0.0
 10
370.140900
 20
14.163200
 30
0.0
 10
370.149900
 20
17.998200
 30
0.0
 10
370.095900
 20
21.832200
 30
0.0
  0
SPLINE
  5
2cc
100
AcDbEntity
  8
magstocklogo
 62
7
100
AcDbSpline
 70
8
 71
3
 72
8
 73
4
 74
0
 40
0
 40
0
 40
0
 40
0
 40
1
 40
1
 40
1
 40
1
 10
370.095900
 20
21.832200
 30
0.0
 10
370.083900
 20
22.729200
 30
0.0
 10
370.412900
 20
22.857200
 30
0.0
 10
371.191900
 20
22.845200
 30
0.0
  0
SPLINE
  5
2cd
100
AcDbEntity
  8
magstocklogo
 62
7
100
AcDbSpline
 70
8
 71
3
 72
8
 73
4
 74
0
 40
0
 40
0
 40
0
 40
0
 40
1
 40
1
 40
1
 40
1
 10
371.191900
 20
22.845200
 30
0.0
 10
373.948900
 20
22.803200
 30
0.0
 10
376.705900
 20
22.829200
 30
0.0
 10
379.462900
 20
22.829200
 30
0.0
  0
LWPOLYLINE
  5
2ce
100
AcDbEntity
  8
magstocklogo
 62
7
100
AcDbPolyline
 90
3
 70
1
 10
36.230200
 20
39.872100
 30
0.0
 10
36.240200
 20
39.872100
 30
0.0
 10
36.240200
 20
39.872100
 30
0.0
  0
LWPOLYLINE
  5
2cf
100
AcDbEntity
  8
magstocklogo
 62
7
100
AcDbPolyline
 90
3
 70
1
 10
379.462900
 20
22.829200
 30
0.0
 10
379.462900
 20
22.824200
 30
0.0
 10
379.462900
 20
22.824200
 30
0.0
  0
SPLINE
  5
2d0
100
AcDbEntity
  8
magstocklogo
 62
7
100
AcDbSpline
 70
8
 71
3
 72
8
 73
4
 74
0
 40
0
 40
0
 40
0
 40
0
 40
1
 40
1
 40
1
 40
1
 10
181.055300
 20
14.602500
 30
0.0
 10
181.996300
 20
16.129500
 30
0.0
 10
182.858300
 20
17.527500
 30
0.0
 10
183.817300
 20
19.082500
 30
0.0
  0
SPLINE
  5
2d1
100
AcDbEntity
  8
magstocklogo
 62
7
100
AcDbSpline
 70
8
 71
3
 72
8
 73
4
 74
0
 40
0
 40
0
 40
0
 40
0
 40
1
 40
1
 40
1
 40
1
 10
183.817300
 20
19.082500
 30
0.0
 10
184.760300
 20
17.559500
 30
0.0
 10
185.638300
 20
16.141500
 30
0.0
 10
186.591300
 20
14.602500
 30
0.0
  0
SPLINE
  5
2d2
100
AcDbEntity
  8
magstocklogo
 62
7
100
AcDbSpline
 70
8
 71
3
 72
8
 73
4
 74
0
 40
0
 40
0
 40
0
 40
0
 40
1
 40
1
 40
1
 40
1
 10
52.321300
 20
84.000000
 30
0.0
 10
42.242300
 20
84.000000
 30
0.0
 10
32.164300
 20
84.000000
 30
0.0
 10
22.085300
 20
84.000000
 30
0.0
  0
SPLINE
  5
2d3
100
AcDbEntity
  8
magstocklogo
 62
7
100
AcDbSpline
 70
8
 71
3
 72
8
 73
4
 74
0
 40
0
 40
0
 40
0
 40
0
 40
1
 40
1
 40
1
 40
1
 10
22.085300
 20
84.000000
 30
0.0
 10
20.504300
 20
84.000000
 30
0.0
 10
20.160300
 20
84.349000
 30
0.0
 10
20.160300
 20
85.953000
 30
0.0
  0
LWPOLYLINE
  5
2d4
100
AcDbEntity
  8
magstocklogo
 62
7
100
AcDbPolyline
 90
2
 70
0
 10
186.591300
 20
14.602500
 30
0.0
 10
181.055300
 20
14.602500
 30
0.0
  0
SPLINE
  5
2d5
100
AcDbEntity
  8
magstocklogo
 62
7
100
AcDbSpline
 70
8
 71
3
 72
8
 73
4
 74
0
 40
0
 40
0
 40
0
 40
0
 40
1
 40
1
 40
1
 40
1
 10
20.160300
 20
121.948000
 30
0.0
 10
20.160300
 20
123.409000
 30
0.0
 10
20.824300
 20
124.078000
 30
0.0
 10
22.310300
 20
124.078000
 30
0.0
  0
SPLINE
  5
2d6
100
AcDbEntity
  8
magstocklogo
 62
7
100
AcDbSpline
 70
8
 71
3
 72
8
 73
4
 74
0
 40
0
 40
0
 40
0
 40
0
 40
1
 40
1
 40
1
 40
1
 10
22.310300
 20
124.078000
 30
0.0
 10
42.628300
 20
124.081000
 30
0.0
 10
62.945300
 20
124.081000
 30
0.0
 10
83.261300
 20
124.079000
 30
0.0
  0
SPLINE
  5
2d7
100
AcDbEntity
  8
magstocklogo
 62
7
100
AcDbSpline
 70
8
 71
3
 72
8
 73
4
 74
0
 40
0
 40
0
 40
0
 40
0
 40
1
 40
1
 40
1
 40
1
 10
83.261300
 20
124.079000
 30
0.0
 10
84.559300
 20
124.079000
 30
0.0
 10
84.959300
 20
123.644000
 30
0.0
 10
84.959300
 20
122.260000
 30
0.0
  0
SPLINE
  5
2d8
100
AcDbEntity
  8
magstocklogo
 62
7
100
AcDbSpline
 70
8
 71
3
 72
8
 73
4
 74
0
 40
0
 40
0
 40
0
 40
0
 40
1
 40
1
 40
1
 40
1
 10
84.959300
 20
122.260000
 30
0.0
 10
84.960300
 20
110.222000
 30
0.0
 10
84.960300
 20
98.184000
 30
0.0
 10
84.960300
 20
86.146000
 30
0.0
  0
SPLINE
  5
2d9
100
AcDbEntity
  8
magstocklogo
 62
7
100
AcDbSpline
 70
8
 71
3
 72
8
 73
4
 74
0
 40
0
 40
0
 40
0
 40
0
 40
1
 40
1
 40
1
 40
1
 10
84.960300
 20
86.146000
 30
0.0
 10
84.959300
 20
84.669000
 30
0.0
 10
84.329300
 20
84.030000
 30
0.0
 10
82.797300
 20
84.004000
 30
0.0
  0
SPLINE
  5
2da
100
AcDbEntity
  8
magstocklogo
 62
7
100
AcDbSpline
 70
8
 71
3
 72
8
 73
4
 74
0
 40
0
 40
0
 40
0
 40
0
 40
1
 40
1
 40
1
 40
1
 10
82.797300
 20
84.004000
 30
0.0
 10
81.437300
 20
83.982000
 30
0.0
 10
80.077300
 20
84.000000
 30
0.0
 10
78.717300
 20
84.000000
 30
0.0
  0
LWPOLYLINE
  5
2db
100
AcDbEntity
  8
magstocklogo
 62
7
100
AcDbPolyline
 90
2
 70
1
 10
20.160300
 20
85.953000
 30
0.0
 10
20.160300
 20
121.948000
 30
0.0
  0
LWPOLYLINE
  5
2dc
100
AcDbEntity
  8
magstocklogo
 62
7
100
AcDbPolyline
 90
3
 70
1
 10
78.717300
 20
84.000000
 30
0.0
 10
52.321300
 20
84.000000
 30
0.0
 10
52.321300
 20
84.000000
 30
0.0
  0
ENDSEC
  0
SECTION
  2
OBJECTS
  0
DICTIONARY
  5
C
330
0
100
AcDbDictionary
  3
ACAD_GROUP
350
D
  3
ACAD_MLINESTYLE
350
17
  0
DICTIONARY
  5
D
330
C
100
AcDbDictionary
  0
DICTIONARY
  5
1A
330
C
100
AcDbDictionary
  0
DICTIONARY
  5
17
330
C
100
AcDbDictionary
  3
STANDARD
350
18
  0
DICTIONARY
  5
19
330
C
100
AcDbDictionary
  0
ENDSEC
  0
EOF
