  0
SECTION
  2
HEADER
  9
$ACADVER
  1
AC1027
  9
$ACADMAINTVER
 70
     8
  9
$DWGCODEPAGE
  3
ANSI_1252
  9
$REQUIREDVERSIONS
160
                 0
  9
$INSBASE
 10
0.0
 20
0.0
 30
0.0
  9
$EXTMIN
 10
1.000000000000000E+20
 20
1.000000000000000E+20
 30
1.000000000000000E+20
  9
$EXTMAX
 10
-1.000000000000000E+20
 20
-1.000000000000000E+20
 30
-1.000000000000000E+20
  9
$LIMMIN
 10
0.0
 20
0.0
  9
$LIMMAX
 10
12.0
 20
9.0
  9
$ORTHOMODE
 70
     0
  9
$REGENMODE
 70
     1
  9
$FILLMODE
 70
     1
  9
$QTEXTMODE
 70
     0
  9
$MIRRTEXT
 70
     1
  9
$LTSCALE
 40
1.0
  9
$ATTMODE
 70
     1
  9
$TEXTSIZE
 40
2.5
  9
$TRACEWID
 40
0.05
  9
$TEXTSTYLE
  7
STANDARD
  9
$CLAYER
  8
5mm
  9
$CELTYPE
  6
BYBLOCK
  9
$CECOLOR
 62
   256
  9
$CELTSCALE
 40
1.0
  9
$DISPSILH
 70
     0
  9
$DIMSCALE
 40
1.0
  9
$DIMASZ
 40
0.18
  9
$DIMEXO
 40
0.0625
  9
$DIMDLI
 40
0.38
  9
$DIMRND
 40
0.0
  9
$DIMDLE
 40
0.0
  9
$DIMEXE
 40
0.18
  9
$DIMTP
 40
0.0
  9
$DIMTM
 40
0.0
  9
$DIMTXT
 40
0.18
  9
$DIMCEN
 40
0.09
  9
$DIMTSZ
 40
0.0
  9
$DIMTOL
 70
     0
  9
$DIMLIM
 70
     0
  9
$DIMTIH
 70
     1
  9
$DIMTOH
 70
     1
  9
$DIMSE1
 70
     0
  9
$DIMSE2
 70
     0
  9
$DIMTAD
 70
     0
  9
$DIMZIN
 70
     0
  9
$DIMBLK
  1

  9
$DIMASO
 70
     1
  9
$DIMSHO
 70
     1
  9
$DIMPOST
  1

  9
$DIMAPOST
  1

  9
$DIMALT
 70
     0
  9
$DIMALTD
 70
     2
  9
$DIMALTF
 40
25.4
  9
$DIMLFAC
 40
1.0
  9
$DIMTOFL
 70
     0
  9
$DIMTVP
 40
0.0
  9
$DIMTIX
 70
     0
  9
$DIMSOXD
 70
     0
  9
$DIMSAH
 70
     0
  9
$DIMBLK1
  1

  9
$DIMBLK2
  1

  9
$DIMSTYLE
  2
ISO-25
  9
$DIMCLRD
 70
     0
  9
$DIMCLRE
 70
     0
  9
$DIMCLRT
 70
     0
  9
$DIMTFAC
 40
1.0
  9
$DIMGAP
 40
0.09
  9
$DIMJUST
 70
     0
  9
$DIMSD1
 70
     0
  9
$DIMSD2
 70
     0
  9
$DIMTOLJ
 70
     1
  9
$DIMTZIN
 70
     0
  9
$DIMALTZ
 70
     0
  9
$DIMALTTZ
 70
     0
  9
$DIMUPT
 70
     0
  9
$DIMDEC
 70
     4
  9
$DIMTDEC
 70
     4
  9
$DIMALTU
 70
     2
  9
$DIMALTTD
 70
     2
  9
$DIMTXSTY
  7
STANDARD
  9
$DIMAUNIT
 70
     0
  9
$DIMADEC
 70
     0
  9
$DIMALTRND
 40
0.0
  9
$DIMAZIN
 70
     0
  9
$DIMDSEP
 70
    46
  9
$DIMATFIT
 70
     3
  9
$DIMFRAC
 70
     0
  9
$DIMLDRBLK
  1

  9
$DIMLUNIT
 70
     2
  9
$DIMLWD
 70
    -2
  9
$DIMLWE
 70
    -2
  9
$DIMTMOVE
 70
     2
  9
$DIMFXL
 40
1.0
  9
$DIMFXLON
 70
     0
  9
$DIMJOGANG
 40
0.7853981633974483
  9
$DIMTFILL
 70
     0
  9
$DIMTFILLCLR
 70
     0
  9
$DIMARCSYM
 70
     0
  9
$DIMLTYPE
  6

  9
$DIMLTEX1
  6

  9
$DIMLTEX2
  6

  9
$DIMTXTDIRECTION
 70
     0
  9
$LUNITS
 70
     2
  9
$LUPREC
 70
     4
  9
$SKETCHINC
 40
0.1
  9
$FILLETRAD
 40
0.5
  9
$AUNITS
 70
     0
  9
$AUPREC
 70
     0
  9
$MENU
  1
.
  9
$ELEVATION
 40
0.0
  9
$PELEVATION
 40
0.0
  9
$THICKNESS
 40
0.0
  9
$LIMCHECK
 70
     0
  9
$CHAMFERA
 40
0.0
  9
$CHAMFERB
 40
0.0
  9
$CHAMFERC
 40
0.0
  9
$CHAMFERD
 40
0.0
  9
$SKPOLY
 70
     0
  9
$TDCREATE
 40
0.0
  9
$TDUCREATE
 40
0.0
  9
$TDUPDATE
 40
2457550.960636574
  9
$TDUUPDATE
 40
2457551.168969907
  9
$TDINDWG
 40
0.0
  9
$TDUSRTIMER
 40
2457551.105462963
  9
$USRTIMER
 70
     1
  9
$ANGBASE
 50
0.0
  9
$ANGDIR
 70
     0
  9
$PDMODE
 70
     0
  9
$PDSIZE
 40
0.0
  9
$PLINEWID
 40
0.0
  9
$SPLFRAME
 70
     0
  9
$SPLINETYPE
 70
     6
  9
$SPLINESEGS
 70
     8
  9
$HANDSEED
  5
100F5
  9
$SURFTAB1
 70
     6
  9
$SURFTAB2
 70
     6
  9
$SURFTYPE
 70
     6
  9
$SURFU
 70
     6
  9
$SURFV
 70
     6
  9
$UCSBASE
  2

  9
$UCSNAME
  2

  9
$UCSORG
 10
0.0
 20
0.0
 30
0.0
  9
$UCSXDIR
 10
1.0
 20
0.0
 30
0.0
  9
$UCSYDIR
 10
0.0
 20
1.0
 30
0.0
  9
$UCSORTHOREF
  2

  9
$UCSORTHOVIEW
 70
     0
  9
$UCSORGTOP
 10
0.0
 20
0.0
 30
0.0
  9
$UCSORGBOTTOM
 10
0.0
 20
0.0
 30
0.0
  9
$UCSORGLEFT
 10
0.0
 20
0.0
 30
0.0
  9
$UCSORGRIGHT
 10
0.0
 20
0.0
 30
0.0
  9
$UCSORGFRONT
 10
0.0
 20
0.0
 30
0.0
  9
$UCSORGBACK
 10
0.0
 20
0.0
 30
0.0
  9
$PUCSBASE
  2

  9
$PUCSNAME
  2

  9
$PUCSORG
 10
0.0
 20
0.0
 30
0.0
  9
$PUCSXDIR
 10
1.0
 20
0.0
 30
0.0
  9
$PUCSYDIR
 10
0.0
 20
1.0
 30
0.0
  9
$PUCSORTHOREF
  2

  9
$PUCSORTHOVIEW
 70
     0
  9
$PUCSORGTOP
 10
0.0
 20
0.0
 30
0.0
  9
$PUCSORGBOTTOM
 10
0.0
 20
0.0
 30
0.0
  9
$PUCSORGLEFT
 10
0.0
 20
0.0
 30
0.0
  9
$PUCSORGRIGHT
 10
0.0
 20
0.0
 30
0.0
  9
$PUCSORGFRONT
 10
0.0
 20
0.0
 30
0.0
  9
$PUCSORGBACK
 10
0.0
 20
0.0
 30
0.0
  9
$USERI1
 70
     0
  9
$USERI2
 70
     0
  9
$USERI3
 70
     0
  9
$USERI4
 70
     0
  9
$USERI5
 70
     0
  9
$USERR1
 40
0.0
  9
$USERR2
 40
0.0
  9
$USERR3
 40
0.0
  9
$USERR4
 40
0.0
  9
$USERR5
 40
0.0
  9
$WORLDVIEW
 70
     1
  9
$SHADEDGE
 70
     3
  9
$SHADEDIF
 70
    70
  9
$TILEMODE
 70
     1
  9
$MAXACTVP
 70
    64
  9
$PINSBASE
 10
0.0
 20
0.0
 30
0.0
  9
$PLIMCHECK
 70
     0
  9
$PEXTMIN
 10
1.000000000000000E+20
 20
1.000000000000000E+20
 30
1.000000000000000E+20
  9
$PEXTMAX
 10
-1.000000000000000E+20
 20
-1.000000000000000E+20
 30
-1.000000000000000E+20
  9
$PLIMMIN
 10
0.0
 20
0.0
  9
$PLIMMAX
 10
0.0
 20
0.0
  9
$UNITMODE
 70
     0
  9
$VISRETAIN
 70
     1
  9
$PLINEGEN
 70
     0
  9
$PSLTSCALE
 70
     1
  9
$TREEDEPTH
 70
  3020
  9
$CMLSTYLE
  2

  9
$CMLJUST
 70
     0
  9
$CMLSCALE
 40
1.0
  9
$PROXYGRAPHICS
 70
     1
  9
$MEASUREMENT
 70
     1
  9
$CELWEIGHT
370
    -1
  9
$ENDCAPS
280
     0
  9
$JOINSTYLE
280
     0
  9
$LWDISPLAY
290
     0
  9
$INSUNITS
 70
     0
  9
$HYPERLINKBASE
  1

  9
$STYLESHEET
  1

  9
$XEDIT
290
     1
  9
$CEPSNTYPE
380
     0
  9
$PSTYLEMODE
290
     1
  9
$FINGERPRINTGUID
  2
{8D41F0C1-95A7-B073-DF35-3046F528BA58}
  9
$VERSIONGUID
  2
{FAEB1C32-E019-11D5-929B-00C0DF256EC4}
  9
$EXTNAMES
290
     1
  9
$PSVPSCALE
 40
0.0
  9
$OLESTARTUP
290
     0
  9
$SORTENTS
280
   127
  9
$INDEXCTL
280
     0
  9
$HIDETEXT
280
     1
  9
$XCLIPFRAME
280
     2
  9
$HALOGAP
280
     0
  9
$OBSCOLOR
 70
   257
  9
$OBSLTYPE
280
     0
  9
$INTERSECTIONDISPLAY
280
     0
  9
$INTERSECTIONCOLOR
 70
   257
  9
$DIMASSOC
280
     2
  9
$PROJECTNAME
  1

  9
$CAMERADISPLAY
290
     0
  9
$LENSLENGTH
 40
50.0
  9
$CAMERAHEIGHT
 40
0.0
  9
$STEPSPERSEC
 40
2.0
  9
$STEPSIZE
 40
6.0
  9
$3DDWFPREC
 40
2.0
  9
$PSOLWIDTH
 40
0.25
  9
$PSOLHEIGHT
 40
4.0
  9
$LOFTANG1
 40
1.570796326794897
  9
$LOFTANG2
 40
1.570796326794897
  9
$LOFTMAG1
 40
0.0
  9
$LOFTMAG2
 40
0.0
  9
$LOFTPARAM
 70
     7
  9
$LOFTNORMALS
280
     1
  9
$LATITUDE
 40
37.795
  9
$LONGITUDE
 40
-122.394
  9
$NORTHDIRECTION
 40
0.0
  9
$TIMEZONE
 70
 -8000
  9
$LIGHTGLYPHDISPLAY
280
     1
  9
$TILEMODELIGHTSYNCH
280
     1
  9
$SOLIDHIST
280
     0
  9
$SHOWHIST
280
     1
  9
$DWFFRAME
280
     2
  9
$DGNFRAME
280
     2
  9
$REALWORLDSCALE
290
     1
  9
$INTERFERECOLOR
 62
   256
  9
$CSHADOW
280
     0
  9
$SHADOWPLANELOCATION
 40
0.0
  0
ENDSEC
  0
SECTION
  2
CLASSES
  0
CLASS
  1
SCALE
  2
AcDbScale
  3
ObjectDBX Classes
 90
     1153
 91
        5
280
     0
281
     0
  0
CLASS
  1
VISUALSTYLE
  2
AcDbVisualStyle
  3
ObjectDBX Classes
 90
     4095
 91
        5
280
     0
281
     0
  0
CLASS
  1
MATERIAL
  2
AcDbMaterial
  3
ObjectDBX Classes
 90
     1153
 91
        5
280
     0
281
     0
  0
CLASS
  1
TABLESTYLE
  2
AcDbTableStyle
  3
ObjectDBX Classes
 90
     4095
 91
        5
280
     0
281
     0
  0
CLASS
  1
MLEADERSTYLE
  2
AcDbMLeaderStyle
  3
ACDB_MLEADERSTYLE_CLASS
 90
     4095
 91
        5
280
     0
281
     0
  0
CLASS
  1
SUN
  2
AcDbSun
  3
SCENEOE
 90
     1153
 91
        5
280
     0
281
     0
  0
CLASS
  1
RASTERVARIABLES
  2
AcDbRasterVariables
  3
ISM
 90
        0
 91
        5
280
     0
281
     0
  0
CLASS
  1
DICTIONARYVAR
  2
AcDbDictionaryVar
  3
ObjectDBX Classes
 90
        0
 91
        5
280
     0
281
     0
  0
CLASS
  1
CELLSTYLEMAP
  2
AcDbCellStyleMap
  3
ObjectDBX Classes
 90
     1152
 91
        5
280
     0
281
     0
  0
CLASS
  1
XRECORD
  2
AcDbXrecord
  3
ObjectDBX Classes
 90
        0
 91
        1
280
     0
281
     0
  0
CLASS
  1
LWPOLYLINE
  2
AcDbPolyline
  3
ObjectDBX Classes
 90
        0
 91
        1
280
     0
281
     1
  0
CLASS
  1
HATCH
  2
AcDbHatch
  3
ObjectDBX Classes
 90
        0
 91
        1
280
     0
281
     1
  0
ENDSEC
  0
SECTION
  2
TABLES
  0
TABLE
  2
VPORT
  5
8
330
0
100
AcDbSymbolTable
 70
     1
  0
VPORT
  5
2E
330
8
100
AcDbSymbolTableRecord
100
AcDbViewportTableRecord
  2
*ACTIVE
 70
     0
 10
0.0
 20
0.0
 11
1.0
 21
1.0
 12
477.4347603523066
 22
-1.657362670087025
 13
0.0
 23
0.0
 14
10.0
 24
10.0
 15
10.0
 25
10.0
 16
0.0
 26
0.0
 36
1.0
 17
0.0
 27
0.0
 37
0.0
 40
532.8124999999992
 41
2.112980769230769
 42
50.0
 43
0.0
 44
0.0
 50
0.0
 51
0.0
 71
    16
 72
   100
 73
     1
 74
     3
 75
     0
 76
     0
 77
     0
 78
     0
281
     0
 65
     1
110
0.0
120
0.0
130
0.0
111
1.0
121
0.0
131
0.0
112
0.0
122
1.0
132
0.0
 79
     0
146
0.0
348
10029
 60
     3
 61
     5
292
     1
282
     1
141
0.0
142
0.0
 63
   256
361
10046
  0
ENDTAB
  0
TABLE
  2
LTYPE
  5
5
330
0
100
AcDbSymbolTable
 70
     1
  0
LTYPE
  5
14
330
5
100
AcDbSymbolTableRecord
100
AcDbLinetypeTableRecord
  2
BYBLOCK
 70
     0
  3

 72
    65
 73
     0
 40
0.0
  0
LTYPE
  5
15
330
5
100
AcDbSymbolTableRecord
100
AcDbLinetypeTableRecord
  2
BYLAYER
 70
     0
  3
Solid line
 72
    65
 73
     0
 40
0.0
  0
LTYPE
  5
16
330
5
100
AcDbSymbolTableRecord
100
AcDbLinetypeTableRecord
  2
CONTINUOUS
 70
     0
  3
Solid line
 72
    65
 73
     0
 40
0.0
  0
ENDTAB
  0
TABLE
  2
LAYER
  5
2
102
{ACAD_XDICTIONARY
360
10048
102
}
330
0
100
AcDbSymbolTable
 70
     4
  0
LAYER
  5
50
330
2
100
AcDbSymbolTableRecord
100
AcDbLayerTableRecord
  2
0
 70
     4
 62
    -7
  6
CONTINUOUS
370
    -3
390
0
347
10040
348
0
  0
LAYER
  5
51
330
2
100
AcDbSymbolTableRecord
100
AcDbLayerTableRecord
  2
magstocklogo
 70
     4
 62
    -7
  6
CONTINUOUS
370
    -3
390
0
347
10040
348
0
  0
LAYER
  5
1004E
330
2
100
AcDbSymbolTableRecord
100
AcDbLayerTableRecord
  2
1mm
 70
     0
 62
    10
  6
CONTINUOUS
370
    -3
390
0
347
10040
348
0
1001
AcAecLayerStandard
1000

1000

  0
LAYER
  5
100E3
330
2
100
AcDbSymbolTableRecord
100
AcDbLayerTableRecord
  2
5mm
 70
     0
 62
     5
  6
CONTINUOUS
370
    -3
390
0
347
10040
348
0
1001
AcAecLayerStandard
1000

1000

  0
ENDTAB
  0
TABLE
  2
STYLE
  5
3
330
0
100
AcDbSymbolTable
 70
     1
  0
STYLE
  5
11
330
3
100
AcDbSymbolTableRecord
100
AcDbTextStyleTableRecord
  2
STANDARD
 70
     0
 40
0.0
 41
1.0
 50
0.0
 71
     0
 42
2.5
  3
txt
  4

  0
ENDTAB
  0
TABLE
  2
VIEW
  5
6
330
0
100
AcDbSymbolTable
 70
     0
  0
ENDTAB
  0
TABLE
  2
UCS
  5
7
330
0
100
AcDbSymbolTable
 70
     0
  0
ENDTAB
  0
TABLE
  2
APPID
  5
9
330
0
100
AcDbSymbolTable
 70
     2
  0
APPID
  5
12
330
9
100
AcDbSymbolTableRecord
100
AcDbRegAppTableRecord
  2
ACAD
 70
     0
  0
APPID
  5
1004F
330
9
100
AcDbSymbolTableRecord
100
AcDbRegAppTableRecord
  2
AcAecLayerStandard
 70
     0
  0
ENDTAB
  0
TABLE
  2
DIMSTYLE
  5
A
330
0
100
AcDbSymbolTable
 70
     1
100
AcDbDimStyleTable
  0
DIMSTYLE
105
27
330
A
100
AcDbSymbolTableRecord
100
AcDbDimStyleTableRecord
  2
ISO-25
 70
     0
 41
2.5
 42
0.625
 43
3.75
 44
1.25
 73
     0
 74
     0
 77
     1
 78
     8
140
2.5
141
2.5
143
0.03937007874016
147
0.625
171
     3
172
     1
178
     0
271
     2
272
     2
274
     3
283
     0
284
     8
340
11
  0
ENDTAB
  0
TABLE
  2
BLOCK_RECORD
  5
1
330
0
100
AcDbSymbolTable
 70
     0
  0
BLOCK_RECORD
  5
1F
330
1
100
AcDbSymbolTableRecord
100
AcDbBlockTableRecord
  2
*MODEL_SPACE
340
10022
 70
     0
280
     1
281
     0
  0
BLOCK_RECORD
  5
1B
330
1
100
AcDbSymbolTableRecord
100
AcDbBlockTableRecord
  2
*PAPER_SPACE
340
10023
 70
     0
280
     1
281
     0
  0
ENDTAB
  0
ENDSEC
  0
SECTION
  2
BLOCKS
  0
BLOCK
  5
20
330
1F
100
AcDbEntity
  8
0
100
AcDbBlockBegin
  2
*MODEL_SPACE
 70
     0
 10
0.0
 20
0.0
 30
0.0
  3
*MODEL_SPACE
  1
*MODEL_SPACE
  0
ENDBLK
  5
21
330
1F
100
AcDbEntity
  8
0
100
AcDbBlockEnd
  0
BLOCK
  5
1C
330
1B
100
AcDbEntity
 67
     1
  8
0
100
AcDbBlockBegin
  2
*PAPER_SPACE
 70
     0
 10
0.0
 20
0.0
 30
0.0
  3
*PAPER_SPACE
  1
*PAPER_SPACE
  0
ENDBLK
  5
1D
330
1B
100
AcDbEntity
 67
     1
  8
0
100
AcDbBlockEnd
  0
ENDSEC
  0
SECTION
  2
ENTITIES
  0
SPLINE
  5
100
330
1F
100
AcDbEntity
  8
magstocklogo
 62
     7
100
AcDbSpline
210
0.0
220
0.0
230
1.0
 70
     8
 71
     3
 72
     8
 73
     4
 74
     0
 42
0.000000001
 43
0.0000001
 40
0.0
 40
0.0
 40
0.0
 40
0.0
 40
1.0
 40
1.0
 40
1.0
 40
1.0
 10
640.8008
 20
60.4795
 30
0.0
 10
640.8008
 20
40.5595
 30
0.0
 10
640.7948
 20
20.6395
 30
0.0
 10
640.8238
 20
0.7195
 30
0.0
  0
SPLINE
  5
101
330
1F
100
AcDbEntity
  8
magstocklogo
 62
     7
100
AcDbSpline
210
0.0
220
0.0
230
1.0
 70
     8
 71
     3
 72
     8
 73
     4
 74
     0
 42
0.000000001
 43
0.0000001
 40
0.0
 40
0.0
 40
0.0
 40
0.0
 40
1.0
 40
1.0
 40
1.0
 40
1.0
 10
640.8238
 20
0.7195
 30
0.0
 10
640.8258
 20
-0.1015
 30
0.0
 10
640.6628
 20
-0.2625
 30
0.0
 10
639.8418
 20
-0.2625
 30
0.0
  0
SPLINE
  5
102
330
1F
100
AcDbEntity
  8
magstocklogo
 62
     7
100
AcDbSpline
210
0.0
220
0.0
230
1.0
 70
     8
 71
     3
 72
     8
 73
     4
 74
     0
 42
0.000000001
 43
0.0000001
 40
0.0
 40
0.0
 40
0.0
 40
0.0
 40
1.0
 40
1.0
 40
1.0
 40
1.0
 10
639.8418
 20
-0.2625
 30
0.0
 10
426.9608
 20
-0.2395
 30
0.0
 10
214.0808
 20
-0.2395
 30
0.0
 10
1.1998
 20
-0.2625
 30
0.0
  0
SPLINE
  5
103
330
1F
100
AcDbEntity
  8
magstocklogo
 62
     7
100
AcDbSpline
210
0.0
220
0.0
230
1.0
 70
     8
 71
     3
 72
     8
 73
     4
 74
     0
 42
0.000000001
 43
0.0000001
 40
0.0
 40
0.0
 40
0.0
 40
0.0
 40
1.0
 40
1.0
 40
1.0
 40
1.0
 10
1.1998
 20
-0.2625
 30
0.0
 10
0.3788
 20
-0.2625
 30
0.0
 10
0.1588
 20
-0.1085
 30
0.0
 10
0.2168
 20
0.7215
 30
0.0
  0
SPLINE
  5
104
330
1F
100
AcDbEntity
  8
magstocklogo
 62
     7
100
AcDbSpline
210
0.0
220
0.0
230
1.0
 70
     8
 71
     3
 72
     8
 73
     4
 74
     0
 42
0.000000001
 43
0.0000001
 40
0.0
 40
0.0
 40
0.0
 40
0.0
 40
1.0
 40
1.0
 40
1.0
 40
1.0
 10
0.2168
 20
0.7215
 30
0.0
 10
0.3048
 20
1.9955
 30
0.0
 10
0.2398
 20
3.2805
 30
0.0
 10
0.2398
 20
4.5595
 30
0.0
  0
SPLINE
  5
105
330
1F
100
AcDbEntity
  8
magstocklogo
 62
     7
100
AcDbSpline
210
0.0
220
0.0
230
1.0
 70
     8
 71
     3
 72
     8
 73
     4
 74
     0
 42
0.000000001
 43
0.0000001
 40
0.0
 40
0.0
 40
0.0
 40
0.0
 40
1.0
 40
1.0
 40
1.0
 40
1.0
 10
0.2398
 20
4.5595
 30
0.0
 10
0.4078
 20
4.6285
 30
0.0
 10
0.5398
 20
4.5855
 30
0.0
 10
0.6358
 20
4.4315
 30
0.0
  0
SPLINE
  5
106
330
1F
100
AcDbEntity
  8
magstocklogo
 62
     7
100
AcDbSpline
210
0.0
220
0.0
230
1.0
 70
     8
 71
     3
 72
     8
 73
     4
 74
     0
 42
0.000000001
 43
0.0000001
 40
0.0
 40
0.0
 40
0.0
 40
0.0
 40
1.0
 40
1.0
 40
1.0
 40
1.0
 10
0.6358
 20
4.4315
 30
0.0
 10
0.8088
 20
4.1555
 30
0.0
 10
0.8598
 20
3.8355
 30
0.0
 10
0.9578
 20
3.5325
 30
0.0
  0
SPLINE
  5
107
330
1F
100
AcDbEntity
  8
magstocklogo
 62
     7
100
AcDbSpline
210
0.0
220
0.0
230
1.0
 70
     8
 71
     3
 72
     8
 73
     4
 74
     0
 42
0.000000001
 43
0.0000001
 40
0.0
 40
0.0
 40
0.0
 40
0.0
 40
1.0
 40
1.0
 40
1.0
 40
1.0
 10
0.9578
 20
3.5325
 30
0.0
 10
1.5348
 20
1.7525
 30
0.0
 10
2.6648
 20
0.7225
 30
0.0
 10
4.6218
 20
0.6465
 30
0.0
  0
SPLINE
  5
108
330
1F
100
AcDbEntity
  8
magstocklogo
 62
     7
100
AcDbSpline
210
0.0
220
0.0
230
1.0
 70
     8
 71
     3
 72
     8
 73
     4
 74
     0
 42
0.000000001
 43
0.0000001
 40
0.0
 40
0.0
 40
0.0
 40
0.0
 40
1.0
 40
1.0
 40
1.0
 40
1.0
 10
4.6218
 20
0.6465
 30
0.0
 10
6.7368
 20
0.5635
 30
0.0
 10
8.8438
 20
0.3705
 30
0.0
 10
10.9668
 20
0.3715
 30
0.0
  0
SPLINE
  5
109
330
1F
100
AcDbEntity
  8
magstocklogo
 62
     7
100
AcDbSpline
210
0.0
220
0.0
230
1.0
 70
     8
 71
     3
 72
     8
 73
     4
 74
     0
 42
0.000000001
 43
0.0000001
 40
0.0
 40
0.0
 40
0.0
 40
0.0
 40
1.0
 40
1.0
 40
1.0
 40
1.0
 10
10.9668
 20
0.3715
 30
0.0
 10
38.9128
 20
0.3905
 30
0.0
 10
66.8598
 20
0.3815
 30
0.0
 10
94.8068
 20
0.3905
 30
0.0
  0
SPLINE
  5
10A
330
1F
100
AcDbEntity
  8
magstocklogo
 62
     7
100
AcDbSpline
210
0.0
220
0.0
230
1.0
 70
     8
 71
     3
 72
     8
 73
     4
 74
     0
 42
0.000000001
 43
0.0000001
 40
0.0
 40
0.0
 40
0.0
 40
0.0
 40
1.0
 40
1.0
 40
1.0
 40
1.0
 10
94.8068
 20
0.3905
 30
0.0
 10
96.4828
 20
0.3915
 30
0.0
 10
98.1628
 20
0.3465
 30
0.0
 10
99.8328
 20
0.6015
 30
0.0
  0
SPLINE
  5
10B
330
1F
100
AcDbEntity
  8
magstocklogo
 62
     7
100
AcDbSpline
210
0.0
220
0.0
230
1.0
 70
     8
 71
     3
 72
     8
 73
     4
 74
     0
 42
0.000000001
 43
0.0000001
 40
0.0
 40
0.0
 40
0.0
 40
0.0
 40
1.0
 40
1.0
 40
1.0
 40
1.0
 10
99.8328
 20
0.6015
 30
0.0
 10
101.4018
 20
0.8405
 30
0.0
 10
102.3278
 20
1.7015
 30
0.0
 10
102.6288
 20
3.2735
 30
0.0
  0
SPLINE
  5
10C
330
1F
100
AcDbEntity
  8
magstocklogo
 62
     7
100
AcDbSpline
210
0.0
220
0.0
230
1.0
 70
     8
 71
     3
 72
     8
 73
     4
 74
     0
 42
0.000000001
 43
0.0000001
 40
0.0
 40
0.0
 40
0.0
 40
0.0
 40
1.0
 40
1.0
 40
1.0
 40
1.0
 10
102.6288
 20
3.2735
 30
0.0
 10
102.7118
 20
3.7065
 30
0.0
 10
102.7988
 20
4.1425
 30
0.0
 10
102.7538
 20
4.5835
 30
0.0
  0
SPLINE
  5
10D
330
1F
100
AcDbEntity
  8
magstocklogo
 62
     7
100
AcDbSpline
210
0.0
220
0.0
230
1.0
 70
     8
 71
     3
 72
     8
 73
     4
 74
     0
 42
0.000000001
 43
0.0000001
 40
0.0
 40
0.0
 40
0.0
 40
0.0
 40
1.0
 40
1.0
 40
1.0
 40
1.0
 10
102.7538
 20
4.5835
 30
0.0
 10
102.3948
 20
8.0935
 30
0.0
 10
102.5878
 20
11.6145
 30
0.0
 10
102.5858
 20
15.1285
 30
0.0
  0
SPLINE
  5
10E
330
1F
100
AcDbEntity
  8
magstocklogo
 62
     7
100
AcDbSpline
210
0.0
220
0.0
230
1.0
 70
     8
 71
     3
 72
     8
 73
     4
 74
     0
 42
0.000000001
 43
0.0000001
 40
0.0
 40
0.0
 40
0.0
 40
0.0
 40
1.0
 40
1.0
 40
1.0
 40
1.0
 10
102.5858
 20
15.1285
 30
0.0
 10
102.5698
 20
55.0705
 30
0.0
 10
102.5758
 20
95.0105
 30
0.0
 10
102.5758
 20
134.9515
 30
0.0
  0
SPLINE
  5
10F
330
1F
100
AcDbEntity
  8
magstocklogo
 62
     7
100
AcDbSpline
210
0.0
220
0.0
230
1.0
 70
     8
 71
     3
 72
     8
 73
     4
 74
     0
 42
0.000000001
 43
0.0000001
 40
0.0
 40
0.0
 40
0.0
 40
0.0
 40
1.0
 40
1.0
 40
1.0
 40
1.0
 10
102.5758
 20
134.9515
 30
0.0
 10
102.5758
 20
135.2715
 30
0.0
 10
102.5608
 20
135.5925
 30
0.0
 10
102.5778
 20
135.9115
 30
0.0
  0
SPLINE
  5
110
330
1F
100
AcDbEntity
  8
magstocklogo
 62
     7
100
AcDbSpline
210
0.0
220
0.0
230
1.0
 70
     8
 71
     3
 72
     8
 73
     4
 74
     0
 42
0.000000001
 43
0.0000001
 40
0.0
 40
0.0
 40
0.0
 40
0.0
 40
1.0
 40
1.0
 40
1.0
 40
1.0
 10
102.5778
 20
135.9115
 30
0.0
 10
102.7118
 20
138.4245
 30
0.0
 10
102.1808
 20
140.6825
 30
0.0
 10
100.1178
 20
142.3575
 30
0.0
  0
SPLINE
  5
111
330
1F
100
AcDbEntity
  8
magstocklogo
 62
     7
100
AcDbSpline
210
0.0
220
0.0
230
1.0
 70
     8
 71
     3
 72
     8
 73
     4
 74
     0
 42
0.000000001
 43
0.0000001
 40
0.0
 40
0.0
 40
0.0
 40
0.0
 40
1.0
 40
1.0
 40
1.0
 40
1.0
 10
100.1178
 20
142.3575
 30
0.0
 10
100.0188
 20
142.4975
 30
0.0
 10
100.0078
 20
142.6455
 30
0.0
 10
100.0798
 20
142.7995
 30
0.0
  0
SPLINE
  5
112
330
1F
100
AcDbEntity
  8
magstocklogo
 62
     7
100
AcDbSpline
210
0.0
220
0.0
230
1.0
 70
     8
 71
     3
 72
     8
 73
     4
 74
     0
 42
0.000000001
 43
0.0000001
 40
0.0
 40
0.0
 40
0.0
 40
0.0
 40
1.0
 40
1.0
 40
1.0
 40
1.0
 10
100.0798
 20
142.7995
 30
0.0
 10
279.9258
 20
142.7995
 30
0.0
 10
459.7718
 20
142.7985
 30
0.0
 10
639.6158
 20
142.8295
 30
0.0
  0
SPLINE
  5
113
330
1F
100
AcDbEntity
  8
magstocklogo
 62
     7
100
AcDbSpline
210
0.0
220
0.0
230
1.0
 70
     8
 71
     3
 72
     8
 73
     4
 74
     0
 42
0.000000001
 43
0.0000001
 40
0.0
 40
0.0
 40
0.0
 40
0.0
 40
1.0
 40
1.0
 40
1.0
 40
1.0
 10
639.6158
 20
142.8295
 30
0.0
 10
640.6718
 20
142.8295
 30
0.0
 10
640.8258
 20
142.5605
 30
0.0
 10
640.8248
 20
141.5855
 30
0.0
  0
SPLINE
  5
114
330
1F
100
AcDbEntity
  8
magstocklogo
 62
     7
100
AcDbSpline
210
0.0
220
0.0
230
1.0
 70
     8
 71
     3
 72
     8
 73
     4
 74
     0
 42
0.000000001
 43
0.0000001
 40
0.0
 40
0.0
 40
0.0
 40
0.0
 40
1.0
 40
1.0
 40
1.0
 40
1.0
 10
640.8248
 20
141.5855
 30
0.0
 10
640.7948
 20
116.3105
 30
0.0
 10
640.8008
 20
91.0355
 30
0.0
 10
640.8008
 20
65.7595
 30
0.0
  0
SPLINE
  5
115
330
1F
100
AcDbEntity
  8
magstocklogo
 62
     7
100
AcDbSpline
210
0.0
220
0.0
230
1.0
 70
     8
 71
     3
 72
     8
 73
     4
 74
     0
 42
0.000000001
 43
0.0000001
 40
0.0
 40
0.0
 40
0.0
 40
0.0
 40
1.0
 40
1.0
 40
1.0
 40
1.0
 10
640.8008
 20
65.7595
 30
0.0
 10
640.6798
 20
65.6785
 30
0.0
 10
640.5688
 20
65.6925
 30
0.0
 10
640.4688
 20
65.7985
 30
0.0
  0
SPLINE
  5
116
330
1F
100
AcDbEntity
  8
magstocklogo
 62
     7
100
AcDbSpline
210
0.0
220
0.0
230
1.0
 70
     8
 71
     3
 72
     8
 73
     4
 74
     0
 42
0.000000001
 43
0.0000001
 40
0.0
 40
0.0
 40
0.0
 40
0.0
 40
1.0
 40
1.0
 40
1.0
 40
1.0
 10
640.4688
 20
65.7985
 30
0.0
 10
640.1008
 20
66.8295
 30
0.0
 10
640.1158
 20
67.9235
 30
0.0
 10
640.0398
 20
68.9835
 30
0.0
  0
SPLINE
  5
117
330
1F
100
AcDbEntity
  8
magstocklogo
 62
     7
100
AcDbSpline
210
0.0
220
0.0
230
1.0
 70
     8
 71
     3
 72
     8
 73
     4
 74
     0
 42
0.000000001
 43
0.0000001
 40
0.0
 40
0.0
 40
0.0
 40
0.0
 40
1.0
 40
1.0
 40
1.0
 40
1.0
 10
640.0398
 20
68.9835
 30
0.0
 10
639.5608
 20
75.6545
 30
0.0
 10
638.0818
 20
82.0935
 30
0.0
 10
635.7438
 20
88.3475
 30
0.0
  0
SPLINE
  5
118
330
1F
100
AcDbEntity
  8
magstocklogo
 62
     7
100
AcDbSpline
210
0.0
220
0.0
230
1.0
 70
     8
 71
     3
 72
     8
 73
     4
 74
     0
 42
0.000000001
 43
0.0000001
 40
0.0
 40
0.0
 40
0.0
 40
0.0
 40
1.0
 40
1.0
 40
1.0
 40
1.0
 10
635.7438
 20
88.3475
 30
0.0
 10
632.6748
 20
96.5605
 30
0.0
 10
628.1808
 20
103.9365
 30
0.0
 10
622.6068
 20
110.6725
 30
0.0
  0
SPLINE
  5
119
330
1F
100
AcDbEntity
  8
magstocklogo
 62
     7
100
AcDbSpline
210
0.0
220
0.0
230
1.0
 70
     8
 71
     3
 72
     8
 73
     4
 74
     0
 42
0.000000001
 43
0.0000001
 40
0.0
 40
0.0
 40
0.0
 40
0.0
 40
1.0
 40
1.0
 40
1.0
 40
1.0
 10
622.6068
 20
110.6725
 30
0.0
 10
621.0758
 20
112.5205
 30
0.0
 10
619.3998
 20
114.2385
 30
0.0
 10
617.7058
 20
115.9375
 30
0.0
  0
SPLINE
  5
11A
330
1F
100
AcDbEntity
  8
magstocklogo
 62
     7
100
AcDbSpline
210
0.0
220
0.0
230
1.0
 70
     8
 71
     3
 72
     8
 73
     4
 74
     0
 42
0.000000001
 43
0.0000001
 40
0.0
 40
0.0
 40
0.0
 40
0.0
 40
1.0
 40
1.0
 40
1.0
 40
1.0
 10
617.7058
 20
115.9375
 30
0.0
 10
616.6678
 20
116.9785
 30
0.0
 10
615.2528
 20
117.0775
 30
0.0
 10
614.3798
 20
116.2285
 30
0.0
  0
SPLINE
  5
11B
330
1F
100
AcDbEntity
  8
magstocklogo
 62
     7
100
AcDbSpline
210
0.0
220
0.0
230
1.0
 70
     8
 71
     3
 72
     8
 73
     4
 74
     0
 42
0.000000001
 43
0.0000001
 40
0.0
 40
0.0
 40
0.0
 40
0.0
 40
1.0
 40
1.0
 40
1.0
 40
1.0
 10
614.3798
 20
116.2285
 30
0.0
 10
613.5318
 20
115.4035
 30
0.0
 10
613.5578
 20
114.0975
 30
0.0
 10
614.5318
 20
113.0075
 30
0.0
  0
SPLINE
  5
11C
330
1F
100
AcDbEntity
  8
magstocklogo
 62
     7
100
AcDbSpline
210
0.0
220
0.0
230
1.0
 70
     8
 71
     3
 72
     8
 73
     4
 74
     0
 42
0.000000001
 43
0.0000001
 40
0.0
 40
0.0
 40
0.0
 40
0.0
 40
1.0
 40
1.0
 40
1.0
 40
1.0
 10
614.5318
 20
113.0075
 30
0.0
 10
617.4618
 20
109.7305
 30
0.0
 10
620.4518
 20
106.5085
 30
0.0
 10
622.9968
 20
102.9055
 30
0.0
  0
SPLINE
  5
11D
330
1F
100
AcDbEntity
  8
magstocklogo
 62
     7
100
AcDbSpline
210
0.0
220
0.0
230
1.0
 70
     8
 71
     3
 72
     8
 73
     4
 74
     0
 42
0.000000001
 43
0.0000001
 40
0.0
 40
0.0
 40
0.0
 40
0.0
 40
1.0
 40
1.0
 40
1.0
 40
1.0
 10
622.9968
 20
102.9055
 30
0.0
 10
629.6448
 20
93.4935
 30
0.0
 10
633.8938
 20
83.1435
 30
0.0
 10
635.4088
 20
71.6815
 30
0.0
  0
SPLINE
  5
11E
330
1F
100
AcDbEntity
  8
magstocklogo
 62
     7
100
AcDbSpline
210
0.0
220
0.0
230
1.0
 70
     8
 71
     3
 72
     8
 73
     4
 74
     0
 42
0.000000001
 43
0.0000001
 40
0.0
 40
0.0
 40
0.0
 40
0.0
 40
1.0
 40
1.0
 40
1.0
 40
1.0
 10
635.4088
 20
71.6815
 30
0.0
 10
635.7918
 20
68.7825
 30
0.0
 10
636.0048
 20
65.8595
 30
0.0
 10
635.9898
 20
62.9685
 30
0.0
  0
SPLINE
  5
11F
330
1F
100
AcDbEntity
  8
magstocklogo
 62
     7
100
AcDbSpline
210
0.0
220
0.0
230
1.0
 70
     8
 71
     3
 72
     8
 73
     4
 74
     0
 42
0.000000001
 43
0.0000001
 40
0.0
 40
0.0
 40
0.0
 40
0.0
 40
1.0
 40
1.0
 40
1.0
 40
1.0
 10
635.9898
 20
62.9685
 30
0.0
 10
635.9608
 20
56.9265
 30
0.0
 10
635.1668
 20
50.9445
 30
0.0
 10
633.6208
 20
45.0765
 30
0.0
  0
SPLINE
  5
120
330
1F
100
AcDbEntity
  8
magstocklogo
 62
     7
100
AcDbSpline
210
0.0
220
0.0
230
1.0
 70
     8
 71
     3
 72
     8
 73
     4
 74
     0
 42
0.000000001
 43
0.0000001
 40
0.0
 40
0.0
 40
0.0
 40
0.0
 40
1.0
 40
1.0
 40
1.0
 40
1.0
 10
633.6208
 20
45.0765
 30
0.0
 10
631.3258
 20
36.3675
 30
0.0
 10
627.6678
 20
28.2885
 30
0.0
 10
622.5368
 20
20.8835
 30
0.0
  0
SPLINE
  5
121
330
1F
100
AcDbEntity
  8
magstocklogo
 62
     7
100
AcDbSpline
210
0.0
220
0.0
230
1.0
 70
     8
 71
     3
 72
     8
 73
     4
 74
     0
 42
0.000000001
 43
0.0000001
 40
0.0
 40
0.0
 40
0.0
 40
0.0
 40
1.0
 40
1.0
 40
1.0
 40
1.0
 10
622.5368
 20
20.8835
 30
0.0
 10
620.4168
 20
17.8235
 30
0.0
 10
618.1398
 20
14.8855
 30
0.0
 10
615.4778
 20
12.2685
 30
0.0
  0
SPLINE
  5
122
330
1F
100
AcDbEntity
  8
magstocklogo
 62
     7
100
AcDbSpline
210
0.0
220
0.0
230
1.0
 70
     8
 71
     3
 72
     8
 73
     4
 74
     0
 42
0.000000001
 43
0.0000001
 40
0.0
 40
0.0
 40
0.0
 40
0.0
 40
1.0
 40
1.0
 40
1.0
 40
1.0
 10
615.4778
 20
12.2685
 30
0.0
 10
615.0208
 20
11.8195
 30
0.0
 10
614.5788
 20
11.3565
 30
0.0
 10
614.2348
 20
10.8105
 30
0.0
  0
SPLINE
  5
123
330
1F
100
AcDbEntity
  8
magstocklogo
 62
     7
100
AcDbSpline
210
0.0
220
0.0
230
1.0
 70
     8
 71
     3
 72
     8
 73
     4
 74
     0
 42
0.000000001
 43
0.0000001
 40
0.0
 40
0.0
 40
0.0
 40
0.0
 40
1.0
 40
1.0
 40
1.0
 40
1.0
 10
614.2348
 20
10.8105
 30
0.0
 10
613.5308
 20
9.6935
 30
0.0
 10
613.6258
 20
8.4745
 30
0.0
 10
614.4728
 20
7.7585
 30
0.0
  0
SPLINE
  5
124
330
1F
100
AcDbEntity
  8
magstocklogo
 62
     7
100
AcDbSpline
210
0.0
220
0.0
230
1.0
 70
     8
 71
     3
 72
     8
 73
     4
 74
     0
 42
0.000000001
 43
0.0000001
 40
0.0
 40
0.0
 40
0.0
 40
0.0
 40
1.0
 40
1.0
 40
1.0
 40
1.0
 10
614.4728
 20
7.7585
 30
0.0
 10
615.3168
 20
7.0445
 30
0.0
 10
616.5518
 20
7.1305
 30
0.0
 10
617.5138
 20
8.0205
 30
0.0
  0
SPLINE
  5
125
330
1F
100
AcDbEntity
  8
magstocklogo
 62
     7
100
AcDbSpline
210
0.0
220
0.0
230
1.0
 70
     8
 71
     3
 72
     8
 73
     4
 74
     0
 42
0.000000001
 43
0.0000001
 40
0.0
 40
0.0
 40
0.0
 40
0.0
 40
1.0
 40
1.0
 40
1.0
 40
1.0
 10
617.5138
 20
8.0205
 30
0.0
 10
619.3968
 20
9.7605
 30
0.0
 10
621.0898
 20
11.6765
 30
0.0
 10
622.6878
 20
13.6805
 30
0.0
  0
SPLINE
  5
126
330
1F
100
AcDbEntity
  8
magstocklogo
 62
     7
100
AcDbSpline
210
0.0
220
0.0
230
1.0
 70
     8
 71
     3
 72
     8
 73
     4
 74
     0
 42
0.000000001
 43
0.0000001
 40
0.0
 40
0.0
 40
0.0
 40
0.0
 40
1.0
 40
1.0
 40
1.0
 40
1.0
 10
622.6878
 20
13.6805
 30
0.0
 10
630.9168
 20
24.0025
 30
0.0
 10
636.3268
 20
35.6335
 30
0.0
 10
638.8898
 20
48.5885
 30
0.0
  0
SPLINE
  5
127
330
1F
100
AcDbEntity
  8
magstocklogo
 62
     7
100
AcDbSpline
210
0.0
220
0.0
230
1.0
 70
     8
 71
     3
 72
     8
 73
     4
 74
     0
 42
0.000000001
 43
0.0000001
 40
0.0
 40
0.0
 40
0.0
 40
0.0
 40
1.0
 40
1.0
 40
1.0
 40
1.0
 10
638.8898
 20
48.5885
 30
0.0
 10
639.5958
 20
52.1615
 30
0.0
 10
639.9888
 20
55.7715
 30
0.0
 10
640.2478
 20
59.3995
 30
0.0
  0
SPLINE
  5
128
330
1F
100
AcDbEntity
  8
magstocklogo
 62
     7
100
AcDbSpline
210
0.0
220
0.0
230
1.0
 70
     8
 71
     3
 72
     8
 73
     4
 74
     0
 42
0.000000001
 43
0.0000001
 40
0.0
 40
0.0
 40
0.0
 40
0.0
 40
1.0
 40
1.0
 40
1.0
 40
1.0
 10
640.2478
 20
59.3995
 30
0.0
 10
640.2738
 20
59.7575
 30
0.0
 10
640.2538
 20
60.1235
 30
0.0
 10
640.4678
 20
60.4405
 30
0.0
  0
SPLINE
  5
129
330
1F
100
AcDbEntity
  8
magstocklogo
 62
     7
100
AcDbSpline
210
0.0
220
0.0
230
1.0
 70
     8
 71
     3
 72
     8
 73
     4
 74
     0
 42
0.000000001
 43
0.0000001
 40
0.0
 40
0.0
 40
0.0
 40
0.0
 40
1.0
 40
1.0
 40
1.0
 40
1.0
 10
640.4678
 20
60.4405
 30
0.0
 10
640.5688
 20
60.5475
 30
0.0
 10
640.6798
 20
60.5605
 30
0.0
 10
640.8008
 20
60.4795
 30
0.0
  0
SPLINE
  5
12A
330
1F
100
AcDbEntity
  8
magstocklogo
 62
     7
100
AcDbSpline
210
0.0
220
0.0
230
1.0
 70
     8
 71
     3
 72
     8
 73
     4
 74
     0
 42
0.000000001
 43
0.0000001
 40
0.0
 40
0.0
 40
0.0
 40
0.0
 40
1.0
 40
1.0
 40
1.0
 40
1.0
 10
640.6035
 20
60.4697
 30
0.0
 10
640.0695
 20
46.9587
 30
0.0
 10
636.2135
 20
34.4247
 30
0.0
 10
629.3975
 20
22.7947
 30
0.0
  0
SPLINE
  5
12B
330
1F
100
AcDbEntity
  8
magstocklogo
 62
     7
100
AcDbSpline
210
0.0
220
0.0
230
1.0
 70
     8
 71
     3
 72
     8
 73
     4
 74
     0
 42
0.000000001
 43
0.0000001
 40
0.0
 40
0.0
 40
0.0
 40
0.0
 40
1.0
 40
1.0
 40
1.0
 40
1.0
 10
629.3975
 20
22.7947
 30
0.0
 10
626.2435
 20
17.4137
 30
0.0
 10
622.4785
 20
12.4717
 30
0.0
 10
618.0545
 20
8.0527
 30
0.0
  0
SPLINE
  5
12C
330
1F
100
AcDbEntity
  8
magstocklogo
 62
     7
100
AcDbSpline
210
0.0
220
0.0
230
1.0
 70
     8
 71
     3
 72
     8
 73
     4
 74
     0
 42
0.000000001
 43
0.0000001
 40
0.0
 40
0.0
 40
0.0
 40
0.0
 40
1.0
 40
1.0
 40
1.0
 40
1.0
 10
618.0545
 20
8.0527
 30
0.0
 10
616.7385
 20
6.7387
 30
0.0
 10
615.2605
 20
6.5617
 30
0.0
 10
614.1725
 20
7.5747
 30
0.0
  0
SPLINE
  5
12D
330
1F
100
AcDbEntity
  8
magstocklogo
 62
     7
100
AcDbSpline
210
0.0
220
0.0
230
1.0
 70
     8
 71
     3
 72
     8
 73
     4
 74
     0
 42
0.000000001
 43
0.0000001
 40
0.0
 40
0.0
 40
0.0
 40
0.0
 40
1.0
 40
1.0
 40
1.0
 40
1.0
 10
614.1725
 20
7.5747
 30
0.0
 10
613.0615
 20
8.6117
 30
0.0
 10
613.1455
 20
10.2477
 30
0.0
 10
614.4555
 20
11.5777
 30
0.0
  0
SPLINE
  5
12E
330
1F
100
AcDbEntity
  8
magstocklogo
 62
     7
100
AcDbSpline
210
0.0
220
0.0
230
1.0
 70
     8
 71
     3
 72
     8
 73
     4
 74
     0
 42
0.000000001
 43
0.0000001
 40
0.0
 40
0.0
 40
0.0
 40
0.0
 40
1.0
 40
1.0
 40
1.0
 40
1.0
 10
614.4555
 20
11.5777
 30
0.0
 10
620.1195
 20
17.3317
 30
0.0
 10
624.6425
 20
23.8787
 30
0.0
 10
628.1425
 20
31.1437
 30
0.0
  0
SPLINE
  5
12F
330
1F
100
AcDbEntity
  8
magstocklogo
 62
     7
100
AcDbSpline
210
0.0
220
0.0
230
1.0
 70
     8
 71
     3
 72
     8
 73
     4
 74
     0
 42
0.000000001
 43
0.0000001
 40
0.0
 40
0.0
 40
0.0
 40
0.0
 40
1.0
 40
1.0
 40
1.0
 40
1.0
 10
628.1425
 20
31.1437
 30
0.0
 10
631.2325
 20
37.5597
 30
0.0
 10
633.3895
 20
44.2627
 30
0.0
 10
634.6015
 20
51.2907
 30
0.0
  0
SPLINE
  5
130
330
1F
100
AcDbEntity
  8
magstocklogo
 62
     7
100
AcDbSpline
210
0.0
220
0.0
230
1.0
 70
     8
 71
     3
 72
     8
 73
     4
 74
     0
 42
0.000000001
 43
0.0000001
 40
0.0
 40
0.0
 40
0.0
 40
0.0
 40
1.0
 40
1.0
 40
1.0
 40
1.0
 10
634.6015
 20
51.2907
 30
0.0
 10
635.2745
 20
55.1897
 30
0.0
 10
635.6585
 20
59.1147
 30
0.0
 10
635.6345
 20
63.0437
 30
0.0
  0
SPLINE
  5
131
330
1F
100
AcDbEntity
  8
magstocklogo
 62
     7
100
AcDbSpline
210
0.0
220
0.0
230
1.0
 70
     8
 71
     3
 72
     8
 73
     4
 74
     0
 42
0.000000001
 43
0.0000001
 40
0.0
 40
0.0
 40
0.0
 40
0.0
 40
1.0
 40
1.0
 40
1.0
 40
1.0
 10
635.6345
 20
63.0437
 30
0.0
 10
635.5555
 20
76.5647
 30
0.0
 10
631.7935
 20
89.0077
 30
0.0
 10
624.3685
 20
100.3327
 30
0.0
  0
SPLINE
  5
132
330
1F
100
AcDbEntity
  8
magstocklogo
 62
     7
100
AcDbSpline
210
0.0
220
0.0
230
1.0
 70
     8
 71
     3
 72
     8
 73
     4
 74
     0
 42
0.000000001
 43
0.0000001
 40
0.0
 40
0.0
 40
0.0
 40
0.0
 40
1.0
 40
1.0
 40
1.0
 40
1.0
 10
624.3685
 20
100.3327
 30
0.0
 10
621.4255
 20
104.8197
 30
0.0
 10
617.9905
 20
108.8957
 30
0.0
 10
614.2855
 20
112.7597
 30
0.0
  0
SPLINE
  5
133
330
1F
100
AcDbEntity
  8
magstocklogo
 62
     7
100
AcDbSpline
210
0.0
220
0.0
230
1.0
 70
     8
 71
     3
 72
     8
 73
     4
 74
     0
 42
0.000000001
 43
0.0000001
 40
0.0
 40
0.0
 40
0.0
 40
0.0
 40
1.0
 40
1.0
 40
1.0
 40
1.0
 10
614.2855
 20
112.7597
 30
0.0
 10
613.1555
 20
113.9387
 30
0.0
 10
613.1105
 20
115.4627
 30
0.0
 10
614.1355
 20
116.4737
 30
0.0
  0
SPLINE
  5
134
330
1F
100
AcDbEntity
  8
magstocklogo
 62
     7
100
AcDbSpline
210
0.0
220
0.0
230
1.0
 70
     8
 71
     3
 72
     8
 73
     4
 74
     0
 42
0.000000001
 43
0.0000001
 40
0.0
 40
0.0
 40
0.0
 40
0.0
 40
1.0
 40
1.0
 40
1.0
 40
1.0
 10
614.1355
 20
116.4737
 30
0.0
 10
615.1885
 20
117.5117
 30
0.0
 10
616.7815
 20
117.3937
 30
0.0
 10
617.9545
 20
116.2017
 30
0.0
  0
SPLINE
  5
135
330
1F
100
AcDbEntity
  8
magstocklogo
 62
     7
100
AcDbSpline
210
0.0
220
0.0
230
1.0
 70
     8
 71
     3
 72
     8
 73
     4
 74
     0
 42
0.000000001
 43
0.0000001
 40
0.0
 40
0.0
 40
0.0
 40
0.0
 40
1.0
 40
1.0
 40
1.0
 40
1.0
 10
617.9545
 20
116.2017
 30
0.0
 10
624.1185
 20
109.9357
 30
0.0
 10
629.3185
 20
102.9687
 30
0.0
 10
633.1975
 20
95.0617
 30
0.0
  0
SPLINE
  5
136
330
1F
100
AcDbEntity
  8
magstocklogo
 62
     7
100
AcDbSpline
210
0.0
220
0.0
230
1.0
 70
     8
 71
     3
 72
     8
 73
     4
 74
     0
 42
0.000000001
 43
0.0000001
 40
0.0
 40
0.0
 40
0.0
 40
0.0
 40
1.0
 40
1.0
 40
1.0
 40
1.0
 10
633.1975
 20
95.0617
 30
0.0
 10
636.5485
 20
88.2287
 30
0.0
 10
638.8345
 20
81.0577
 30
0.0
 10
639.8805
 20
73.4997
 30
0.0
  0
SPLINE
  5
137
330
1F
100
AcDbEntity
  8
magstocklogo
 62
     7
100
AcDbSpline
210
0.0
220
0.0
230
1.0
 70
     8
 71
     3
 72
     8
 73
     4
 74
     0
 42
0.000000001
 43
0.0000001
 40
0.0
 40
0.0
 40
0.0
 40
0.0
 40
1.0
 40
1.0
 40
1.0
 40
1.0
 10
639.8805
 20
73.4997
 30
0.0
 10
640.2365
 20
70.9317
 30
0.0
 10
640.4845
 20
68.3587
 30
0.0
 10
640.6035
 20
65.7707
 30
0.0
  0
SPLINE
  5
138
330
1F
100
AcDbEntity
  8
magstocklogo
 62
     7
100
AcDbSpline
210
0.0
220
0.0
230
1.0
 70
     8
 71
     3
 72
     8
 73
     4
 74
     0
 42
0.000000001
 43
0.0000001
 40
0.0
 40
0.0
 40
0.0
 40
0.0
 40
1.0
 40
1.0
 40
1.0
 40
1.0
 10
640.6035
 20
65.7707
 30
0.0
 10
640.8365
 20
64.8997
 30
0.0
 10
640.4845
 20
63.9847
 30
0.0
 10
640.8005
 20
63.1197
 30
0.0
  0
SPLINE
  5
139
330
1F
100
AcDbEntity
  8
magstocklogo
 62
     7
100
AcDbSpline
210
0.0
220
0.0
230
1.0
 70
     8
 71
     3
 72
     8
 73
     4
 74
     0
 42
0.000000001
 43
0.0000001
 40
0.0
 40
0.0
 40
0.0
 40
0.0
 40
1.0
 40
1.0
 40
1.0
 40
1.0
 10
640.8005
 20
62.6397
 30
0.0
 10
640.4885
 20
61.9387
 30
0.0
 10
640.8345
 20
61.1777
 30
0.0
 10
640.6035
 20
60.4697
 30
0.0
  0
SPLINE
  5
13A
330
1F
100
AcDbEntity
  8
magstocklogo
 62
     7
100
AcDbSpline
210
0.0
220
0.0
230
1.0
 70
     8
 71
     3
 72
     8
 73
     4
 74
     0
 42
0.000000001
 43
0.0000001
 40
0.0
 40
0.0
 40
0.0
 40
0.0
 40
1.0
 40
1.0
 40
1.0
 40
1.0
 10
100.0801
 20
142.7998
 30
0.0
 10
100.1381
 20
142.7448
 30
0.0
 10
100.1631
 20
142.6768
 30
0.0
 10
100.1561
 20
142.5968
 30
0.0
  0
SPLINE
  5
13B
330
1F
100
AcDbEntity
  8
magstocklogo
 62
     7
100
AcDbSpline
210
0.0
220
0.0
230
1.0
 70
     8
 71
     3
 72
     8
 73
     4
 74
     0
 42
0.000000001
 43
0.0000001
 40
0.0
 40
0.0
 40
0.0
 40
0.0
 40
1.0
 40
1.0
 40
1.0
 40
1.0
 10
100.1561
 20
142.5968
 30
0.0
 10
99.6881
 20
142.0818
 30
0.0
 10
99.0571
 20
142.1818
 30
0.0
 10
98.4711
 20
142.1778
 30
0.0
  0
SPLINE
  5
13C
330
1F
100
AcDbEntity
  8
magstocklogo
 62
     7
100
AcDbSpline
210
0.0
220
0.0
230
1.0
 70
     8
 71
     3
 72
     8
 73
     4
 74
     0
 42
0.000000001
 43
0.0000001
 40
0.0
 40
0.0
 40
0.0
 40
0.0
 40
1.0
 40
1.0
 40
1.0
 40
1.0
 10
98.4711
 20
142.1778
 30
0.0
 10
95.7511
 20
142.1598
 30
0.0
 10
93.0321
 20
142.1698
 30
0.0
 10
90.3121
 20
142.1698
 30
0.0
  0
SPLINE
  5
13D
330
1F
100
AcDbEntity
  8
magstocklogo
 62
     7
100
AcDbSpline
210
0.0
220
0.0
230
1.0
 70
     8
 71
     3
 72
     8
 73
     4
 74
     0
 42
0.000000001
 43
0.0000001
 40
0.0
 40
0.0
 40
0.0
 40
0.0
 40
1.0
 40
1.0
 40
1.0
 40
1.0
 10
90.3121
 20
142.1698
 30
0.0
 10
62.7591
 20
142.1698
 30
0.0
 10
35.2051
 20
142.1698
 30
0.0
 10
7.6521
 20
142.1698
 30
0.0
  0
SPLINE
  5
13E
330
1F
100
AcDbEntity
  8
magstocklogo
 62
     7
100
AcDbSpline
210
0.0
220
0.0
230
1.0
 70
     8
 71
     3
 72
     8
 73
     4
 74
     0
 42
0.000000001
 43
0.0000001
 40
0.0
 40
0.0
 40
0.0
 40
0.0
 40
1.0
 40
1.0
 40
1.0
 40
1.0
 10
7.6521
 20
142.1698
 30
0.0
 10
6.7721
 20
142.1698
 30
0.0
 10
5.8961
 20
142.1608
 30
0.0
 10
5.0201
 20
142.0328
 30
0.0
  0
SPLINE
  5
13F
330
1F
100
AcDbEntity
  8
magstocklogo
 62
     7
100
AcDbSpline
210
0.0
220
0.0
230
1.0
 70
     8
 71
     3
 72
     8
 73
     4
 74
     0
 42
0.000000001
 43
0.0000001
 40
0.0
 40
0.0
 40
0.0
 40
0.0
 40
1.0
 40
1.0
 40
1.0
 40
1.0
 10
5.0201
 20
142.0328
 30
0.0
 10
3.1741
 20
141.7618
 30
0.0
 10
2.1311
 20
140.6138
 30
0.0
 10
1.5571
 20
138.9448
 30
0.0
  0
SPLINE
  5
140
330
1F
100
AcDbEntity
  8
magstocklogo
 62
     7
100
AcDbSpline
210
0.0
220
0.0
230
1.0
 70
     8
 71
     3
 72
     8
 73
     4
 74
     0
 42
0.000000001
 43
0.0000001
 40
0.0
 40
0.0
 40
0.0
 40
0.0
 40
1.0
 40
1.0
 40
1.0
 40
1.0
 10
1.5571
 20
138.9448
 30
0.0
 10
1.1481
 20
137.7558
 30
0.0
 10
1.1041
 20
136.5198
 30
0.0
 10
1.1041
 20
135.2728
 30
0.0
  0
SPLINE
  5
141
330
1F
100
AcDbEntity
  8
magstocklogo
 62
     7
100
AcDbSpline
210
0.0
220
0.0
230
1.0
 70
     8
 71
     3
 72
     8
 73
     4
 74
     0
 42
0.000000001
 43
0.0000001
 40
0.0
 40
0.0
 40
0.0
 40
0.0
 40
1.0
 40
1.0
 40
1.0
 40
1.0
 10
1.1041
 20
135.2728
 30
0.0
 10
1.1121
 20
106.0798
 30
0.0
 10
1.1101
 20
76.8858
 30
0.0
 10
1.1091
 20
47.6938
 30
0.0
  0
SPLINE
  5
142
330
1F
100
AcDbEntity
  8
magstocklogo
 62
     7
100
AcDbSpline
210
0.0
220
0.0
230
1.0
 70
     8
 71
     3
 72
     8
 73
     4
 74
     0
 42
0.000000001
 43
0.0000001
 40
0.0
 40
0.0
 40
0.0
 40
0.0
 40
1.0
 40
1.0
 40
1.0
 40
1.0
 10
1.1091
 20
47.6938
 30
0.0
 10
1.1091
 20
47.0938
 30
0.0
 10
1.1451
 20
46.4908
 30
0.0
 10
1.0781
 20
45.8948
 30
0.0
  0
SPLINE
  5
143
330
1F
100
AcDbEntity
  8
magstocklogo
 62
     7
100
AcDbSpline
210
0.0
220
0.0
230
1.0
 70
     8
 71
     3
 72
     8
 73
     4
 74
     0
 42
0.000000001
 43
0.0000001
 40
0.0
 40
0.0
 40
0.0
 40
0.0
 40
1.0
 40
1.0
 40
1.0
 40
1.0
 10
1.0781
 20
45.8948
 30
0.0
 10
1.0301
 20
45.4758
 30
0.0
 10
1.0691
 20
44.9798
 30
0.0
 10
0.4951
 20
44.8388
 30
0.0
  0
SPLINE
  5
144
330
1F
100
AcDbEntity
  8
magstocklogo
 62
     7
100
AcDbSpline
210
0.0
220
0.0
230
1.0
 70
     8
 71
     3
 72
     8
 73
     4
 74
     0
 42
0.000000001
 43
0.0000001
 40
0.0
 40
0.0
 40
0.0
 40
0.0
 40
1.0
 40
1.0
 40
1.0
 40
1.0
 10
0.4951
 20
44.8388
 30
0.0
 10
0.2461
 20
45.2468
 30
0.0
 10
0.3701
 20
45.6978
 30
0.0
 10
0.3701
 20
46.1268
 30
0.0
  0
SPLINE
  5
145
330
1F
100
AcDbEntity
  8
magstocklogo
 62
     7
100
AcDbSpline
210
0.0
220
0.0
230
1.0
 70
     8
 71
     3
 72
     8
 73
     4
 74
     0
 42
0.000000001
 43
0.0000001
 40
0.0
 40
0.0
 40
0.0
 40
0.0
 40
1.0
 40
1.0
 40
1.0
 40
1.0
 10
0.3701
 20
46.1268
 30
0.0
 10
0.3631
 20
76.3058
 30
0.0
 10
0.3631
 20
106.4848
 30
0.0
 10
0.3651
 20
136.6638
 30
0.0
  0
SPLINE
  5
146
330
1F
100
AcDbEntity
  8
magstocklogo
 62
     7
100
AcDbSpline
210
0.0
220
0.0
230
1.0
 70
     8
 71
     3
 72
     8
 73
     4
 74
     0
 42
0.000000001
 43
0.0000001
 40
0.0
 40
0.0
 40
0.0
 40
0.0
 40
1.0
 40
1.0
 40
1.0
 40
1.0
 10
0.3651
 20
136.6638
 30
0.0
 10
0.3651
 20
137.1418
 30
0.0
 10
0.3671
 20
137.6178
 30
0.0
 10
0.4271
 20
138.0978
 30
0.0
  0
SPLINE
  5
147
330
1F
100
AcDbEntity
  8
magstocklogo
 62
     7
100
AcDbSpline
210
0.0
220
0.0
230
1.0
 70
     8
 71
     3
 72
     8
 73
     4
 74
     0
 42
0.000000001
 43
0.0000001
 40
0.0
 40
0.0
 40
0.0
 40
0.0
 40
1.0
 40
1.0
 40
1.0
 40
1.0
 10
0.4271
 20
138.0978
 30
0.0
 10
0.8251
 20
141.2598
 30
0.0
 10
1.7471
 20
142.2618
 30
0.0
 10
4.8001
 20
142.7998
 30
0.0
  0
LWPOLYLINE
  5
148
330
1F
100
AcDbEntity
  8
magstocklogo
 62
     7
100
AcDbPolyline
 90
        2
 70
     0
 43
0.0
 10
640.8005
 20
63.1197
 10
640.8005
 20
62.6397
  0
SPLINE
  5
149
330
1F
100
AcDbEntity
  8
magstocklogo
 62
     7
100
AcDbSpline
210
0.0
220
0.0
230
1.0
 70
     8
 71
     3
 72
     8
 73
     4
 74
     0
 42
0.000000001
 43
0.0000001
 40
0.0
 40
0.0
 40
0.0
 40
0.0
 40
1.0
 40
1.0
 40
1.0
 40
1.0
 10
4.7998
 20
142.7998
 30
0.0
 10
3.6398
 20
142.3638
 30
0.0
 10
2.4988
 20
142.0678
 30
0.0
 10
1.6948
 20
140.8648
 30
0.0
  0
SPLINE
  5
14A
330
1F
100
AcDbEntity
  8
magstocklogo
 62
     7
100
AcDbSpline
210
0.0
220
0.0
230
1.0
 70
     8
 71
     3
 72
     8
 73
     4
 74
     0
 42
0.000000001
 43
0.0000001
 40
0.0
 40
0.0
 40
0.0
 40
0.0
 40
1.0
 40
1.0
 40
1.0
 40
1.0
 10
1.6948
 20
140.8648
 30
0.0
 10
0.8858
 20
139.6548
 30
0.0
 10
0.5138
 20
138.3718
 30
0.0
 10
0.5118
 20
137.0548
 30
0.0
  0
SPLINE
  5
14B
330
1F
100
AcDbEntity
  8
magstocklogo
 62
     7
100
AcDbSpline
210
0.0
220
0.0
230
1.0
 70
     8
 71
     3
 72
     8
 73
     4
 74
     0
 42
0.000000001
 43
0.0000001
 40
0.0
 40
0.0
 40
0.0
 40
0.0
 40
1.0
 40
1.0
 40
1.0
 40
1.0
 10
0.5118
 20
137.0548
 30
0.0
 10
0.4778
 20
111.7228
 30
0.0
 10
0.4968
 20
86.3908
 30
0.0
 10
0.5068
 20
61.0588
 30
0.0
  0
SPLINE
  5
14C
330
1F
100
AcDbEntity
  8
magstocklogo
 62
     7
100
AcDbSpline
210
0.0
220
0.0
230
1.0
 70
     8
 71
     3
 72
     8
 73
     4
 74
     0
 42
0.000000001
 43
0.0000001
 40
0.0
 40
0.0
 40
0.0
 40
0.0
 40
1.0
 40
1.0
 40
1.0
 40
1.0
 10
0.5068
 20
61.0588
 30
0.0
 10
0.5088
 20
55.6658
 30
0.0
 10
0.5148
 20
50.2738
 30
0.0
 10
0.5198
 20
44.8808
 30
0.0
  0
SPLINE
  5
14D
330
1F
100
AcDbEntity
  8
magstocklogo
 62
     7
100
AcDbSpline
210
0.0
220
0.0
230
1.0
 70
     8
 71
     3
 72
     8
 73
     4
 74
     0
 42
0.000000001
 43
0.0000001
 40
0.0
 40
0.0
 40
0.0
 40
0.0
 40
1.0
 40
1.0
 40
1.0
 40
1.0
 10
0.5198
 20
44.8808
 30
0.0
 10
0.8668
 20
44.4438
 30
0.0
 10
0.8218
 20
43.9848
 30
0.0
 10
0.5968
 20
43.5148
 30
0.0
  0
SPLINE
  5
14E
330
1F
100
AcDbEntity
  8
magstocklogo
 62
     7
100
AcDbSpline
210
0.0
220
0.0
230
1.0
 70
     8
 71
     3
 72
     8
 73
     4
 74
     0
 42
0.000000001
 43
0.0000001
 40
0.0
 40
0.0
 40
0.0
 40
0.0
 40
1.0
 40
1.0
 40
1.0
 40
1.0
 10
0.5968
 20
43.5148
 30
0.0
 10
0.4998
 20
43.3878
 30
0.0
 10
0.3808
 20
43.3628
 30
0.0
 10
0.2398
 20
43.4398
 30
0.0
  0
SPLINE
  5
14F
330
1F
100
AcDbEntity
  8
magstocklogo
 62
     7
100
AcDbSpline
210
0.0
220
0.0
230
1.0
 70
     8
 71
     3
 72
     8
 73
     4
 74
     0
 42
0.000000001
 43
0.0000001
 40
0.0
 40
0.0
 40
0.0
 40
0.0
 40
1.0
 40
1.0
 40
1.0
 40
1.0
 10
0.2398
 20
43.4398
 30
0.0
 10
0.2398
 20
76.2018
 30
0.0
 10
0.2448
 20
108.9648
 30
0.0
 10
0.2168
 20
141.7268
 30
0.0
  0
SPLINE
  5
150
330
1F
100
AcDbEntity
  8
magstocklogo
 62
     7
100
AcDbSpline
210
0.0
220
0.0
230
1.0
 70
     8
 71
     3
 72
     8
 73
     4
 74
     0
 42
0.000000001
 43
0.0000001
 40
0.0
 40
0.0
 40
0.0
 40
0.0
 40
1.0
 40
1.0
 40
1.0
 40
1.0
 10
0.2168
 20
141.7268
 30
0.0
 10
0.2158
 20
142.6388
 30
0.0
 10
0.4318
 20
142.8878
 30
0.0
 10
1.3258
 20
142.8208
 30
0.0
  0
SPLINE
  5
151
330
1F
100
AcDbEntity
  8
magstocklogo
 62
     7
100
AcDbSpline
210
0.0
220
0.0
230
1.0
 70
     8
 71
     3
 72
     8
 73
     4
 74
     0
 42
0.000000001
 43
0.0000001
 40
0.0
 40
0.0
 40
0.0
 40
0.0
 40
1.0
 40
1.0
 40
1.0
 40
1.0
 10
1.3258
 20
142.8208
 30
0.0
 10
2.4778
 20
142.7348
 30
0.0
 10
3.6418
 20
142.7998
 30
0.0
 10
4.7998
 20
142.7998
 30
0.0
  0
SPLINE
  5
152
330
1F
100
AcDbEntity
  8
magstocklogo
 62
     7
100
AcDbSpline
210
0.0
220
0.0
230
1.0
 70
     8
 71
     3
 72
     8
 73
     4
 74
     0
 42
0.000000001
 43
0.0000001
 40
0.0
 40
0.0
 40
0.0
 40
0.0
 40
1.0
 40
1.0
 40
1.0
 40
1.0
 10
0.2402
 20
43.4395
 30
0.0
 10
0.3072
 20
43.4425
 30
0.0
 10
0.3732
 20
43.4425
 30
0.0
 10
0.4402
 20
43.4405
 30
0.0
  0
SPLINE
  5
153
330
1F
100
AcDbEntity
  8
magstocklogo
 62
     7
100
AcDbSpline
210
0.0
220
0.0
230
1.0
 70
     8
 71
     3
 72
     8
 73
     4
 74
     0
 42
0.000000001
 43
0.0000001
 40
0.0
 40
0.0
 40
0.0
 40
0.0
 40
1.0
 40
1.0
 40
1.0
 40
1.0
 10
0.4402
 20
43.4405
 30
0.0
 10
0.9282
 20
43.0145
 30
0.0
 10
0.8642
 20
42.4265
 30
0.0
 10
0.8652
 20
41.8775
 30
0.0
  0
SPLINE
  5
154
330
1F
100
AcDbEntity
  8
magstocklogo
 62
     7
100
AcDbSpline
210
0.0
220
0.0
230
1.0
 70
     8
 71
     3
 72
     8
 73
     4
 74
     0
 42
0.000000001
 43
0.0000001
 40
0.0
 40
0.0
 40
0.0
 40
0.0
 40
1.0
 40
1.0
 40
1.0
 40
1.0
 10
0.8652
 20
41.8775
 30
0.0
 10
0.8772
 20
29.9605
 30
0.0
 10
0.8772
 20
18.0425
 30
0.0
 10
0.8652
 20
6.1255
 30
0.0
  0
SPLINE
  5
155
330
1F
100
AcDbEntity
  8
magstocklogo
 62
     7
100
AcDbSpline
210
0.0
220
0.0
230
1.0
 70
     8
 71
     3
 72
     8
 73
     4
 74
     0
 42
0.000000001
 43
0.0000001
 40
0.0
 40
0.0
 40
0.0
 40
0.0
 40
1.0
 40
1.0
 40
1.0
 40
1.0
 10
0.8652
 20
6.1255
 30
0.0
 10
0.8642
 20
5.5765
 30
0.0
 10
0.9272
 20
4.9885
 30
0.0
 10
0.4452
 20
4.5585
 30
0.0
  0
LWPOLYLINE
  5
156
330
1F
100
AcDbEntity
  8
magstocklogo
 62
     7
100
AcDbPolyline
 90
        3
 70
     1
 43
0.0
 10
4.8001
 20
142.7998
 10
100.0801
 20
142.7998
 10
100.0801
 20
142.7998
  0
SPLINE
  5
157
330
1F
100
AcDbEntity
  8
magstocklogo
 62
     7
100
AcDbSpline
210
0.0
220
0.0
230
1.0
 70
     8
 71
     3
 72
     8
 73
     4
 74
     0
 42
0.000000001
 43
0.0000001
 40
0.0
 40
0.0
 40
0.0
 40
0.0
 40
1.0
 40
1.0
 40
1.0
 40
1.0
 10
640.8008
 20
63.1201
 30
0.0
 10
640.2998
 20
63.9711
 30
0.0
 10
640.6518
 20
64.8861
 30
0.0
 10
640.6038
 20
65.7701
 30
0.0
  0
SPLINE
  5
158
330
1F
100
AcDbEntity
  8
magstocklogo
 62
     7
100
AcDbSpline
210
0.0
220
0.0
230
1.0
 70
     8
 71
     3
 72
     8
 73
     4
 74
     0
 42
0.000000001
 43
0.0000001
 40
0.0
 40
0.0
 40
0.0
 40
0.0
 40
1.0
 40
1.0
 40
1.0
 40
1.0
 10
640.6038
 20
65.7701
 30
0.0
 10
640.6708
 20
65.7911
 30
0.0
 10
640.7368
 20
65.7871
 30
0.0
 10
640.8008
 20
65.7601
 30
0.0
  0
LWPOLYLINE
  5
159
330
1F
100
AcDbEntity
  8
magstocklogo
 62
     7
100
AcDbPolyline
 90
        5
 70
     1
 43
0.0
 10
0.4452
 20
4.5585
 10
0.3432
 20
4.5585
 10
0.2402
 20
4.5595
 10
0.2402
 20
43.4395
 10
0.2402
 20
43.4395
  0
SPLINE
  5
15A
330
1F
100
AcDbEntity
  8
magstocklogo
 62
     7
100
AcDbSpline
210
0.0
220
0.0
230
1.0
 70
     8
 71
     3
 72
     8
 73
     4
 74
     0
 42
0.000000001
 43
0.0000001
 40
0.0
 40
0.0
 40
0.0
 40
0.0
 40
1.0
 40
1.0
 40
1.0
 40
1.0
 10
640.6035
 20
60.4697
 30
0.0
 10
640.6485
 20
61.1947
 30
0.0
 10
640.3095
 20
61.9547
 30
0.0
 10
640.8005
 20
62.6397
 30
0.0
  0
LWPOLYLINE
  5
15B
330
1F
100
AcDbEntity
  8
magstocklogo
 62
     7
100
AcDbPolyline
 90
        3
 70
     1
 43
0.0
 10
640.8008
 20
65.7601
 10
640.8008
 20
63.1201
 10
640.8008
 20
63.1201
  0
SPLINE
  5
15C
330
1F
100
AcDbEntity
  8
magstocklogo
 62
     7
100
AcDbSpline
210
0.0
220
0.0
230
1.0
 70
     8
 71
     3
 72
     8
 73
     4
 74
     0
 42
0.000000001
 43
0.0000001
 40
0.0
 40
0.0
 40
0.0
 40
0.0
 40
1.0
 40
1.0
 40
1.0
 40
1.0
 10
0.4453
 20
4.5586
 30
0.0
 10
0.4573
 20
14.6496
 30
0.0
 10
0.4723
 20
24.7396
 30
0.0
 10
0.4773
 20
34.8296
 30
0.0
  0
SPLINE
  5
15D
330
1F
100
AcDbEntity
  8
magstocklogo
 62
     7
100
AcDbSpline
210
0.0
220
0.0
230
1.0
 70
     8
 71
     3
 72
     8
 73
     4
 74
     0
 42
0.000000001
 43
0.0000001
 40
0.0
 40
0.0
 40
0.0
 40
0.0
 40
1.0
 40
1.0
 40
1.0
 40
1.0
 10
0.4773
 20
34.8296
 30
0.0
 10
0.4793
 20
37.6996
 30
0.0
 10
0.4533
 20
40.5706
 30
0.0
 10
0.4403
 20
43.4406
 30
0.0
  0
SPLINE
  5
15E
330
1F
100
AcDbEntity
  8
magstocklogo
 62
     7
100
AcDbSpline
210
0.0
220
0.0
230
1.0
 70
     8
 71
     3
 72
     8
 73
     4
 74
     0
 42
0.000000001
 43
0.0000001
 40
0.0
 40
0.0
 40
0.0
 40
0.0
 40
1.0
 40
1.0
 40
1.0
 40
1.0
 10
0.4403
 20
43.4406
 30
0.0
 10
0.4663
 20
43.9206
 30
0.0
 10
0.4933
 20
44.4006
 30
0.0
 10
0.5193
 20
44.8806
 30
0.0
  0
SPLINE
  5
15F
330
1F
100
AcDbEntity
  8
magstocklogo
 62
     7
100
AcDbSpline
210
0.0
220
0.0
230
1.0
 70
     8
 71
     3
 72
     8
 73
     4
 74
     0
 42
0.000000001
 43
0.0000001
 40
0.0
 40
0.0
 40
0.0
 40
0.0
 40
1.0
 40
1.0
 40
1.0
 40
1.0
 10
0.5193
 20
44.8806
 30
0.0
 10
0.8873
 20
45.3426
 30
0.0
 10
0.7113
 20
45.8846
 30
0.0
 10
0.7123
 20
46.3856
 30
0.0
  0
SPLINE
  5
160
330
1F
100
AcDbEntity
  8
magstocklogo
 62
     7
100
AcDbSpline
210
0.0
220
0.0
230
1.0
 70
     8
 71
     3
 72
     8
 73
     4
 74
     0
 42
0.000000001
 43
0.0000001
 40
0.0
 40
0.0
 40
0.0
 40
0.0
 40
1.0
 40
1.0
 40
1.0
 40
1.0
 10
0.7123
 20
46.3856
 30
0.0
 10
0.7213
 20
76.3396
 30
0.0
 10
0.7173
 20
106.2936
 30
0.0
 10
0.7293
 20
136.2476
 30
0.0
  0
SPLINE
  5
161
330
1F
100
AcDbEntity
  8
magstocklogo
 62
     7
100
AcDbSpline
210
0.0
220
0.0
230
1.0
 70
     8
 71
     3
 72
     8
 73
     4
 74
     0
 42
0.000000001
 43
0.0000001
 40
0.0
 40
0.0
 40
0.0
 40
0.0
 40
1.0
 40
1.0
 40
1.0
 40
1.0
 10
0.7293
 20
136.2476
 30
0.0
 10
0.7293
 20
137.7656
 30
0.0
 10
1.0293
 20
139.1936
 30
0.0
 10
1.8853
 20
140.5436
 30
0.0
  0
SPLINE
  5
162
330
1F
100
AcDbEntity
  8
magstocklogo
 62
     7
100
AcDbSpline
210
0.0
220
0.0
230
1.0
 70
     8
 71
     3
 72
     8
 73
     4
 74
     0
 42
0.000000001
 43
0.0000001
 40
0.0
 40
0.0
 40
0.0
 40
0.0
 40
1.0
 40
1.0
 40
1.0
 40
1.0
 10
1.8853
 20
140.5436
 30
0.0
 10
2.8513
 20
142.0666
 30
0.0
 10
4.2793
 20
142.3946
 30
0.0
 10
5.8563
 20
142.5546
 30
0.0
  0
SPLINE
  5
163
330
1F
100
AcDbEntity
  8
magstocklogo
 62
     7
100
AcDbSpline
210
0.0
220
0.0
230
1.0
 70
     8
 71
     3
 72
     8
 73
     4
 74
     0
 42
0.000000001
 43
0.0000001
 40
0.0
 40
0.0
 40
0.0
 40
0.0
 40
1.0
 40
1.0
 40
1.0
 40
1.0
 10
5.8563
 20
142.5546
 30
0.0
 10
6.1733
 20
142.5866
 30
0.0
 10
6.4953
 20
142.5596
 30
0.0
 10
6.8153
 20
142.5596
 30
0.0
  0
SPLINE
  5
164
330
1F
100
AcDbEntity
  8
magstocklogo
 62
     7
100
AcDbSpline
210
0.0
220
0.0
230
1.0
 70
     8
 71
     3
 72
     8
 73
     4
 74
     0
 42
0.000000001
 43
0.0000001
 40
0.0
 40
0.0
 40
0.0
 40
0.0
 40
1.0
 40
1.0
 40
1.0
 40
1.0
 10
6.8153
 20
142.5596
 30
0.0
 10
37.3693
 20
142.5596
 30
0.0
 10
67.9233
 20
142.5596
 30
0.0
 10
98.4773
 20
142.5616
 30
0.0
  0
SPLINE
  5
165
330
1F
100
AcDbEntity
  8
magstocklogo
 62
     7
100
AcDbSpline
210
0.0
220
0.0
230
1.0
 70
     8
 71
     3
 72
     8
 73
     4
 74
     0
 42
0.000000001
 43
0.0000001
 40
0.0
 40
0.0
 40
0.0
 40
0.0
 40
1.0
 40
1.0
 40
1.0
 40
1.0
 10
98.4773
 20
142.5616
 30
0.0
 10
99.0363
 20
142.5616
 30
0.0
 10
99.5963
 20
142.5846
 30
0.0
 10
100.1553
 20
142.5966
 30
0.0
  0
SPLINE
  5
166
330
1F
100
AcDbEntity
  8
magstocklogo
 62
     7
100
AcDbSpline
210
0.0
220
0.0
230
1.0
 70
     8
 71
     3
 72
     8
 73
     4
 74
     0
 42
0.000000001
 43
0.0000001
 40
0.0
 40
0.0
 40
0.0
 40
0.0
 40
1.0
 40
1.0
 40
1.0
 40
1.0
 10
100.1553
 20
142.5966
 30
0.0
 10
102.2913
 20
141.5076
 30
0.0
 10
102.9243
 20
139.5366
 30
0.0
 10
102.9293
 20
137.3906
 30
0.0
  0
SPLINE
  5
167
330
1F
100
AcDbEntity
  8
magstocklogo
 62
     7
100
AcDbSpline
210
0.0
220
0.0
230
1.0
 70
     8
 71
     3
 72
     8
 73
     4
 74
     0
 42
0.000000001
 43
0.0000001
 40
0.0
 40
0.0
 40
0.0
 40
0.0
 40
1.0
 40
1.0
 40
1.0
 40
1.0
 10
102.9293
 20
137.3906
 30
0.0
 10
102.9703
 20
121.8716
 30
0.0
 10
102.9483
 20
106.3536
 30
0.0
 10
102.9493
 20
90.8346
 30
0.0
  0
SPLINE
  5
168
330
1F
100
AcDbEntity
  8
magstocklogo
 62
     7
100
AcDbSpline
210
0.0
220
0.0
230
1.0
 70
     8
 71
     3
 72
     8
 73
     4
 74
     0
 42
0.000000001
 43
0.0000001
 40
0.0
 40
0.0
 40
0.0
 40
0.0
 40
1.0
 40
1.0
 40
1.0
 40
1.0
 10
102.9493
 20
90.8346
 30
0.0
 10
102.9493
 20
62.6376
 30
0.0
 10
102.9543
 20
34.4416
 30
0.0
 10
102.9413
 20
6.2446
 30
0.0
  0
SPLINE
  5
169
330
1F
100
AcDbEntity
  8
magstocklogo
 62
     7
100
AcDbSpline
210
0.0
220
0.0
230
1.0
 70
     8
 71
     3
 72
     8
 73
     4
 74
     0
 42
0.000000001
 43
0.0000001
 40
0.0
 40
0.0
 40
0.0
 40
0.0
 40
1.0
 40
1.0
 40
1.0
 40
1.0
 10
102.9413
 20
6.2446
 30
0.0
 10
102.9403
 20
5.3206
 30
0.0
 10
103.2113
 20
4.4546
 30
0.0
 10
103.0833
 20
3.4656
 30
0.0
  0
SPLINE
  5
16A
330
1F
100
AcDbEntity
  8
magstocklogo
 62
     7
100
AcDbSpline
210
0.0
220
0.0
230
1.0
 70
     8
 71
     3
 72
     8
 73
     4
 74
     0
 42
0.000000001
 43
0.0000001
 40
0.0
 40
0.0
 40
0.0
 40
0.0
 40
1.0
 40
1.0
 40
1.0
 40
1.0
 10
103.0833
 20
3.4656
 30
0.0
 10
102.9273
 20
2.2586
 30
0.0
 10
102.3573
 20
1.5036
 30
0.0
 10
101.6223
 20
0.7326
 30
0.0
  0
SPLINE
  5
16B
330
1F
100
AcDbEntity
  8
magstocklogo
 62
     7
100
AcDbSpline
210
0.0
220
0.0
230
1.0
 70
     8
 71
     3
 72
     8
 73
     4
 74
     0
 42
0.000000001
 43
0.0000001
 40
0.0
 40
0.0
 40
0.0
 40
0.0
 40
1.0
 40
1.0
 40
1.0
 40
1.0
 10
101.6223
 20
0.7326
 30
0.0
 10
101.3493
 20
0.4456
 30
0.0
 10
100.9923
 20
0.2746
 30
0.0
 10
100.5883
 20
0.2496
 30
0.0
  0
SPLINE
  5
16C
330
1F
100
AcDbEntity
  8
magstocklogo
 62
     7
100
AcDbSpline
210
0.0
220
0.0
230
1.0
 70
     8
 71
     3
 72
     8
 73
     4
 74
     0
 42
0.000000001
 43
0.0000001
 40
0.0
 40
0.0
 40
0.0
 40
0.0
 40
1.0
 40
1.0
 40
1.0
 40
1.0
 10
100.5883
 20
0.2496
 30
0.0
 10
99.0993
 20
0.1626
 30
0.0
 10
97.6193
 20
-0.0034
 30
0.0
 10
96.1213
 20
-0.0034
 30
0.0
  0
SPLINE
  5
16D
330
1F
100
AcDbEntity
  8
magstocklogo
 62
     7
100
AcDbSpline
210
0.0
220
0.0
230
1.0
 70
     8
 71
     3
 72
     8
 73
     4
 74
     0
 42
0.000000001
 43
0.0000001
 40
0.0
 40
0.0
 40
0.0
 40
0.0
 40
1.0
 40
1.0
 40
1.0
 40
1.0
 10
96.1213
 20
-0.0034
 30
0.0
 10
66.7233
 20
0.0106
 30
0.0
 10
37.3253
 20
-0.0014
 30
0.0
 10
7.9273
 20
0.0286
 30
0.0
  0
SPLINE
  5
16E
330
1F
100
AcDbEntity
  8
magstocklogo
 62
     7
100
AcDbSpline
210
0.0
220
0.0
230
1.0
 70
     8
 71
     3
 72
     8
 73
     4
 74
     0
 42
0.000000001
 43
0.0000001
 40
0.0
 40
0.0
 40
0.0
 40
0.0
 40
1.0
 40
1.0
 40
1.0
 40
1.0
 10
7.9273
 20
0.0286
 30
0.0
 10
6.2493
 20
0.0296
 30
0.0
 10
4.5653
 20
0.2866
 30
0.0
 10
2.8953
 20
0.5086
 30
0.0
  0
SPLINE
  5
16F
330
1F
100
AcDbEntity
  8
magstocklogo
 62
     7
100
AcDbSpline
210
0.0
220
0.0
230
1.0
 70
     8
 71
     3
 72
     8
 73
     4
 74
     0
 42
0.000000001
 43
0.0000001
 40
0.0
 40
0.0
 40
0.0
 40
0.0
 40
1.0
 40
1.0
 40
1.0
 40
1.0
 10
2.8953
 20
0.5086
 30
0.0
 10
1.9493
 20
0.6346
 30
0.0
 10
0.5753
 20
2.5716
 30
0.0
 10
0.4893
 20
3.7226
 30
0.0
  0
SPLINE
  5
170
330
1F
100
AcDbEntity
  8
magstocklogo
 62
     7
100
AcDbSpline
210
0.0
220
0.0
230
1.0
 70
     8
 71
     3
 72
     8
 73
     4
 74
     0
 42
0.000000001
 43
0.0000001
 40
0.0
 40
0.0
 40
0.0
 40
0.0
 40
1.0
 40
1.0
 40
1.0
 40
1.0
 10
0.4893
 20
3.7226
 30
0.0
 10
0.4683
 20
4.0006
 30
0.0
 10
0.4603
 20
4.2806
 30
0.0
 10
0.4453
 20
4.5586
 30
0.0
  0
SPLINE
  5
171
330
1F
100
AcDbEntity
  8
magstocklogo
 62
     7
100
AcDbSpline
210
0.0
220
0.0
230
1.0
 70
     8
 71
     3
 72
     8
 73
     4
 74
     0
 42
0.000000001
 43
0.0000001
 40
0.0
 40
0.0
 40
0.0
 40
0.0
 40
1.0
 40
1.0
 40
1.0
 40
1.0
 10
292.3018
 20
107.5889
 30
0.0
 10
290.8568
 20
104.0419
 30
0.0
 10
289.5438
 20
100.8029
 30
0.0
 10
288.2168
 20
97.5689
 30
0.0
  0
SPLINE
  5
172
330
1F
100
AcDbEntity
  8
magstocklogo
 62
     7
100
AcDbSpline
210
0.0
220
0.0
230
1.0
 70
     8
 71
     3
 72
     8
 73
     4
 74
     0
 42
0.000000001
 43
0.0000001
 40
0.0
 40
0.0
 40
0.0
 40
0.0
 40
1.0
 40
1.0
 40
1.0
 40
1.0
 10
288.2168
 20
97.5689
 30
0.0
 10
285.7398
 20
91.5349
 30
0.0
 10
283.2478
 20
85.5059
 30
0.0
 10
280.7748
 20
79.4709
 30
0.0
  0
SPLINE
  5
173
330
1F
100
AcDbEntity
  8
magstocklogo
 62
     7
100
AcDbSpline
210
0.0
220
0.0
230
1.0
 70
     8
 71
     3
 72
     8
 73
     4
 74
     0
 42
0.000000001
 43
0.0000001
 40
0.0
 40
0.0
 40
0.0
 40
0.0
 40
1.0
 40
1.0
 40
1.0
 40
1.0
 10
280.7748
 20
79.4709
 30
0.0
 10
278.3018
 20
73.4349
 30
0.0
 10
275.8428
 20
67.3939
 30
0.0
 10
273.3798
 20
61.3549
 30
0.0
  0
SPLINE
  5
174
330
1F
100
AcDbEntity
  8
magstocklogo
 62
     7
100
AcDbSpline
210
0.0
220
0.0
230
1.0
 70
     8
 71
     3
 72
     8
 73
     4
 74
     0
 42
0.000000001
 43
0.0000001
 40
0.0
 40
0.0
 40
0.0
 40
0.0
 40
1.0
 40
1.0
 40
1.0
 40
1.0
 10
273.3798
 20
61.3549
 30
0.0
 10
270.3908
 20
54.0269
 30
0.0
 10
267.4058
 20
46.6989
 30
0.0
 10
264.4178
 20
39.3709
 30
0.0
  0
SPLINE
  5
175
330
1F
100
AcDbEntity
  8
magstocklogo
 62
     7
100
AcDbSpline
210
0.0
220
0.0
230
1.0
 70
     8
 71
     3
 72
     8
 73
     4
 74
     0
 42
0.000000001
 43
0.0000001
 40
0.0
 40
0.0
 40
0.0
 40
0.0
 40
1.0
 40
1.0
 40
1.0
 40
1.0
 10
264.4178
 20
39.3709
 30
0.0
 10
264.3578
 20
39.2249
 30
0.0
 10
264.2758
 20
39.0859
 30
0.0
 10
264.2228
 20
38.9369
 30
0.0
  0
SPLINE
  5
176
330
1F
100
AcDbEntity
  8
magstocklogo
 62
     7
100
AcDbSpline
210
0.0
220
0.0
230
1.0
 70
     8
 71
     3
 72
     8
 73
     4
 74
     0
 42
0.000000001
 43
0.0000001
 40
0.0
 40
0.0
 40
0.0
 40
0.0
 40
1.0
 40
1.0
 40
1.0
 40
1.0
 10
264.2228
 20
38.9369
 30
0.0
 10
263.1808
 20
35.9999
 30
0.0
 10
263.1818
 20
36.0069
 30
0.0
 10
260.0878
 20
36.0069
 30
0.0
  0
SPLINE
  5
177
330
1F
100
AcDbEntity
  8
magstocklogo
 62
     7
100
AcDbSpline
210
0.0
220
0.0
230
1.0
 70
     8
 71
     3
 72
     8
 73
     4
 74
     0
 42
0.000000001
 43
0.0000001
 40
0.0
 40
0.0
 40
0.0
 40
0.0
 40
1.0
 40
1.0
 40
1.0
 40
1.0
 10
260.0878
 20
36.0069
 30
0.0
 10
235.8098
 20
36.0089
 30
0.0
 10
211.5308
 20
36.0149
 30
0.0
 10
187.2528
 20
35.9889
 30
0.0
  0
SPLINE
  5
178
330
1F
100
AcDbEntity
  8
magstocklogo
 62
     7
100
AcDbSpline
210
0.0
220
0.0
230
1.0
 70
     8
 71
     3
 72
     8
 73
     4
 74
     0
 42
0.000000001
 43
0.0000001
 40
0.0
 40
0.0
 40
0.0
 40
0.0
 40
1.0
 40
1.0
 40
1.0
 40
1.0
 10
187.2528
 20
35.9889
 30
0.0
 10
185.8078
 20
35.9879
 30
0.0
 10
184.9258
 20
36.6939
 30
0.0
 10
184.3718
 20
37.8579
 30
0.0
  0
SPLINE
  5
179
330
1F
100
AcDbEntity
  8
magstocklogo
 62
     7
100
AcDbSpline
210
0.0
220
0.0
230
1.0
 70
     8
 71
     3
 72
     8
 73
     4
 74
     0
 42
0.000000001
 43
0.0000001
 40
0.0
 40
0.0
 40
0.0
 40
0.0
 40
1.0
 40
1.0
 40
1.0
 40
1.0
 10
184.3718
 20
37.8579
 30
0.0
 10
180.3278
 20
46.3339
 30
0.0
 10
176.3198
 20
54.8269
 30
0.0
 10
172.2948
 20
63.3139
 30
0.0
  0
SPLINE
  5
17A
330
1F
100
AcDbEntity
  8
magstocklogo
 62
     7
100
AcDbSpline
210
0.0
220
0.0
230
1.0
 70
     8
 71
     3
 72
     8
 73
     4
 74
     0
 42
0.000000001
 43
0.0000001
 40
0.0
 40
0.0
 40
0.0
 40
0.0
 40
1.0
 40
1.0
 40
1.0
 40
1.0
 10
172.2948
 20
63.3139
 30
0.0
 10
165.9178
 20
76.7619
 30
0.0
 10
159.5378
 20
90.2089
 30
0.0
 10
153.1478
 20
103.6509
 30
0.0
  0
SPLINE
  5
17B
330
1F
100
AcDbEntity
  8
magstocklogo
 62
     7
100
AcDbSpline
210
0.0
220
0.0
230
1.0
 70
     8
 71
     3
 72
     8
 73
     4
 74
     0
 42
0.000000001
 43
0.0000001
 40
0.0
 40
0.0
 40
0.0
 40
0.0
 40
1.0
 40
1.0
 40
1.0
 40
1.0
 10
153.1478
 20
103.6509
 30
0.0
 10
152.9748
 20
104.0139
 30
0.0
 10
152.9498
 20
104.6439
 30
0.0
 10
152.4398
 20
104.6149
 30
0.0
  0
SPLINE
  5
17C
330
1F
100
AcDbEntity
  8
magstocklogo
 62
     7
100
AcDbSpline
210
0.0
220
0.0
230
1.0
 70
     8
 71
     3
 72
     8
 73
     4
 74
     0
 42
0.000000001
 43
0.0000001
 40
0.0
 40
0.0
 40
0.0
 40
0.0
 40
1.0
 40
1.0
 40
1.0
 40
1.0
 10
152.4398
 20
104.6149
 30
0.0
 10
152.0268
 20
104.5919
 30
0.0
 10
152.0088
 20
104.0089
 30
0.0
 10
151.8518
 20
103.6539
 30
0.0
  0
SPLINE
  5
17D
330
1F
100
AcDbEntity
  8
magstocklogo
 62
     7
100
AcDbSpline
210
0.0
220
0.0
230
1.0
 70
     8
 71
     3
 72
     8
 73
     4
 74
     0
 42
0.000000001
 43
0.0000001
 40
0.0
 40
0.0
 40
0.0
 40
0.0
 40
1.0
 40
1.0
 40
1.0
 40
1.0
 10
151.8518
 20
103.6539
 30
0.0
 10
147.5358
 20
93.8529
 30
0.0
 10
143.2188
 20
84.0509
 30
0.0
 10
138.9058
 20
74.2479
 30
0.0
  0
SPLINE
  5
17E
330
1F
100
AcDbEntity
  8
magstocklogo
 62
     7
100
AcDbSpline
210
0.0
220
0.0
230
1.0
 70
     8
 71
     3
 72
     8
 73
     4
 74
     0
 42
0.000000001
 43
0.0000001
 40
0.0
 40
0.0
 40
0.0
 40
0.0
 40
1.0
 40
1.0
 40
1.0
 40
1.0
 10
138.9058
 20
74.2479
 30
0.0
 10
135.3348
 20
66.1299
 30
0.0
 10
131.7638
 20
58.0119
 30
0.0
 10
128.2008
 20
49.8909
 30
0.0
  0
SPLINE
  5
17F
330
1F
100
AcDbEntity
  8
magstocklogo
 62
     7
100
AcDbSpline
210
0.0
220
0.0
230
1.0
 70
     8
 71
     3
 72
     8
 73
     4
 74
     0
 42
0.000000001
 43
0.0000001
 40
0.0
 40
0.0
 40
0.0
 40
0.0
 40
1.0
 40
1.0
 40
1.0
 40
1.0
 10
128.2008
 20
49.8909
 30
0.0
 10
126.5588
 20
46.1499
 30
0.0
 10
125.0438
 20
42.3469
 30
0.0
 10
123.2458
 20
38.6829
 30
0.0
  0
SPLINE
  5
180
330
1F
100
AcDbEntity
  8
magstocklogo
 62
     7
100
AcDbSpline
210
0.0
220
0.0
230
1.0
 70
     8
 71
     3
 72
     8
 73
     4
 74
     0
 42
0.000000001
 43
0.0000001
 40
0.0
 40
0.0
 40
0.0
 40
0.0
 40
1.0
 40
1.0
 40
1.0
 40
1.0
 10
123.2458
 20
38.6829
 30
0.0
 10
122.5618
 20
37.2879
 30
0.0
 10
121.4938
 20
36.0999
 30
0.0
 10
119.4278
 20
36.1909
 30
0.0
  0
SPLINE
  5
181
330
1F
100
AcDbEntity
  8
magstocklogo
 62
     7
100
AcDbSpline
210
0.0
220
0.0
230
1.0
 70
     8
 71
     3
 72
     8
 73
     4
 74
     0
 42
0.000000001
 43
0.0000001
 40
0.0
 40
0.0
 40
0.0
 40
0.0
 40
1.0
 40
1.0
 40
1.0
 40
1.0
 10
119.4278
 20
36.1909
 30
0.0
 10
115.1568
 20
36.3789
 30
0.0
 10
110.8708
 20
36.2649
 30
0.0
 10
106.5918
 20
36.2319
 30
0.0
  0
SPLINE
  5
182
330
1F
100
AcDbEntity
  8
magstocklogo
 62
     7
100
AcDbSpline
210
0.0
220
0.0
230
1.0
 70
     8
 71
     3
 72
     8
 73
     4
 74
     0
 42
0.000000001
 43
0.0000001
 40
0.0
 40
0.0
 40
0.0
 40
0.0
 40
1.0
 40
1.0
 40
1.0
 40
1.0
 10
106.5918
 20
36.2319
 30
0.0
 10
105.8468
 20
36.2259
 30
0.0
 10
105.5558
 20
36.3629
 30
0.0
 10
105.5868
 20
37.1909
 30
0.0
  0
SPLINE
  5
183
330
1F
100
AcDbEntity
  8
magstocklogo
 62
     7
100
AcDbSpline
210
0.0
220
0.0
230
1.0
 70
     8
 71
     3
 72
     8
 73
     4
 74
     0
 42
0.000000001
 43
0.0000001
 40
0.0
 40
0.0
 40
0.0
 40
0.0
 40
1.0
 40
1.0
 40
1.0
 40
1.0
 10
105.5868
 20
37.1909
 30
0.0
 10
105.6558
 20
39.0679
 30
0.0
 10
105.6408
 20
40.9499
 30
0.0
 10
105.5938
 20
42.8289
 30
0.0
  0
SPLINE
  5
184
330
1F
100
AcDbEntity
  8
magstocklogo
 62
     7
100
AcDbSpline
210
0.0
220
0.0
230
1.0
 70
     8
 71
     3
 72
     8
 73
     4
 74
     0
 42
0.000000001
 43
0.0000001
 40
0.0
 40
0.0
 40
0.0
 40
0.0
 40
1.0
 40
1.0
 40
1.0
 40
1.0
 10
105.5938
 20
42.8289
 30
0.0
 10
105.5758
 20
43.5219
 30
0.0
 10
105.7968
 20
43.6959
 30
0.0
 10
106.4648
 20
43.6869
 30
0.0
  0
SPLINE
  5
185
330
1F
100
AcDbEntity
  8
magstocklogo
 62
     7
100
AcDbSpline
210
0.0
220
0.0
230
1.0
 70
     8
 71
     3
 72
     8
 73
     4
 74
     0
 42
0.000000001
 43
0.0000001
 40
0.0
 40
0.0
 40
0.0
 40
0.0
 40
1.0
 40
1.0
 40
1.0
 40
1.0
 10
106.4648
 20
43.6869
 30
0.0
 10
108.9038
 20
43.6499
 30
0.0
 10
111.3438
 20
43.6729
 30
0.0
 10
113.7838
 20
43.6719
 30
0.0
  0
SPLINE
  5
186
330
1F
100
AcDbEntity
  8
magstocklogo
 62
     7
100
AcDbSpline
210
0.0
220
0.0
230
1.0
 70
     8
 71
     3
 72
     8
 73
     4
 74
     0
 42
0.000000001
 43
0.0000001
 40
0.0
 40
0.0
 40
0.0
 40
0.0
 40
1.0
 40
1.0
 40
1.0
 40
1.0
 10
113.7838
 20
43.6719
 30
0.0
 10
116.8818
 20
43.6709
 30
0.0
 10
117.0408
 20
43.7759
 30
0.0
 10
118.1998
 20
46.5389
 30
0.0
  0
SPLINE
  5
187
330
1F
100
AcDbEntity
  8
magstocklogo
 62
     7
100
AcDbSpline
210
0.0
220
0.0
230
1.0
 70
     8
 71
     3
 72
     8
 73
     4
 74
     0
 42
0.000000001
 43
0.0000001
 40
0.0
 40
0.0
 40
0.0
 40
0.0
 40
1.0
 40
1.0
 40
1.0
 40
1.0
 10
118.1998
 20
46.5389
 30
0.0
 10
120.8648
 20
52.8909
 30
0.0
 10
123.5088
 20
59.2499
 30
0.0
 10
126.1998
 20
65.5909
 30
0.0
  0
SPLINE
  5
188
330
1F
100
AcDbEntity
  8
magstocklogo
 62
     7
100
AcDbSpline
210
0.0
220
0.0
230
1.0
 70
     8
 71
     3
 72
     8
 73
     4
 74
     0
 42
0.000000001
 43
0.0000001
 40
0.0
 40
0.0
 40
0.0
 40
0.0
 40
1.0
 40
1.0
 40
1.0
 40
1.0
 10
126.1998
 20
65.5909
 30
0.0
 10
132.3358
 20
80.0499
 30
0.0
 10
138.4988
 20
94.4979
 30
0.0
 10
144.6418
 20
108.9549
 30
0.0
  0
SPLINE
  5
189
330
1F
100
AcDbEntity
  8
magstocklogo
 62
     7
100
AcDbSpline
210
0.0
220
0.0
230
1.0
 70
     8
 71
     3
 72
     8
 73
     4
 74
     0
 42
0.000000001
 43
0.0000001
 40
0.0
 40
0.0
 40
0.0
 40
0.0
 40
1.0
 40
1.0
 40
1.0
 40
1.0
 10
144.6418
 20
108.9549
 30
0.0
 10
146.2138
 20
112.6519
 30
0.0
 10
147.7218
 20
116.3759
 30
0.0
 10
149.3278
 20
120.0589
 30
0.0
  0
SPLINE
  5
18A
330
1F
100
AcDbEntity
  8
magstocklogo
 62
     7
100
AcDbSpline
210
0.0
220
0.0
230
1.0
 70
     8
 71
     3
 72
     8
 73
     4
 74
     0
 42
0.000000001
 43
0.0000001
 40
0.0
 40
0.0
 40
0.0
 40
0.0
 40
1.0
 40
1.0
 40
1.0
 40
1.0
 10
149.3278
 20
120.0589
 30
0.0
 10
149.5998
 20
120.6839
 30
0.0
 10
150.1488
 20
121.2469
 30
0.0
 10
150.6938
 20
121.6819
 30
0.0
  0
SPLINE
  5
18B
330
1F
100
AcDbEntity
  8
magstocklogo
 62
     7
100
AcDbSpline
210
0.0
220
0.0
230
1.0
 70
     8
 71
     3
 72
     8
 73
     4
 74
     0
 42
0.000000001
 43
0.0000001
 40
0.0
 40
0.0
 40
0.0
 40
0.0
 40
1.0
 40
1.0
 40
1.0
 40
1.0
 10
150.6938
 20
121.6819
 30
0.0
 10
151.4138
 20
122.2559
 30
0.0
 10
152.0658
 20
121.9239
 30
0.0
 10
152.6728
 20
121.3039
 30
0.0
  0
SPLINE
  5
18C
330
1F
100
AcDbEntity
  8
magstocklogo
 62
     7
100
AcDbSpline
210
0.0
220
0.0
230
1.0
 70
     8
 71
     3
 72
     8
 73
     4
 74
     0
 42
0.000000001
 43
0.0000001
 40
0.0
 40
0.0
 40
0.0
 40
0.0
 40
1.0
 40
1.0
 40
1.0
 40
1.0
 10
152.6728
 20
121.3039
 30
0.0
 10
153.9578
 20
119.9899
 30
0.0
 10
154.6638
 20
118.3339
 30
0.0
 10
155.4638
 20
116.7359
 30
0.0
  0
SPLINE
  5
18D
330
1F
100
AcDbEntity
  8
magstocklogo
 62
     7
100
AcDbSpline
210
0.0
220
0.0
230
1.0
 70
     8
 71
     3
 72
     8
 73
     4
 74
     0
 42
0.000000001
 43
0.0000001
 40
0.0
 40
0.0
 40
0.0
 40
0.0
 40
1.0
 40
1.0
 40
1.0
 40
1.0
 10
155.4638
 20
116.7359
 30
0.0
 10
160.3768
 20
106.9169
 30
0.0
 10
165.2598
 20
97.0819
 30
0.0
 10
170.1778
 20
87.2639
 30
0.0
  0
SPLINE
  5
18E
330
1F
100
AcDbEntity
  8
magstocklogo
 62
     7
100
AcDbSpline
210
0.0
220
0.0
230
1.0
 70
     8
 71
     3
 72
     8
 73
     4
 74
     0
 42
0.000000001
 43
0.0000001
 40
0.0
 40
0.0
 40
0.0
 40
0.0
 40
1.0
 40
1.0
 40
1.0
 40
1.0
 10
170.1778
 20
87.2639
 30
0.0
 10
175.0128
 20
77.6109
 30
0.0
 10
179.8788
 20
67.9729
 30
0.0
 10
184.7278
 20
58.3269
 30
0.0
  0
SPLINE
  5
18F
330
1F
100
AcDbEntity
  8
magstocklogo
 62
     7
100
AcDbSpline
210
0.0
220
0.0
230
1.0
 70
     8
 71
     3
 72
     8
 73
     4
 74
     0
 42
0.000000001
 43
0.0000001
 40
0.0
 40
0.0
 40
0.0
 40
0.0
 40
1.0
 40
1.0
 40
1.0
 40
1.0
 10
184.7278
 20
58.3269
 30
0.0
 10
186.9818
 20
53.8419
 30
0.0
 10
189.2488
 20
49.3629
 30
0.0
 10
191.4568
 20
44.8559
 30
0.0
  0
SPLINE
  5
190
330
1F
100
AcDbEntity
  8
magstocklogo
 62
     7
100
AcDbSpline
210
0.0
220
0.0
230
1.0
 70
     8
 71
     3
 72
     8
 73
     4
 74
     0
 42
0.000000001
 43
0.0000001
 40
0.0
 40
0.0
 40
0.0
 40
0.0
 40
1.0
 40
1.0
 40
1.0
 40
1.0
 10
191.4568
 20
44.8559
 30
0.0
 10
191.8098
 20
44.1349
 30
0.0
 10
192.1838
 20
43.8899
 30
0.0
 10
192.9868
 20
43.8909
 30
0.0
  0
SPLINE
  5
191
330
1F
100
AcDbEntity
  8
magstocklogo
 62
     7
100
AcDbSpline
210
0.0
220
0.0
230
1.0
 70
     8
 71
     3
 72
     8
 73
     4
 74
     0
 42
0.000000001
 43
0.0000001
 40
0.0
 40
0.0
 40
0.0
 40
0.0
 40
1.0
 40
1.0
 40
1.0
 40
1.0
 10
192.9868
 20
43.8909
 30
0.0
 10
214.3048
 20
43.9159
 30
0.0
 10
235.6238
 20
43.9169
 30
0.0
 10
256.9428
 20
43.8889
 30
0.0
  0
SPLINE
  5
192
330
1F
100
AcDbEntity
  8
magstocklogo
 62
     7
100
AcDbSpline
210
0.0
220
0.0
230
1.0
 70
     8
 71
     3
 72
     8
 73
     4
 74
     0
 42
0.000000001
 43
0.0000001
 40
0.0
 40
0.0
 40
0.0
 40
0.0
 40
1.0
 40
1.0
 40
1.0
 40
1.0
 10
256.9428
 20
43.8889
 30
0.0
 10
257.7708
 20
43.8879
 30
0.0
 10
258.1338
 20
44.1579
 30
0.0
 10
258.4268
 20
44.8809
 30
0.0
  0
SPLINE
  5
193
330
1F
100
AcDbEntity
  8
magstocklogo
 62
     7
100
AcDbSpline
210
0.0
220
0.0
230
1.0
 70
     8
 71
     3
 72
     8
 73
     4
 74
     0
 42
0.000000001
 43
0.0000001
 40
0.0
 40
0.0
 40
0.0
 40
0.0
 40
1.0
 40
1.0
 40
1.0
 40
1.0
 10
258.4268
 20
44.8809
 30
0.0
 10
262.7358
 20
55.4989
 30
0.0
 10
267.0598
 20
66.1119
 30
0.0
 10
271.3968
 20
76.7199
 30
0.0
  0
SPLINE
  5
194
330
1F
100
AcDbEntity
  8
magstocklogo
 62
     7
100
AcDbSpline
210
0.0
220
0.0
230
1.0
 70
     8
 71
     3
 72
     8
 73
     4
 74
     0
 42
0.000000001
 43
0.0000001
 40
0.0
 40
0.0
 40
0.0
 40
0.0
 40
1.0
 40
1.0
 40
1.0
 40
1.0
 10
271.3968
 20
76.7199
 30
0.0
 10
275.7138
 20
87.2799
 30
0.0
 10
280.0498
 20
97.8319
 30
0.0
 10
284.3768
 20
108.3879
 30
0.0
  0
SPLINE
  5
195
330
1F
100
AcDbEntity
  8
magstocklogo
 62
     7
100
AcDbSpline
210
0.0
220
0.0
230
1.0
 70
     8
 71
     3
 72
     8
 73
     4
 74
     0
 42
0.000000001
 43
0.0000001
 40
0.0
 40
0.0
 40
0.0
 40
0.0
 40
1.0
 40
1.0
 40
1.0
 40
1.0
 10
284.3768
 20
108.3879
 30
0.0
 10
285.9888
 20
112.3209
 30
0.0
 10
287.6138
 20
116.2489
 30
0.0
 10
289.1968
 20
120.1929
 30
0.0
  0
SPLINE
  5
196
330
1F
100
AcDbEntity
  8
magstocklogo
 62
     7
100
AcDbSpline
210
0.0
220
0.0
230
1.0
 70
     8
 71
     3
 72
     8
 73
     4
 74
     0
 42
0.000000001
 43
0.0000001
 40
0.0
 40
0.0
 40
0.0
 40
0.0
 40
1.0
 40
1.0
 40
1.0
 40
1.0
 10
289.1968
 20
120.1929
 30
0.0
 10
289.5628
 20
121.1049
 30
0.0
 10
290.1708
 20
121.8439
 30
0.0
 10
290.7768
 20
122.5549
 30
0.0
  0
SPLINE
  5
197
330
1F
100
AcDbEntity
  8
magstocklogo
 62
     7
100
AcDbSpline
210
0.0
220
0.0
230
1.0
 70
     8
 71
     3
 72
     8
 73
     4
 74
     0
 42
0.000000001
 43
0.0000001
 40
0.0
 40
0.0
 40
0.0
 40
0.0
 40
1.0
 40
1.0
 40
1.0
 40
1.0
 10
290.7768
 20
122.5549
 30
0.0
 10
291.7788
 20
123.7299
 30
0.0
 10
293.1068
 20
123.4629
 30
0.0
 10
293.8648
 20
121.9659
 30
0.0
  0
SPLINE
  5
198
330
1F
100
AcDbEntity
  8
magstocklogo
 62
     7
100
AcDbSpline
210
0.0
220
0.0
230
1.0
 70
     8
 71
     3
 72
     8
 73
     4
 74
     0
 42
0.000000001
 43
0.0000001
 40
0.0
 40
0.0
 40
0.0
 40
0.0
 40
1.0
 40
1.0
 40
1.0
 40
1.0
 10
293.8648
 20
121.9659
 30
0.0
 10
296.1698
 20
117.4139
 30
0.0
 10
298.4428
 20
112.8469
 30
0.0
 10
300.7198
 20
108.2809
 30
0.0
  0
SPLINE
  5
199
330
1F
100
AcDbEntity
  8
magstocklogo
 62
     7
100
AcDbSpline
210
0.0
220
0.0
230
1.0
 70
     8
 71
     3
 72
     8
 73
     4
 74
     0
 42
0.000000001
 43
0.0000001
 40
0.0
 40
0.0
 40
0.0
 40
0.0
 40
1.0
 40
1.0
 40
1.0
 40
1.0
 10
300.7198
 20
108.2809
 30
0.0
 10
304.5038
 20
100.6949
 30
0.0
 10
308.2868
 20
93.1099
 30
0.0
 10
312.0598
 20
85.5189
 30
0.0
  0
SPLINE
  5
19A
330
1F
100
AcDbEntity
  8
magstocklogo
 62
     7
100
AcDbSpline
210
0.0
220
0.0
230
1.0
 70
     8
 71
     3
 72
     8
 73
     4
 74
     0
 42
0.000000001
 43
0.0000001
 40
0.0
 40
0.0
 40
0.0
 40
0.0
 40
1.0
 40
1.0
 40
1.0
 40
1.0
 10
312.0598
 20
85.5189
 30
0.0
 10
316.1178
 20
77.3519
 30
0.0
 10
320.1618
 20
69.1779
 30
0.0
 10
324.2148
 20
61.0069
 30
0.0
  0
SPLINE
  5
19B
330
1F
100
AcDbEntity
  8
magstocklogo
 62
     7
100
AcDbSpline
210
0.0
220
0.0
230
1.0
 70
     8
 71
     3
 72
     8
 73
     4
 74
     0
 42
0.000000001
 43
0.0000001
 40
0.0
 40
0.0
 40
0.0
 40
0.0
 40
1.0
 40
1.0
 40
1.0
 40
1.0
 10
324.2148
 20
61.0069
 30
0.0
 10
326.9738
 20
55.4459
 30
0.0
 10
329.7458
 20
49.8909
 30
0.0
 10
332.4848
 20
44.3189
 30
0.0
  0
SPLINE
  5
19C
330
1F
100
AcDbEntity
  8
magstocklogo
 62
     7
100
AcDbSpline
210
0.0
220
0.0
230
1.0
 70
     8
 71
     3
 72
     8
 73
     4
 74
     0
 42
0.000000001
 43
0.0000001
 40
0.0
 40
0.0
 40
0.0
 40
0.0
 40
1.0
 40
1.0
 40
1.0
 40
1.0
 10
332.4848
 20
44.3189
 30
0.0
 10
332.8008
 20
43.6749
 30
0.0
 10
333.2668
 20
43.6639
 30
0.0
 10
333.8468
 20
43.6649
 30
0.0
  0
SPLINE
  5
19D
330
1F
100
AcDbEntity
  8
magstocklogo
 62
     7
100
AcDbSpline
210
0.0
220
0.0
230
1.0
 70
     8
 71
     3
 72
     8
 73
     4
 74
     0
 42
0.000000001
 43
0.0000001
 40
0.0
 40
0.0
 40
0.0
 40
0.0
 40
1.0
 40
1.0
 40
1.0
 40
1.0
 10
333.8468
 20
43.6649
 30
0.0
 10
343.9658
 20
43.6739
 30
0.0
 10
354.0848
 20
43.6719
 30
0.0
 10
364.2048
 20
43.6719
 30
0.0
  0
SPLINE
  5
19E
330
1F
100
AcDbEntity
  8
magstocklogo
 62
     7
100
AcDbSpline
210
0.0
220
0.0
230
1.0
 70
     8
 71
     3
 72
     8
 73
     4
 74
     0
 42
0.000000001
 43
0.0000001
 40
0.0
 40
0.0
 40
0.0
 40
0.0
 40
1.0
 40
1.0
 40
1.0
 40
1.0
 10
364.2048
 20
43.6719
 30
0.0
 10
375.1238
 20
43.6719
 30
0.0
 10
386.0438
 20
43.6889
 30
0.0
 10
396.9628
 20
43.6449
 30
0.0
  0
SPLINE
  5
19F
330
1F
100
AcDbEntity
  8
magstocklogo
 62
     7
100
AcDbSpline
210
0.0
220
0.0
230
1.0
 70
     8
 71
     3
 72
     8
 73
     4
 74
     0
 42
0.000000001
 43
0.0000001
 40
0.0
 40
0.0
 40
0.0
 40
0.0
 40
1.0
 40
1.0
 40
1.0
 40
1.0
 10
396.9628
 20
43.6449
 30
0.0
 10
397.9878
 20
43.6409
 30
0.0
 10
398.3908
 20
43.9989
 30
0.0
 10
398.7548
 20
44.8999
 30
0.0
  0
SPLINE
  5
1A0
330
1F
100
AcDbEntity
  8
magstocklogo
 62
     7
100
AcDbSpline
210
0.0
220
0.0
230
1.0
 70
     8
 71
     3
 72
     8
 73
     4
 74
     0
 42
0.000000001
 43
0.0000001
 40
0.0
 40
0.0
 40
0.0
 40
0.0
 40
1.0
 40
1.0
 40
1.0
 40
1.0
 10
398.7548
 20
44.8999
 30
0.0
 10
404.0358
 20
57.9249
 30
0.0
 10
409.3728
 20
70.9279
 30
0.0
 10
414.6628
 20
83.9489
 30
0.0
  0
SPLINE
  5
1A1
330
1F
100
AcDbEntity
  8
magstocklogo
 62
     7
100
AcDbSpline
210
0.0
220
0.0
230
1.0
 70
     8
 71
     3
 72
     8
 73
     4
 74
     0
 42
0.000000001
 43
0.0000001
 40
0.0
 40
0.0
 40
0.0
 40
0.0
 40
1.0
 40
1.0
 40
1.0
 40
1.0
 10
414.6628
 20
83.9489
 30
0.0
 10
419.4278
 20
95.6759
 30
0.0
 10
424.1508
 20
107.4189
 30
0.0
 10
428.8938
 20
119.1529
 30
0.0
  0
SPLINE
  5
1A2
330
1F
100
AcDbEntity
  8
magstocklogo
 62
     7
100
AcDbSpline
210
0.0
220
0.0
230
1.0
 70
     8
 71
     3
 72
     8
 73
     4
 74
     0
 42
0.000000001
 43
0.0000001
 40
0.0
 40
0.0
 40
0.0
 40
0.0
 40
1.0
 40
1.0
 40
1.0
 40
1.0
 10
428.8938
 20
119.1529
 30
0.0
 10
429.5908
 20
120.8779
 30
0.0
 10
430.3228
 20
122.5879
 30
0.0
 10
430.9948
 20
124.3209
 30
0.0
  0
SPLINE
  5
1A3
330
1F
100
AcDbEntity
  8
magstocklogo
 62
     7
100
AcDbSpline
210
0.0
220
0.0
230
1.0
 70
     8
 71
     3
 72
     8
 73
     4
 74
     0
 42
0.000000001
 43
0.0000001
 40
0.0
 40
0.0
 40
0.0
 40
0.0
 40
1.0
 40
1.0
 40
1.0
 40
1.0
 10
430.9948
 20
124.3209
 30
0.0
 10
431.2848
 20
125.0689
 30
0.0
 10
431.7418
 20
125.5259
 30
0.0
 10
432.5468
 20
125.6029
 30
0.0
  0
SPLINE
  5
1A4
330
1F
100
AcDbEntity
  8
magstocklogo
 62
     7
100
AcDbSpline
210
0.0
220
0.0
230
1.0
 70
     8
 71
     3
 72
     8
 73
     4
 74
     0
 42
0.000000001
 43
0.0000001
 40
0.0
 40
0.0
 40
0.0
 40
0.0
 40
1.0
 40
1.0
 40
1.0
 40
1.0
 10
432.5468
 20
125.6029
 30
0.0
 10
433.3428
 20
125.6779
 30
0.0
 10
433.8528
 20
125.2169
 30
0.0
 10
434.1618
 20
124.5879
 30
0.0
  0
SPLINE
  5
1A5
330
1F
100
AcDbEntity
  8
magstocklogo
 62
     7
100
AcDbSpline
210
0.0
220
0.0
230
1.0
 70
     8
 71
     3
 72
     8
 73
     4
 74
     0
 42
0.000000001
 43
0.0000001
 40
0.0
 40
0.0
 40
0.0
 40
0.0
 40
1.0
 40
1.0
 40
1.0
 40
1.0
 10
434.1618
 20
124.5879
 30
0.0
 10
435.3798
 20
122.1109
 30
0.0
 10
436.5438
 20
119.6079
 30
0.0
 10
437.7468
 20
117.1229
 30
0.0
  0
SPLINE
  5
1A6
330
1F
100
AcDbEntity
  8
magstocklogo
 62
     7
100
AcDbSpline
210
0.0
220
0.0
230
1.0
 70
     8
 71
     3
 72
     8
 73
     4
 74
     0
 42
0.000000001
 43
0.0000001
 40
0.0
 40
0.0
 40
0.0
 40
0.0
 40
1.0
 40
1.0
 40
1.0
 40
1.0
 10
437.7468
 20
117.1229
 30
0.0
 10
444.6278
 20
102.9129
 30
0.0
 10
451.5118
 20
88.7039
 30
0.0
 10
458.3998
 20
74.4969
 30
0.0
  0
SPLINE
  5
1A7
330
1F
100
AcDbEntity
  8
magstocklogo
 62
     7
100
AcDbSpline
210
0.0
220
0.0
230
1.0
 70
     8
 71
     3
 72
     8
 73
     4
 74
     0
 42
0.000000001
 43
0.0000001
 40
0.0
 40
0.0
 40
0.0
 40
0.0
 40
1.0
 40
1.0
 40
1.0
 40
1.0
 10
458.3998
 20
74.4969
 30
0.0
 10
462.9188
 20
65.1739
 30
0.0
 10
467.5748
 20
55.9149
 30
0.0
 10
471.8818
 20
46.4949
 30
0.0
  0
SPLINE
  5
1A8
330
1F
100
AcDbEntity
  8
magstocklogo
 62
     7
100
AcDbSpline
210
0.0
220
0.0
230
1.0
 70
     8
 71
     3
 72
     8
 73
     4
 74
     0
 42
0.000000001
 43
0.0000001
 40
0.0
 40
0.0
 40
0.0
 40
0.0
 40
1.0
 40
1.0
 40
1.0
 40
1.0
 10
471.8818
 20
46.4949
 30
0.0
 10
473.0438
 20
43.9519
 30
0.0
 10
474.3728
 20
43.2809
 30
0.0
 10
477.0138
 20
43.3619
 30
0.0
  0
SPLINE
  5
1A9
330
1F
100
AcDbEntity
  8
magstocklogo
 62
     7
100
AcDbSpline
210
0.0
220
0.0
230
1.0
 70
     8
 71
     3
 72
     8
 73
     4
 74
     0
 42
0.000000001
 43
0.0000001
 40
0.0
 40
0.0
 40
0.0
 40
0.0
 40
1.0
 40
1.0
 40
1.0
 40
1.0
 10
477.0138
 20
43.3619
 30
0.0
 10
483.8078
 20
43.5699
 30
0.0
 10
490.6118
 20
43.4509
 30
0.0
 10
497.4108
 20
43.4079
 30
0.0
  0
SPLINE
  5
1AA
330
1F
100
AcDbEntity
  8
magstocklogo
 62
     7
100
AcDbSpline
210
0.0
220
0.0
230
1.0
 70
     8
 71
     3
 72
     8
 73
     4
 74
     0
 42
0.000000001
 43
0.0000001
 40
0.0
 40
0.0
 40
0.0
 40
0.0
 40
1.0
 40
1.0
 40
1.0
 40
1.0
 10
497.4108
 20
43.4079
 30
0.0
 10
498.3188
 20
43.4019
 30
0.0
 10
498.5178
 20
43.6339
 30
0.0
 10
498.5118
 20
44.5209
 30
0.0
  0
SPLINE
  5
1AB
330
1F
100
AcDbEntity
  8
magstocklogo
 62
     7
100
AcDbSpline
210
0.0
220
0.0
230
1.0
 70
     8
 71
     3
 72
     8
 73
     4
 74
     0
 42
0.000000001
 43
0.0000001
 40
0.0
 40
0.0
 40
0.0
 40
0.0
 40
1.0
 40
1.0
 40
1.0
 40
1.0
 10
498.5118
 20
44.5209
 30
0.0
 10
498.4688
 20
50.5199
 30
0.0
 10
498.5058
 20
56.5199
 30
0.0
 10
498.4698
 20
62.5199
 30
0.0
  0
SPLINE
  5
1AC
330
1F
100
AcDbEntity
  8
magstocklogo
 62
     7
100
AcDbSpline
210
0.0
220
0.0
230
1.0
 70
     8
 71
     3
 72
     8
 73
     4
 74
     0
 42
0.000000001
 43
0.0000001
 40
0.0
 40
0.0
 40
0.0
 40
0.0
 40
1.0
 40
1.0
 40
1.0
 40
1.0
 10
498.4698
 20
62.5199
 30
0.0
 10
498.4638
 20
63.3719
 30
0.0
 10
498.6108
 20
63.6839
 30
0.0
 10
499.5548
 20
63.6519
 30
0.0
  0
SPLINE
  5
1AD
330
1F
100
AcDbEntity
  8
magstocklogo
 62
     7
100
AcDbSpline
210
0.0
220
0.0
230
1.0
 70
     8
 71
     3
 72
     8
 73
     4
 74
     0
 42
0.000000001
 43
0.0000001
 40
0.0
 40
0.0
 40
0.0
 40
0.0
 40
1.0
 40
1.0
 40
1.0
 40
1.0
 10
499.5548
 20
63.6519
 30
0.0
 10
501.9918
 20
63.5729
 30
0.0
 10
504.4348
 20
63.5969
 30
0.0
 10
506.8728
 20
63.6449
 30
0.0
  0
SPLINE
  5
1AE
330
1F
100
AcDbEntity
  8
magstocklogo
 62
     7
100
AcDbSpline
210
0.0
220
0.0
230
1.0
 70
     8
 71
     3
 72
     8
 73
     4
 74
     0
 42
0.000000001
 43
0.0000001
 40
0.0
 40
0.0
 40
0.0
 40
0.0
 40
1.0
 40
1.0
 40
1.0
 40
1.0
 10
506.8728
 20
63.6449
 30
0.0
 10
507.6578
 20
63.6599
 30
0.0
 10
507.9978
 20
63.5419
 30
0.0
 10
507.9618
 20
62.6329
 30
0.0
  0
SPLINE
  5
1AF
330
1F
100
AcDbEntity
  8
magstocklogo
 62
     7
100
AcDbSpline
210
0.0
220
0.0
230
1.0
 70
     8
 71
     3
 72
     8
 73
     4
 74
     0
 42
0.000000001
 43
0.0000001
 40
0.0
 40
0.0
 40
0.0
 40
0.0
 40
1.0
 40
1.0
 40
1.0
 40
1.0
 10
507.9618
 20
62.6329
 30
0.0
 10
507.8858
 20
60.7569
 30
0.0
 10
507.9298
 20
58.8749
 30
0.0
 10
507.9638
 20
56.9959
 30
0.0
  0
SPLINE
  5
1B0
330
1F
100
AcDbEntity
  8
magstocklogo
 62
     7
100
AcDbSpline
210
0.0
220
0.0
230
1.0
 70
     8
 71
     3
 72
     8
 73
     4
 74
     0
 42
0.000000001
 43
0.0000001
 40
0.0
 40
0.0
 40
0.0
 40
0.0
 40
1.0
 40
1.0
 40
1.0
 40
1.0
 10
507.9638
 20
56.9959
 30
0.0
 10
507.9768
 20
56.3439
 30
0.0
 10
507.7898
 20
56.0009
 30
0.0
 10
507.0928
 20
56.1339
 30
0.0
  0
SPLINE
  5
1B1
330
1F
100
AcDbEntity
  8
magstocklogo
 62
     7
100
AcDbSpline
210
0.0
220
0.0
230
1.0
 70
     8
 71
     3
 72
     8
 73
     4
 74
     0
 42
0.000000001
 43
0.0000001
 40
0.0
 40
0.0
 40
0.0
 40
0.0
 40
1.0
 40
1.0
 40
1.0
 40
1.0
 10
507.0928
 20
56.1339
 30
0.0
 10
506.2528
 20
56.2929
 30
0.0
 10
506.1358
 20
55.8739
 30
0.0
 10
506.1388
 20
55.1419
 30
0.0
  0
SPLINE
  5
1B2
330
1F
100
AcDbEntity
  8
magstocklogo
 62
     7
100
AcDbSpline
210
0.0
220
0.0
230
1.0
 70
     8
 71
     3
 72
     8
 73
     4
 74
     0
 42
0.000000001
 43
0.0000001
 40
0.0
 40
0.0
 40
0.0
 40
0.0
 40
1.0
 40
1.0
 40
1.0
 40
1.0
 10
506.1388
 20
55.1419
 30
0.0
 10
506.1648
 20
49.1819
 30
0.0
 10
506.1298
 20
43.2219
 30
0.0
 10
506.1758
 20
37.2629
 30
0.0
  0
SPLINE
  5
1B3
330
1F
100
AcDbEntity
  8
magstocklogo
 62
     7
100
AcDbSpline
210
0.0
220
0.0
230
1.0
 70
     8
 71
     3
 72
     8
 73
     4
 74
     0
 42
0.000000001
 43
0.0000001
 40
0.0
 40
0.0
 40
0.0
 40
0.0
 40
1.0
 40
1.0
 40
1.0
 40
1.0
 10
506.1758
 20
37.2629
 30
0.0
 10
506.1838
 20
36.2379
 30
0.0
 10
506.0118
 20
35.8699
 30
0.0
 10
504.8588
 20
35.8749
 30
0.0
  0
SPLINE
  5
1B4
330
1F
100
AcDbEntity
  8
magstocklogo
 62
     7
100
AcDbSpline
210
0.0
220
0.0
230
1.0
 70
     8
 71
     3
 72
     8
 73
     4
 74
     0
 42
0.000000001
 43
0.0000001
 40
0.0
 40
0.0
 40
0.0
 40
0.0
 40
1.0
 40
1.0
 40
1.0
 40
1.0
 10
504.8588
 20
35.8749
 30
0.0
 10
492.7388
 20
35.9249
 30
0.0
 10
480.6198
 20
35.9189
 30
0.0
 10
468.5008
 20
35.8829
 30
0.0
  0
SPLINE
  5
1B5
330
1F
100
AcDbEntity
  8
magstocklogo
 62
     7
100
AcDbSpline
210
0.0
220
0.0
230
1.0
 70
     8
 71
     3
 72
     8
 73
     4
 74
     0
 42
0.000000001
 43
0.0000001
 40
0.0
 40
0.0
 40
0.0
 40
0.0
 40
1.0
 40
1.0
 40
1.0
 40
1.0
 10
468.5008
 20
35.8829
 30
0.0
 10
467.4558
 20
35.8799
 30
0.0
 10
466.9248
 20
36.3009
 30
0.0
 10
466.5008
 20
37.1659
 30
0.0
  0
SPLINE
  5
1B6
330
1F
100
AcDbEntity
  8
magstocklogo
 62
     7
100
AcDbSpline
210
0.0
220
0.0
230
1.0
 70
     8
 71
     3
 72
     8
 73
     4
 74
     0
 42
0.000000001
 43
0.0000001
 40
0.0
 40
0.0
 40
0.0
 40
0.0
 40
1.0
 40
1.0
 40
1.0
 40
1.0
 10
466.5008
 20
37.1659
 30
0.0
 10
460.6398
 20
49.1189
 30
0.0
 10
454.7568
 20
61.0609
 30
0.0
 10
448.8928
 20
73.0119
 30
0.0
  0
SPLINE
  5
1B7
330
1F
100
AcDbEntity
  8
magstocklogo
 62
     7
100
AcDbSpline
210
0.0
220
0.0
230
1.0
 70
     8
 71
     3
 72
     8
 73
     4
 74
     0
 42
0.000000001
 43
0.0000001
 40
0.0
 40
0.0
 40
0.0
 40
0.0
 40
1.0
 40
1.0
 40
1.0
 40
1.0
 10
448.8928
 20
73.0119
 30
0.0
 10
443.9488
 20
83.0849
 30
0.0
 10
439.0238
 20
93.1669
 30
0.0
 10
434.0778
 20
103.2379
 30
0.0
  0
SPLINE
  5
1B8
330
1F
100
AcDbEntity
  8
magstocklogo
 62
     7
100
AcDbSpline
210
0.0
220
0.0
230
1.0
 70
     8
 71
     3
 72
     8
 73
     4
 74
     0
 42
0.000000001
 43
0.0000001
 40
0.0
 40
0.0
 40
0.0
 40
0.0
 40
1.0
 40
1.0
 40
1.0
 40
1.0
 10
434.0778
 20
103.2379
 30
0.0
 10
433.9148
 20
103.5709
 30
0.0
 10
433.8628
 20
104.1549
 30
0.0
 10
433.4178
 20
104.1199
 30
0.0
  0
SPLINE
  5
1B9
330
1F
100
AcDbEntity
  8
magstocklogo
 62
     7
100
AcDbSpline
210
0.0
220
0.0
230
1.0
 70
     8
 71
     3
 72
     8
 73
     4
 74
     0
 42
0.000000001
 43
0.0000001
 40
0.0
 40
0.0
 40
0.0
 40
0.0
 40
1.0
 40
1.0
 40
1.0
 40
1.0
 10
433.4178
 20
104.1199
 30
0.0
 10
433.0248
 20
104.0889
 30
0.0
 10
433.0028
 20
103.5209
 30
0.0
 10
432.8558
 20
103.1759
 30
0.0
  0
SPLINE
  5
1BA
330
1F
100
AcDbEntity
  8
magstocklogo
 62
     7
100
AcDbSpline
210
0.0
220
0.0
230
1.0
 70
     8
 71
     3
 72
     8
 73
     4
 74
     0
 42
0.000000001
 43
0.0000001
 40
0.0
 40
0.0
 40
0.0
 40
0.0
 40
1.0
 40
1.0
 40
1.0
 40
1.0
 10
432.8558
 20
103.1759
 30
0.0
 10
429.0338
 20
94.2019
 30
0.0
 10
425.2278
 20
85.2219
 30
0.0
 10
421.4018
 20
76.2499
 30
0.0
  0
SPLINE
  5
1BB
330
1F
100
AcDbEntity
  8
magstocklogo
 62
     7
100
AcDbSpline
210
0.0
220
0.0
230
1.0
 70
     8
 71
     3
 72
     8
 73
     4
 74
     0
 42
0.000000001
 43
0.0000001
 40
0.0
 40
0.0
 40
0.0
 40
0.0
 40
1.0
 40
1.0
 40
1.0
 40
1.0
 10
421.4018
 20
76.2499
 30
0.0
 10
416.7808
 20
65.4149
 30
0.0
 10
412.1288
 20
54.5959
 30
0.0
 10
407.5308
 20
43.7519
 30
0.0
  0
SPLINE
  5
1BC
330
1F
100
AcDbEntity
  8
magstocklogo
 62
     7
100
AcDbSpline
210
0.0
220
0.0
230
1.0
 70
     8
 71
     3
 72
     8
 73
     4
 74
     0
 42
0.000000001
 43
0.0000001
 40
0.0
 40
0.0
 40
0.0
 40
0.0
 40
1.0
 40
1.0
 40
1.0
 40
1.0
 10
407.5308
 20
43.7519
 30
0.0
 10
406.5588
 20
41.4559
 30
0.0
 10
405.4058
 20
39.2259
 30
0.0
 10
404.7728
 20
36.7949
 30
0.0
  0
SPLINE
  5
1BD
330
1F
100
AcDbEntity
  8
magstocklogo
 62
     7
100
AcDbSpline
210
0.0
220
0.0
230
1.0
 70
     8
 71
     3
 72
     8
 73
     4
 74
     0
 42
0.000000001
 43
0.0000001
 40
0.0
 40
0.0
 40
0.0
 40
0.0
 40
1.0
 40
1.0
 40
1.0
 40
1.0
 10
404.7728
 20
36.7949
 30
0.0
 10
404.6648
 20
36.3859
 30
0.0
 10
404.4838
 20
36.1819
 30
0.0
 10
404.0358
 20
36.2409
 30
0.0
  0
SPLINE
  5
1BE
330
1F
100
AcDbEntity
  8
magstocklogo
 62
     7
100
AcDbSpline
210
0.0
220
0.0
230
1.0
 70
     8
 71
     3
 72
     8
 73
     4
 74
     0
 42
0.000000001
 43
0.0000001
 40
0.0
 40
0.0
 40
0.0
 40
0.0
 40
1.0
 40
1.0
 40
1.0
 40
1.0
 10
404.0358
 20
36.2409
 30
0.0
 10
403.7608
 20
36.2769
 30
0.0
 10
403.4768
 20
36.2469
 30
0.0
 10
403.1968
 20
36.2469
 30
0.0
  0
SPLINE
  5
1BF
330
1F
100
AcDbEntity
  8
magstocklogo
 62
     7
100
AcDbSpline
210
0.0
220
0.0
230
1.0
 70
     8
 71
     3
 72
     8
 73
     4
 74
     0
 42
0.000000001
 43
0.0000001
 40
0.0
 40
0.0
 40
0.0
 40
0.0
 40
1.0
 40
1.0
 40
1.0
 40
1.0
 10
403.1968
 20
36.2469
 30
0.0
 10
378.9178
 20
36.2469
 30
0.0
 10
354.6388
 20
36.3069
 30
0.0
 10
330.3608
 20
36.1639
 30
0.0
  0
SPLINE
  5
1C0
330
1F
100
AcDbEntity
  8
magstocklogo
 62
     7
100
AcDbSpline
210
0.0
220
0.0
230
1.0
 70
     8
 71
     3
 72
     8
 73
     4
 74
     0
 42
0.000000001
 43
0.0000001
 40
0.0
 40
0.0
 40
0.0
 40
0.0
 40
1.0
 40
1.0
 40
1.0
 40
1.0
 10
330.3608
 20
36.1639
 30
0.0
 10
327.6758
 20
36.1489
 30
0.0
 10
326.3578
 20
36.9759
 30
0.0
 10
325.3578
 20
39.3059
 30
0.0
  0
SPLINE
  5
1C1
330
1F
100
AcDbEntity
  8
magstocklogo
 62
     7
100
AcDbSpline
210
0.0
220
0.0
230
1.0
 70
     8
 71
     3
 72
     8
 73
     4
 74
     0
 42
0.000000001
 43
0.0000001
 40
0.0
 40
0.0
 40
0.0
 40
0.0
 40
1.0
 40
1.0
 40
1.0
 40
1.0
 10
325.3578
 20
39.3059
 30
0.0
 10
323.9298
 20
42.6329
 30
0.0
 10
322.2168
 20
45.8389
 30
0.0
 10
320.6358
 20
49.1009
 30
0.0
  0
SPLINE
  5
1C2
330
1F
100
AcDbEntity
  8
magstocklogo
 62
     7
100
AcDbSpline
210
0.0
220
0.0
230
1.0
 70
     8
 71
     3
 72
     8
 73
     4
 74
     0
 42
0.000000001
 43
0.0000001
 40
0.0
 40
0.0
 40
0.0
 40
0.0
 40
1.0
 40
1.0
 40
1.0
 40
1.0
 10
320.6358
 20
49.1009
 30
0.0
 10
317.5268
 20
55.5149
 30
0.0
 10
314.4238
 20
61.9309
 30
0.0
 10
311.3208
 20
68.3479
 30
0.0
  0
SPLINE
  5
1C3
330
1F
100
AcDbEntity
  8
magstocklogo
 62
     7
100
AcDbSpline
210
0.0
220
0.0
230
1.0
 70
     8
 71
     3
 72
     8
 73
     4
 74
     0
 42
0.000000001
 43
0.0000001
 40
0.0
 40
0.0
 40
0.0
 40
0.0
 40
1.0
 40
1.0
 40
1.0
 40
1.0
 10
311.3208
 20
68.3479
 30
0.0
 10
307.4908
 20
76.2659
 30
0.0
 10
303.6618
 20
84.1829
 30
0.0
 10
299.8378
 20
92.1039
 30
0.0
  0
SPLINE
  5
1C4
330
1F
100
AcDbEntity
  8
magstocklogo
 62
     7
100
AcDbSpline
210
0.0
220
0.0
230
1.0
 70
     8
 71
     3
 72
     8
 73
     4
 74
     0
 42
0.000000001
 43
0.0000001
 40
0.0
 40
0.0
 40
0.0
 40
0.0
 40
1.0
 40
1.0
 40
1.0
 40
1.0
 10
299.8378
 20
92.1039
 30
0.0
 10
297.5538
 20
96.8339
 30
0.0
 10
295.2828
 20
101.5699
 30
0.0
 10
293.0018
 20
106.3019
 30
0.0
  0
SPLINE
  5
1C5
330
1F
100
AcDbEntity
  8
magstocklogo
 62
     7
100
AcDbSpline
210
0.0
220
0.0
230
1.0
 70
     8
 71
     3
 72
     8
 73
     4
 74
     0
 42
0.000000001
 43
0.0000001
 40
0.0
 40
0.0
 40
0.0
 40
0.0
 40
1.0
 40
1.0
 40
1.0
 40
1.0
 10
293.0018
 20
106.3019
 30
0.0
 10
292.8348
 20
106.6489
 30
0.0
 10
292.6348
 20
106.9789
 30
0.0
 10
292.3018
 20
107.5889
 30
0.0
  0
LWPOLYLINE
  5
1C6
330
1F
100
AcDbEntity
  8
magstocklogo
 62
     7
100
AcDbPolyline
 90
        5
 70
     1
 43
0.0
 10
640.8005
 20
62.6397
 10
640.8005
 20
60.4797
 10
640.7035
 20
60.4567
 10
640.6035
 20
60.4697
 10
640.6035
 20
60.4697
  0
SPLINE
  5
1C7
330
1F
100
AcDbEntity
  8
magstocklogo
 62
     7
100
AcDbSpline
210
0.0
220
0.0
230
1.0
 70
     8
 71
     3
 72
     8
 73
     4
 74
     0
 42
0.000000001
 43
0.0000001
 40
0.0
 40
0.0
 40
0.0
 40
0.0
 40
1.0
 40
1.0
 40
1.0
 40
1.0
 10
576.0361
 20
-0.1574
 30
0.0
 10
574.2471
 20
1.6686
 30
0.0
 10
572.6801
 20
3.2976
 30
0.0
 10
571.0821
 20
4.8966
 30
0.0
  0
SPLINE
  5
1C8
330
1F
100
AcDbEntity
  8
magstocklogo
 62
     7
100
AcDbSpline
210
0.0
220
0.0
230
1.0
 70
     8
 71
     3
 72
     8
 73
     4
 74
     0
 42
0.000000001
 43
0.0000001
 40
0.0
 40
0.0
 40
0.0
 40
0.0
 40
1.0
 40
1.0
 40
1.0
 40
1.0
 10
571.0821
 20
4.8966
 30
0.0
 10
558.6161
 20
17.3706
 30
0.0
 10
546.1461
 20
29.8386
 30
0.0
 10
533.6661
 20
42.2976
 30
0.0
  0
SPLINE
  5
1C9
330
1F
100
AcDbEntity
  8
magstocklogo
 62
     7
100
AcDbSpline
210
0.0
220
0.0
230
1.0
 70
     8
 71
     3
 72
     8
 73
     4
 74
     0
 42
0.000000001
 43
0.0000001
 40
0.0
 40
0.0
 40
0.0
 40
0.0
 40
1.0
 40
1.0
 40
1.0
 40
1.0
 10
533.6661
 20
42.2976
 30
0.0
 10
533.2091
 20
42.7536
 30
0.0
 10
532.9971
 20
43.2046
 30
0.0
 10
532.9991
 20
43.8636
 30
0.0
  0
SPLINE
  5
1CA
330
1F
100
AcDbEntity
  8
magstocklogo
 62
     7
100
AcDbSpline
210
0.0
220
0.0
230
1.0
 70
     8
 71
     3
 72
     8
 73
     4
 74
     0
 42
0.000000001
 43
0.0000001
 40
0.0
 40
0.0
 40
0.0
 40
0.0
 40
1.0
 40
1.0
 40
1.0
 40
1.0
 10
532.9991
 20
43.8636
 30
0.0
 10
533.0181
 20
55.3816
 30
0.0
 10
533.0171
 20
66.8996
 30
0.0
 10
533.0041
 20
78.4176
 30
0.0
  0
SPLINE
  5
1CB
330
1F
100
AcDbEntity
  8
magstocklogo
 62
     7
100
AcDbSpline
210
0.0
220
0.0
230
1.0
 70
     8
 71
     3
 72
     8
 73
     4
 74
     0
 42
0.000000001
 43
0.0000001
 40
0.0
 40
0.0
 40
0.0
 40
0.0
 40
1.0
 40
1.0
 40
1.0
 40
1.0
 10
533.0041
 20
78.4176
 30
0.0
 10
533.0041
 20
79.0126
 30
0.0
 10
533.1411
 20
79.4536
 30
0.0
 10
533.5791
 20
79.8896
 30
0.0
  0
SPLINE
  5
1CC
330
1F
100
AcDbEntity
  8
magstocklogo
 62
     7
100
AcDbSpline
210
0.0
220
0.0
230
1.0
 70
     8
 71
     3
 72
     8
 73
     4
 74
     0
 42
0.000000001
 43
0.0000001
 40
0.0
 40
0.0
 40
0.0
 40
0.0
 40
1.0
 40
1.0
 40
1.0
 40
1.0
 10
533.5791
 20
79.8896
 30
0.0
 10
547.5341
 20
93.8166
 30
0.0
 10
561.4761
 20
107.7556
 30
0.0
 10
575.4121
 20
121.7026
 30
0.0
  0
SPLINE
  5
1CD
330
1F
100
AcDbEntity
  8
magstocklogo
 62
     7
100
AcDbSpline
210
0.0
220
0.0
230
1.0
 70
     8
 71
     3
 72
     8
 73
     4
 74
     0
 42
0.000000001
 43
0.0000001
 40
0.0
 40
0.0
 40
0.0
 40
0.0
 40
1.0
 40
1.0
 40
1.0
 40
1.0
 10
575.4121
 20
121.7026
 30
0.0
 10
575.5681
 20
121.8596
 30
0.0
 10
575.6071
 20
122.1336
 30
0.0
 10
575.7011
 20
122.3526
 30
0.0
  0
SPLINE
  5
1CE
330
1F
100
AcDbEntity
  8
magstocklogo
 62
     7
100
AcDbSpline
210
0.0
220
0.0
230
1.0
 70
     8
 71
     3
 72
     8
 73
     4
 74
     0
 42
0.000000001
 43
0.0000001
 40
0.0
 40
0.0
 40
0.0
 40
0.0
 40
1.0
 40
1.0
 40
1.0
 40
1.0
 10
575.7011
 20
122.3526
 30
0.0
 10
575.8121
 20
122.2476
 30
0.0
 10
575.9251
 20
122.1426
 30
0.0
 10
576.0361
 20
122.0386
 30
0.0
  0
SPLINE
  5
1CF
330
1F
100
AcDbEntity
  8
magstocklogo
 62
     7
100
AcDbSpline
210
0.0
220
0.0
230
1.0
 70
     8
 71
     3
 72
     8
 73
     4
 74
     0
 42
0.000000001
 43
0.0000001
 40
0.0
 40
0.0
 40
0.0
 40
0.0
 40
1.0
 40
1.0
 40
1.0
 40
1.0
 10
530.4033
 20
61.21
 30
0.0
 10
530.4033
 20
55.574
 30
0.0
 10
530.3873
 20
49.939
 30
0.0
 10
530.4203
 20
44.303
 30
0.0
  0
SPLINE
  5
1D0
330
1F
100
AcDbEntity
  8
magstocklogo
 62
     7
100
AcDbSpline
210
0.0
220
0.0
230
1.0
 70
     8
 71
     3
 72
     8
 73
     4
 74
     0
 42
0.000000001
 43
0.0000001
 40
0.0
 40
0.0
 40
0.0
 40
0.0
 40
1.0
 40
1.0
 40
1.0
 40
1.0
 10
530.4203
 20
44.303
 30
0.0
 10
530.4243
 20
43.48
 30
0.0
 10
530.3253
 20
43.138
 30
0.0
 10
529.3513
 20
43.147
 30
0.0
  0
SPLINE
  5
1D1
330
1F
100
AcDbEntity
  8
magstocklogo
 62
     7
100
AcDbSpline
210
0.0
220
0.0
230
1.0
 70
     8
 71
     3
 72
     8
 73
     4
 74
     0
 42
0.000000001
 43
0.0000001
 40
0.0
 40
0.0
 40
0.0
 40
0.0
 40
1.0
 40
1.0
 40
1.0
 40
1.0
 10
529.3513
 20
43.147
 30
0.0
 10
523.4363
 20
43.2
 30
0.0
 10
517.5203
 20
43.186
 30
0.0
 10
511.6053
 20
43.153
 30
0.0
  0
SPLINE
  5
1D2
330
1F
100
AcDbEntity
  8
magstocklogo
 62
     7
100
AcDbSpline
210
0.0
220
0.0
230
1.0
 70
     8
 71
     3
 72
     8
 73
     4
 74
     0
 42
0.000000001
 43
0.0000001
 40
0.0
 40
0.0
 40
0.0
 40
0.0
 40
1.0
 40
1.0
 40
1.0
 40
1.0
 10
511.6053
 20
43.153
 30
0.0
 10
510.8393
 20
43.149
 30
0.0
 10
510.6023
 20
43.342
 30
0.0
 10
510.6043
 20
44.132
 30
0.0
  0
SPLINE
  5
1D3
330
1F
100
AcDbEntity
  8
magstocklogo
 62
     7
100
AcDbSpline
210
0.0
220
0.0
230
1.0
 70
     8
 71
     3
 72
     8
 73
     4
 74
     0
 42
0.000000001
 43
0.0000001
 40
0.0
 40
0.0
 40
0.0
 40
0.0
 40
1.0
 40
1.0
 40
1.0
 40
1.0
 10
510.6043
 20
44.132
 30
0.0
 10
510.6293
 20
55.523
 30
0.0
 10
510.6293
 20
66.915
 30
0.0
 10
510.6013
 20
78.306
 30
0.0
  0
SPLINE
  5
1D4
330
1F
100
AcDbEntity
  8
magstocklogo
 62
     7
100
AcDbSpline
210
0.0
220
0.0
230
1.0
 70
     8
 71
     3
 72
     8
 73
     4
 74
     0
 42
0.000000001
 43
0.0000001
 40
0.0
 40
0.0
 40
0.0
 40
0.0
 40
1.0
 40
1.0
 40
1.0
 40
1.0
 10
510.6013
 20
78.306
 30
0.0
 10
510.5993
 20
79.087
 30
0.0
 10
510.8583
 20
79.21
 30
0.0
 10
511.5553
 20
79.207
 30
0.0
  0
SPLINE
  5
1D5
330
1F
100
AcDbEntity
  8
magstocklogo
 62
     7
100
AcDbSpline
210
0.0
220
0.0
230
1.0
 70
     8
 71
     3
 72
     8
 73
     4
 74
     0
 42
0.000000001
 43
0.0000001
 40
0.0
 40
0.0
 40
0.0
 40
0.0
 40
1.0
 40
1.0
 40
1.0
 40
1.0
 10
511.5553
 20
79.207
 30
0.0
 10
517.5103
 20
79.181
 30
0.0
 10
523.4663
 20
79.169
 30
0.0
 10
529.4223
 20
79.215
 30
0.0
  0
SPLINE
  5
1D6
330
1F
100
AcDbEntity
  8
magstocklogo
 62
     7
100
AcDbSpline
210
0.0
220
0.0
230
1.0
 70
     8
 71
     3
 72
     8
 73
     4
 74
     0
 42
0.000000001
 43
0.0000001
 40
0.0
 40
0.0
 40
0.0
 40
0.0
 40
1.0
 40
1.0
 40
1.0
 40
1.0
 10
529.4223
 20
79.215
 30
0.0
 10
530.3353
 20
79.222
 30
0.0
 10
530.4233
 20
78.884
 30
0.0
 10
530.4193
 20
78.117
 30
0.0
  0
SPLINE
  5
1D7
330
1F
100
AcDbEntity
  8
magstocklogo
 62
     7
100
AcDbSpline
210
0.0
220
0.0
230
1.0
 70
     8
 71
     3
 72
     8
 73
     4
 74
     0
 42
0.000000001
 43
0.0000001
 40
0.0
 40
0.0
 40
0.0
 40
0.0
 40
1.0
 40
1.0
 40
1.0
 40
1.0
 10
530.4193
 20
78.117
 30
0.0
 10
530.3883
 20
72.481
 30
0.0
 10
530.4033
 20
66.846
 30
0.0
 10
530.4033
 20
61.21
 30
0.0
  0
SPLINE
  5
1D8
330
1F
100
AcDbEntity
  8
magstocklogo
 62
     7
100
AcDbSpline
210
0.0
220
0.0
230
1.0
 70
     8
 71
     3
 72
     8
 73
     4
 74
     0
 42
0.000000001
 43
0.0000001
 40
0.0
 40
0.0
 40
0.0
 40
0.0
 40
1.0
 40
1.0
 40
1.0
 40
1.0
 10
284.0444
 20
28.3418
 30
0.0
 10
288.1644
 20
28.3418
 30
0.0
 10
292.2844
 20
28.3688
 30
0.0
 10
296.4044
 20
28.3308
 30
0.0
  0
SPLINE
  5
1D9
330
1F
100
AcDbEntity
  8
magstocklogo
 62
     7
100
AcDbSpline
210
0.0
220
0.0
230
1.0
 70
     8
 71
     3
 72
     8
 73
     4
 74
     0
 42
0.000000001
 43
0.0000001
 40
0.0
 40
0.0
 40
0.0
 40
0.0
 40
1.0
 40
1.0
 40
1.0
 40
1.0
 10
296.4044
 20
28.3308
 30
0.0
 10
298.7754
 20
28.3098
 30
0.0
 10
300.1484
 20
26.2088
 30
0.0
 10
299.2664
 20
24.0258
 30
0.0
  0
SPLINE
  5
1DA
330
1F
100
AcDbEntity
  8
magstocklogo
 62
     7
100
AcDbSpline
210
0.0
220
0.0
230
1.0
 70
     8
 71
     3
 72
     8
 73
     4
 74
     0
 42
0.000000001
 43
0.0000001
 40
0.0
 40
0.0
 40
0.0
 40
0.0
 40
1.0
 40
1.0
 40
1.0
 40
1.0
 10
299.2664
 20
24.0258
 30
0.0
 10
298.8474
 20
22.9908
 30
0.0
 10
298.1154
 20
22.3008
 30
0.0
 10
296.9334
 20
22.2838
 30
0.0
  0
SPLINE
  5
1DB
330
1F
100
AcDbEntity
  8
magstocklogo
 62
     7
100
AcDbSpline
210
0.0
220
0.0
230
1.0
 70
     8
 71
     3
 72
     8
 73
     4
 74
     0
 42
0.000000001
 43
0.0000001
 40
0.0
 40
0.0
 40
0.0
 40
0.0
 40
1.0
 40
1.0
 40
1.0
 40
1.0
 10
296.9334
 20
22.2838
 30
0.0
 10
294.5744
 20
22.2508
 30
0.0
 10
292.2154
 20
22.2308
 30
0.0
 10
289.8564
 20
22.2268
 30
0.0
  0
SPLINE
  5
1DC
330
1F
100
AcDbEntity
  8
magstocklogo
 62
     7
100
AcDbSpline
210
0.0
220
0.0
230
1.0
 70
     8
 71
     3
 72
     8
 73
     4
 74
     0
 42
0.000000001
 43
0.0000001
 40
0.0
 40
0.0
 40
0.0
 40
0.0
 40
1.0
 40
1.0
 40
1.0
 40
1.0
 10
289.8564
 20
22.2268
 30
0.0
 10
285.2564
 20
22.2178
 30
0.0
 10
280.6564
 20
22.1998
 30
0.0
 10
276.0574
 20
22.2438
 30
0.0
  0
SPLINE
  5
1DD
330
1F
100
AcDbEntity
  8
magstocklogo
 62
     7
100
AcDbSpline
210
0.0
220
0.0
230
1.0
 70
     8
 71
     3
 72
     8
 73
     4
 74
     0
 42
0.000000001
 43
0.0000001
 40
0.0
 40
0.0
 40
0.0
 40
0.0
 40
1.0
 40
1.0
 40
1.0
 40
1.0
 10
276.0574
 20
22.2438
 30
0.0
 10
275.1124
 20
22.2538
 30
0.0
 10
274.7384
 20
22.0848
 30
0.0
 10
274.7734
 20
21.0228
 30
0.0
  0
SPLINE
  5
1DE
330
1F
100
AcDbEntity
  8
magstocklogo
 62
     7
100
AcDbSpline
210
0.0
220
0.0
230
1.0
 70
     8
 71
     3
 72
     8
 73
     4
 74
     0
 42
0.000000001
 43
0.0000001
 40
0.0
 40
0.0
 40
0.0
 40
0.0
 40
1.0
 40
1.0
 40
1.0
 40
1.0
 10
274.7734
 20
21.0228
 30
0.0
 10
274.8554
 20
18.4838
 30
0.0
 10
274.7944
 20
18.4818
 30
0.0
 10
277.3254
 20
18.4818
 30
0.0
  0
SPLINE
  5
1DF
330
1F
100
AcDbEntity
  8
magstocklogo
 62
     7
100
AcDbSpline
210
0.0
220
0.0
230
1.0
 70
     8
 71
     3
 72
     8
 73
     4
 74
     0
 42
0.000000001
 43
0.0000001
 40
0.0
 40
0.0
 40
0.0
 40
0.0
 40
1.0
 40
1.0
 40
1.0
 40
1.0
 10
277.3254
 20
18.4818
 30
0.0
 10
283.5254
 20
18.4818
 30
0.0
 10
289.7254
 20
18.4868
 30
0.0
 10
295.9254
 20
18.4798
 30
0.0
  0
SPLINE
  5
1E0
330
1F
100
AcDbEntity
  8
magstocklogo
 62
     7
100
AcDbSpline
210
0.0
220
0.0
230
1.0
 70
     8
 71
     3
 72
     8
 73
     4
 74
     0
 42
0.000000001
 43
0.0000001
 40
0.0
 40
0.0
 40
0.0
 40
0.0
 40
1.0
 40
1.0
 40
1.0
 40
1.0
 10
295.9254
 20
18.4798
 30
0.0
 10
298.6324
 20
18.4768
 30
0.0
 10
299.5144
 20
17.6058
 30
0.0
 10
299.5204
 20
14.9378
 30
0.0
  0
SPLINE
  5
1E1
330
1F
100
AcDbEntity
  8
magstocklogo
 62
     7
100
AcDbSpline
210
0.0
220
0.0
230
1.0
 70
     8
 71
     3
 72
     8
 73
     4
 74
     0
 42
0.000000001
 43
0.0000001
 40
0.0
 40
0.0
 40
0.0
 40
0.0
 40
1.0
 40
1.0
 40
1.0
 40
1.0
 10
299.5204
 20
14.9378
 30
0.0
 10
299.5284
 20
11.8578
 30
0.0
 10
299.5334
 20
8.7788
 30
0.0
 10
299.5184
 20
5.6978
 30
0.0
  0
SPLINE
  5
1E2
330
1F
100
AcDbEntity
  8
magstocklogo
 62
     7
100
AcDbSpline
210
0.0
220
0.0
230
1.0
 70
     8
 71
     3
 72
     8
 73
     4
 74
     0
 42
0.000000001
 43
0.0000001
 40
0.0
 40
0.0
 40
0.0
 40
0.0
 40
1.0
 40
1.0
 40
1.0
 40
1.0
 10
299.5184
 20
5.6978
 30
0.0
 10
299.5074
 20
3.3768
 30
0.0
 10
298.5604
 20
2.4068
 30
0.0
 10
296.2684
 20
2.4048
 30
0.0
  0
SPLINE
  5
1E3
330
1F
100
AcDbEntity
  8
magstocklogo
 62
     7
100
AcDbSpline
210
0.0
220
0.0
230
1.0
 70
     8
 71
     3
 72
     8
 73
     4
 74
     0
 42
0.000000001
 43
0.0000001
 40
0.0
 40
0.0
 40
0.0
 40
0.0
 40
1.0
 40
1.0
 40
1.0
 40
1.0
 10
296.2684
 20
2.4048
 30
0.0
 10
288.1484
 20
2.3948
 30
0.0
 10
280.0284
 20
2.4038
 30
0.0
 10
271.9084
 20
2.4028
 30
0.0
  0
SPLINE
  5
1E4
330
1F
100
AcDbEntity
  8
magstocklogo
 62
     7
100
AcDbSpline
210
0.0
220
0.0
230
1.0
 70
     8
 71
     3
 72
     8
 73
     4
 74
     0
 42
0.000000001
 43
0.0000001
 40
0.0
 40
0.0
 40
0.0
 40
0.0
 40
1.0
 40
1.0
 40
1.0
 40
1.0
 10
271.9084
 20
2.4028
 30
0.0
 10
270.6204
 20
2.4028
 30
0.0
 10
269.5344
 20
2.7928
 30
0.0
 10
269.0174
 20
4.0698
 30
0.0
  0
SPLINE
  5
1E5
330
1F
100
AcDbEntity
  8
magstocklogo
 62
     7
100
AcDbSpline
210
0.0
220
0.0
230
1.0
 70
     8
 71
     3
 72
     8
 73
     4
 74
     0
 42
0.000000001
 43
0.0000001
 40
0.0
 40
0.0
 40
0.0
 40
0.0
 40
1.0
 40
1.0
 40
1.0
 40
1.0
 10
269.0174
 20
4.0698
 30
0.0
 10
268.5104
 20
5.3218
 30
0.0
 10
268.5714
 20
6.5528
 30
0.0
 10
269.4714
 20
7.6458
 30
0.0
  0
SPLINE
  5
1E6
330
1F
100
AcDbEntity
  8
magstocklogo
 62
     7
100
AcDbSpline
210
0.0
220
0.0
230
1.0
 70
     8
 71
     3
 72
     8
 73
     4
 74
     0
 42
0.000000001
 43
0.0000001
 40
0.0
 40
0.0
 40
0.0
 40
0.0
 40
1.0
 40
1.0
 40
1.0
 40
1.0
 10
269.4714
 20
7.6458
 30
0.0
 10
270.2084
 20
8.5398
 30
0.0
 10
271.2474
 20
8.6258
 30
0.0
 10
272.2914
 20
8.6268
 30
0.0
  0
SPLINE
  5
1E7
330
1F
100
AcDbEntity
  8
magstocklogo
 62
     7
100
AcDbSpline
210
0.0
220
0.0
230
1.0
 70
     8
 71
     3
 72
     8
 73
     4
 74
     0
 42
0.000000001
 43
0.0000001
 40
0.0
 40
0.0
 40
0.0
 40
0.0
 40
1.0
 40
1.0
 40
1.0
 40
1.0
 10
272.2914
 20
8.6268
 30
0.0
 10
278.9314
 20
8.6348
 30
0.0
 10
285.5714
 20
8.6528
 30
0.0
 10
292.2114
 20
8.6088
 30
0.0
  0
SPLINE
  5
1E8
330
1F
100
AcDbEntity
  8
magstocklogo
 62
     7
100
AcDbSpline
210
0.0
220
0.0
230
1.0
 70
     8
 71
     3
 72
     8
 73
     4
 74
     0
 42
0.000000001
 43
0.0000001
 40
0.0
 40
0.0
 40
0.0
 40
0.0
 40
1.0
 40
1.0
 40
1.0
 40
1.0
 10
292.2114
 20
8.6088
 30
0.0
 10
293.1904
 20
8.6018
 30
0.0
 10
293.4884
 20
8.8018
 30
0.0
 10
293.4464
 20
9.8398
 30
0.0
  0
SPLINE
  5
1E9
330
1F
100
AcDbEntity
  8
magstocklogo
 62
     7
100
AcDbSpline
210
0.0
220
0.0
230
1.0
 70
     8
 71
     3
 72
     8
 73
     4
 74
     0
 42
0.000000001
 43
0.0000001
 40
0.0
 40
0.0
 40
0.0
 40
0.0
 40
1.0
 40
1.0
 40
1.0
 40
1.0
 10
293.4464
 20
9.8398
 30
0.0
 10
293.3504
 20
12.2448
 30
0.0
 10
293.4164
 20
12.2468
 30
0.0
 10
291.0094
 20
12.2478
 30
0.0
  0
SPLINE
  5
1EA
330
1F
100
AcDbEntity
  8
magstocklogo
 62
     7
100
AcDbSpline
210
0.0
220
0.0
230
1.0
 70
     8
 71
     3
 72
     8
 73
     4
 74
     0
 42
0.000000001
 43
0.0000001
 40
0.0
 40
0.0
 40
0.0
 40
0.0
 40
1.0
 40
1.0
 40
1.0
 40
1.0
 10
291.0094
 20
12.2478
 30
0.0
 10
284.7704
 20
12.2488
 30
0.0
 10
278.5294
 20
12.2478
 30
0.0
 10
272.2904
 20
12.2518
 30
0.0
  0
SPLINE
  5
1EB
330
1F
100
AcDbEntity
  8
magstocklogo
 62
     7
100
AcDbSpline
210
0.0
220
0.0
230
1.0
 70
     8
 71
     3
 72
     8
 73
     4
 74
     0
 42
0.000000001
 43
0.0000001
 40
0.0
 40
0.0
 40
0.0
 40
0.0
 40
1.0
 40
1.0
 40
1.0
 40
1.0
 10
272.2904
 20
12.2518
 30
0.0
 10
269.6494
 20
12.2538
 30
0.0
 10
268.7434
 20
13.1018
 30
0.0
 10
268.7144
 20
15.7088
 30
0.0
  0
SPLINE
  5
1EC
330
1F
100
AcDbEntity
  8
magstocklogo
 62
     7
100
AcDbSpline
210
0.0
220
0.0
230
1.0
 70
     8
 71
     3
 72
     8
 73
     4
 74
     0
 42
0.000000001
 43
0.0000001
 40
0.0
 40
0.0
 40
0.0
 40
0.0
 40
1.0
 40
1.0
 40
1.0
 40
1.0
 10
268.7144
 20
15.7088
 30
0.0
 10
268.6804
 20
18.8278
 30
0.0
 10
268.6744
 20
21.9488
 30
0.0
 10
268.7174
 20
25.0688
 30
0.0
  0
SPLINE
  5
1ED
330
1F
100
AcDbEntity
  8
magstocklogo
 62
     7
100
AcDbSpline
210
0.0
220
0.0
230
1.0
 70
     8
 71
     3
 72
     8
 73
     4
 74
     0
 42
0.000000001
 43
0.0000001
 40
0.0
 40
0.0
 40
0.0
 40
0.0
 40
1.0
 40
1.0
 40
1.0
 40
1.0
 10
268.7174
 20
25.0688
 30
0.0
 10
268.7524
 20
27.5818
 30
0.0
 10
269.5394
 20
28.3328
 30
0.0
 10
272.0444
 20
28.3428
 30
0.0
  0
SPLINE
  5
1EE
330
1F
100
AcDbEntity
  8
magstocklogo
 62
     7
100
AcDbSpline
210
0.0
220
0.0
230
1.0
 70
     8
 71
     3
 72
     8
 73
     4
 74
     0
 42
0.000000001
 43
0.0000001
 40
0.0
 40
0.0
 40
0.0
 40
0.0
 40
1.0
 40
1.0
 40
1.0
 40
1.0
 10
272.0444
 20
28.3428
 30
0.0
 10
276.0444
 20
28.3588
 30
0.0
 10
280.0444
 20
28.3478
 30
0.0
 10
284.0444
 20
28.3478
 30
0.0
  0
LWPOLYLINE
  5
1EF
330
1F
100
AcDbEntity
  8
magstocklogo
 62
     7
100
AcDbPolyline
 90
        2
 70
     0
 43
0.0
 10
576.0361
 20
122.0386
 10
576.0361
 20
-0.1574
  0
SPLINE
  5
1F0
330
1F
100
AcDbEntity
  8
magstocklogo
 62
     7
100
AcDbSpline
210
0.0
220
0.0
230
1.0
 70
     8
 71
     3
 72
     8
 73
     4
 74
     0
 42
0.000000001
 43
0.0000001
 40
0.0
 40
0.0
 40
0.0
 40
0.0
 40
1.0
 40
1.0
 40
1.0
 40
1.0
 10
233.1035
 20
28.3408
 30
0.0
 10
237.2215
 20
28.3408
 30
0.0
 10
241.3385
 20
28.3528
 30
0.0
 10
245.4565
 20
28.3338
 30
0.0
  0
SPLINE
  5
1F1
330
1F
100
AcDbEntity
  8
magstocklogo
 62
     7
100
AcDbSpline
210
0.0
220
0.0
230
1.0
 70
     8
 71
     3
 72
     8
 73
     4
 74
     0
 42
0.000000001
 43
0.0000001
 40
0.0
 40
0.0
 40
0.0
 40
0.0
 40
1.0
 40
1.0
 40
1.0
 40
1.0
 10
245.4565
 20
28.3338
 30
0.0
 10
246.9125
 20
28.3278
 30
0.0
 10
247.9635
 20
27.6038
 30
0.0
 10
248.3475
 20
26.4418
 30
0.0
  0
SPLINE
  5
1F2
330
1F
100
AcDbEntity
  8
magstocklogo
 62
     7
100
AcDbSpline
210
0.0
220
0.0
230
1.0
 70
     8
 71
     3
 72
     8
 73
     4
 74
     0
 42
0.000000001
 43
0.0000001
 40
0.0
 40
0.0
 40
0.0
 40
0.0
 40
1.0
 40
1.0
 40
1.0
 40
1.0
 10
248.3475
 20
26.4418
 30
0.0
 10
248.7825
 20
25.1248
 30
0.0
 10
248.3395
 20
23.5988
 30
0.0
 10
247.3115
 20
22.7688
 30
0.0
  0
SPLINE
  5
1F3
330
1F
100
AcDbEntity
  8
magstocklogo
 62
     7
100
AcDbSpline
210
0.0
220
0.0
230
1.0
 70
     8
 71
     3
 72
     8
 73
     4
 74
     0
 42
0.000000001
 43
0.0000001
 40
0.0
 40
0.0
 40
0.0
 40
0.0
 40
1.0
 40
1.0
 40
1.0
 40
1.0
 10
247.3115
 20
22.7688
 30
0.0
 10
246.5615
 20
22.1638
 30
0.0
 10
245.6725
 20
22.2308
 30
0.0
 10
244.8085
 20
22.2298
 30
0.0
  0
SPLINE
  5
1F4
330
1F
100
AcDbEntity
  8
magstocklogo
 62
     7
100
AcDbSpline
210
0.0
220
0.0
230
1.0
 70
     8
 71
     3
 72
     8
 73
     4
 74
     0
 42
0.000000001
 43
0.0000001
 40
0.0
 40
0.0
 40
0.0
 40
0.0
 40
1.0
 40
1.0
 40
1.0
 40
1.0
 10
244.8085
 20
22.2298
 30
0.0
 10
238.2525
 20
22.2198
 30
0.0
 10
231.6965
 20
22.1998
 30
0.0
 10
225.1405
 20
22.2508
 30
0.0
  0
SPLINE
  5
1F5
330
1F
100
AcDbEntity
  8
magstocklogo
 62
     7
100
AcDbSpline
210
0.0
220
0.0
230
1.0
 70
     8
 71
     3
 72
     8
 73
     4
 74
     0
 42
0.000000001
 43
0.0000001
 40
0.0
 40
0.0
 40
0.0
 40
0.0
 40
1.0
 40
1.0
 40
1.0
 40
1.0
 10
225.1405
 20
22.2508
 30
0.0
 10
224.0495
 20
22.2598
 30
0.0
 10
223.7245
 20
21.9888
 30
0.0
 10
223.7475
 20
20.8668
 30
0.0
  0
SPLINE
  5
1F6
330
1F
100
AcDbEntity
  8
magstocklogo
 62
     7
100
AcDbSpline
210
0.0
220
0.0
230
1.0
 70
     8
 71
     3
 72
     8
 73
     4
 74
     0
 42
0.000000001
 43
0.0000001
 40
0.0
 40
0.0
 40
0.0
 40
0.0
 40
1.0
 40
1.0
 40
1.0
 40
1.0
 10
223.7475
 20
20.8668
 30
0.0
 10
223.8225
 20
17.1518
 30
0.0
 10
223.8095
 20
13.4318
 30
0.0
 10
223.7505
 20
9.7148
 30
0.0
  0
SPLINE
  5
1F7
330
1F
100
AcDbEntity
  8
magstocklogo
 62
     7
100
AcDbSpline
210
0.0
220
0.0
230
1.0
 70
     8
 71
     3
 72
     8
 73
     4
 74
     0
 42
0.000000001
 43
0.0000001
 40
0.0
 40
0.0
 40
0.0
 40
0.0
 40
1.0
 40
1.0
 40
1.0
 40
1.0
 10
223.7505
 20
9.7148
 30
0.0
 10
223.7355
 20
8.7878
 30
0.0
 10
224.0135
 20
8.6038
 30
0.0
 10
224.8895
 20
8.6108
 30
0.0
  0
SPLINE
  5
1F8
330
1F
100
AcDbEntity
  8
magstocklogo
 62
     7
100
AcDbSpline
210
0.0
220
0.0
230
1.0
 70
     8
 71
     3
 72
     8
 73
     4
 74
     0
 42
0.000000001
 43
0.0000001
 40
0.0
 40
0.0
 40
0.0
 40
0.0
 40
1.0
 40
1.0
 40
1.0
 40
1.0
 10
224.8895
 20
8.6108
 30
0.0
 10
230.4065
 20
8.6528
 30
0.0
 10
235.9235
 20
8.6478
 30
0.0
 10
241.4395
 20
8.6138
 30
0.0
  0
SPLINE
  5
1F9
330
1F
100
AcDbEntity
  8
magstocklogo
 62
     7
100
AcDbSpline
210
0.0
220
0.0
230
1.0
 70
     8
 71
     3
 72
     8
 73
     4
 74
     0
 42
0.000000001
 43
0.0000001
 40
0.0
 40
0.0
 40
0.0
 40
0.0
 40
1.0
 40
1.0
 40
1.0
 40
1.0
 10
241.4395
 20
8.6138
 30
0.0
 10
242.2105
 20
8.6098
 30
0.0
 10
242.4365
 20
8.7948
 30
0.0
 10
242.4305
 20
9.5878
 30
0.0
  0
SPLINE
  5
1FA
330
1F
100
AcDbEntity
  8
magstocklogo
 62
     7
100
AcDbSpline
210
0.0
220
0.0
230
1.0
 70
     8
 71
     3
 72
     8
 73
     4
 74
     0
 42
0.000000001
 43
0.0000001
 40
0.0
 40
0.0
 40
0.0
 40
0.0
 40
1.0
 40
1.0
 40
1.0
 40
1.0
 10
242.4305
 20
9.5878
 30
0.0
 10
242.4085
 20
12.2468
 30
0.0
 10
242.4425
 20
12.2468
 30
0.0
 10
239.7855
 20
12.2468
 30
0.0
  0
SPLINE
  5
1FB
330
1F
100
AcDbEntity
  8
magstocklogo
 62
     7
100
AcDbSpline
210
0.0
220
0.0
230
1.0
 70
     8
 71
     3
 72
     8
 73
     4
 74
     0
 42
0.000000001
 43
0.0000001
 40
0.0
 40
0.0
 40
0.0
 40
0.0
 40
1.0
 40
1.0
 40
1.0
 40
1.0
 10
239.7855
 20
12.2468
 30
0.0
 10
237.6265
 20
12.2478
 30
0.0
 10
235.4685
 20
12.2288
 30
0.0
 10
233.3095
 20
12.2558
 30
0.0
  0
SPLINE
  5
1FC
330
1F
100
AcDbEntity
  8
magstocklogo
 62
     7
100
AcDbSpline
210
0.0
220
0.0
230
1.0
 70
     8
 71
     3
 72
     8
 73
     4
 74
     0
 42
0.000000001
 43
0.0000001
 40
0.0
 40
0.0
 40
0.0
 40
0.0
 40
1.0
 40
1.0
 40
1.0
 40
1.0
 10
233.3095
 20
12.2558
 30
0.0
 10
232.0475
 20
12.2718
 30
0.0
 10
230.9425
 20
12.6668
 30
0.0
 10
230.3915
 20
13.9268
 30
0.0
  0
SPLINE
  5
1FD
330
1F
100
AcDbEntity
  8
magstocklogo
 62
     7
100
AcDbSpline
210
0.0
220
0.0
230
1.0
 70
     8
 71
     3
 72
     8
 73
     4
 74
     0
 42
0.000000001
 43
0.0000001
 40
0.0
 40
0.0
 40
0.0
 40
0.0
 40
1.0
 40
1.0
 40
1.0
 40
1.0
 10
230.3915
 20
13.9268
 30
0.0
 10
229.8805
 20
15.0928
 30
0.0
 10
229.9155
 20
16.2518
 30
0.0
 10
230.6695
 20
17.3198
 30
0.0
  0
SPLINE
  5
1FE
330
1F
100
AcDbEntity
  8
magstocklogo
 62
     7
100
AcDbSpline
210
0.0
220
0.0
230
1.0
 70
     8
 71
     3
 72
     8
 73
     4
 74
     0
 42
0.000000001
 43
0.0000001
 40
0.0
 40
0.0
 40
0.0
 40
0.0
 40
1.0
 40
1.0
 40
1.0
 40
1.0
 10
230.6695
 20
17.3198
 30
0.0
 10
231.2715
 20
18.1728
 30
0.0
 10
232.1615
 20
18.4708
 30
0.0
 10
233.1605
 20
18.4728
 30
0.0
  0
SPLINE
  5
1FF
330
1F
100
AcDbEntity
  8
magstocklogo
 62
     7
100
AcDbSpline
210
0.0
220
0.0
230
1.0
 70
     8
 71
     3
 72
     8
 73
     4
 74
     0
 42
0.000000001
 43
0.0000001
 40
0.0
 40
0.0
 40
0.0
 40
0.0
 40
1.0
 40
1.0
 40
1.0
 40
1.0
 10
233.1605
 20
18.4728
 30
0.0
 10
237.9975
 20
18.4818
 30
0.0
 10
242.8345
 20
18.4638
 30
0.0
 10
247.6715
 20
18.4988
 30
0.0
  0
SPLINE
  5
200
330
1F
100
AcDbEntity
  8
magstocklogo
 62
     7
100
AcDbSpline
210
0.0
220
0.0
230
1.0
 70
     8
 71
     3
 72
     8
 73
     4
 74
     0
 42
0.000000001
 43
0.0000001
 40
0.0
 40
0.0
 40
0.0
 40
0.0
 40
1.0
 40
1.0
 40
1.0
 40
1.0
 10
247.6715
 20
18.4988
 30
0.0
 10
248.3955
 20
18.5038
 30
0.0
 10
248.5145
 20
18.2358
 30
0.0
 10
248.5105
 20
17.6028
 30
0.0
  0
SPLINE
  5
201
330
1F
100
AcDbEntity
  8
magstocklogo
 62
     7
100
AcDbSpline
210
0.0
220
0.0
230
1.0
 70
     8
 71
     3
 72
     8
 73
     4
 74
     0
 42
0.000000001
 43
0.0000001
 40
0.0
 40
0.0
 40
0.0
 40
0.0
 40
1.0
 40
1.0
 40
1.0
 40
1.0
 10
248.5105
 20
17.6028
 30
0.0
 10
248.4875
 20
13.6058
 30
0.0
 10
248.5235
 20
9.6078
 30
0.0
 10
248.4885
 20
5.6108
 30
0.0
  0
SPLINE
  5
202
330
1F
100
AcDbEntity
  8
magstocklogo
 62
     7
100
AcDbSpline
210
0.0
220
0.0
230
1.0
 70
     8
 71
     3
 72
     8
 73
     4
 74
     0
 42
0.000000001
 43
0.0000001
 40
0.0
 40
0.0
 40
0.0
 40
0.0
 40
1.0
 40
1.0
 40
1.0
 40
1.0
 10
248.4885
 20
5.6108
 30
0.0
 10
248.4675
 20
3.2738
 30
0.0
 10
247.5425
 20
2.4038
 30
0.0
 10
245.1835
 20
2.4018
 30
0.0
  0
SPLINE
  5
203
330
1F
100
AcDbEntity
  8
magstocklogo
 62
     7
100
AcDbSpline
210
0.0
220
0.0
230
1.0
 70
     8
 71
     3
 72
     8
 73
     4
 74
     0
 42
0.000000001
 43
0.0000001
 40
0.0
 40
0.0
 40
0.0
 40
0.0
 40
1.0
 40
1.0
 40
1.0
 40
1.0
 10
245.1835
 20
2.4018
 30
0.0
 10
237.1475
 20
2.3938
 30
0.0
 10
229.1125
 20
2.3938
 30
0.0
 10
221.0775
 20
2.4018
 30
0.0
  0
SPLINE
  5
204
330
1F
100
AcDbEntity
  8
magstocklogo
 62
     7
100
AcDbSpline
210
0.0
220
0.0
230
1.0
 70
     8
 71
     3
 72
     8
 73
     4
 74
     0
 42
0.000000001
 43
0.0000001
 40
0.0
 40
0.0
 40
0.0
 40
0.0
 40
1.0
 40
1.0
 40
1.0
 40
1.0
 10
221.0775
 20
2.4018
 30
0.0
 10
218.6455
 20
2.4038
 30
0.0
 10
217.6925
 20
3.3708
 30
0.0
 10
217.6915
 20
5.7998
 30
0.0
  0
SPLINE
  5
205
330
1F
100
AcDbEntity
  8
magstocklogo
 62
     7
100
AcDbSpline
210
0.0
220
0.0
230
1.0
 70
     8
 71
     3
 72
     8
 73
     4
 74
     0
 42
0.000000001
 43
0.0000001
 40
0.0
 40
0.0
 40
0.0
 40
0.0
 40
1.0
 40
1.0
 40
1.0
 40
1.0
 10
217.6915
 20
5.7998
 30
0.0
 10
217.6865
 20
12.1958
 30
0.0
 10
217.6855
 20
18.5928
 30
0.0
 10
217.6905
 20
24.9888
 30
0.0
  0
SPLINE
  5
206
330
1F
100
AcDbEntity
  8
magstocklogo
 62
     7
100
AcDbSpline
210
0.0
220
0.0
230
1.0
 70
     8
 71
     3
 72
     8
 73
     4
 74
     0
 42
0.000000001
 43
0.0000001
 40
0.0
 40
0.0
 40
0.0
 40
0.0
 40
1.0
 40
1.0
 40
1.0
 40
1.0
 10
217.6905
 20
24.9888
 30
0.0
 10
217.6925
 20
27.3788
 30
0.0
 10
218.6165
 20
28.3318
 30
0.0
 10
220.9905
 20
28.3428
 30
0.0
  0
SPLINE
  5
207
330
1F
100
AcDbEntity
  8
magstocklogo
 62
     7
100
AcDbSpline
210
0.0
220
0.0
230
1.0
 70
     8
 71
     3
 72
     8
 73
     4
 74
     0
 42
0.000000001
 43
0.0000001
 40
0.0
 40
0.0
 40
0.0
 40
0.0
 40
1.0
 40
1.0
 40
1.0
 40
1.0
 10
220.9905
 20
28.3428
 30
0.0
 10
225.0285
 20
28.3618
 30
0.0
 10
229.0655
 20
28.3488
 30
0.0
 10
233.1035
 20
28.3488
 30
0.0
  0
LWPOLYLINE
  5
208
330
1F
100
AcDbEntity
  8
magstocklogo
 62
     7
100
AcDbPolyline
 90
        3
 70
     1
 43
0.0
 10
284.0444
 20
28.3478
 10
284.0444
 20
28.3418
 10
284.0444
 20
28.3418
  0
SPLINE
  5
209
330
1F
100
AcDbEntity
  8
magstocklogo
 62
     7
100
AcDbSpline
210
0.0
220
0.0
230
1.0
 70
     8
 71
     3
 72
     8
 73
     4
 74
     0
 42
0.000000001
 43
0.0000001
 40
0.0
 40
0.0
 40
0.0
 40
0.0
 40
1.0
 40
1.0
 40
1.0
 40
1.0
 10
379.3232
 20
29.0664
 30
0.0
 10
383.2412
 20
29.0664
 30
0.0
 10
387.1592
 20
29.0684
 30
0.0
 10
391.0772
 20
29.0654
 30
0.0
  0
SPLINE
  5
20A
330
1F
100
AcDbEntity
  8
magstocklogo
 62
     7
100
AcDbSpline
210
0.0
220
0.0
230
1.0
 70
     8
 71
     3
 72
     8
 73
     4
 74
     0
 42
0.000000001
 43
0.0000001
 40
0.0
 40
0.0
 40
0.0
 40
0.0
 40
1.0
 40
1.0
 40
1.0
 40
1.0
 10
391.0772
 20
29.0654
 30
0.0
 10
393.8832
 20
29.0634
 30
0.0
 10
394.8992
 20
27.9274
 30
0.0
 10
394.8982
 20
25.1214
 30
0.0
  0
SPLINE
  5
20B
330
1F
100
AcDbEntity
  8
magstocklogo
 62
     7
100
AcDbSpline
210
0.0
220
0.0
230
1.0
 70
     8
 71
     3
 72
     8
 73
     4
 74
     0
 42
0.000000001
 43
0.0000001
 40
0.0
 40
0.0
 40
0.0
 40
0.0
 40
1.0
 40
1.0
 40
1.0
 40
1.0
 10
394.8982
 20
25.1214
 30
0.0
 10
394.8972
 20
19.1284
 30
0.0
 10
394.9912
 20
13.1364
 30
0.0
 10
395.0292
 20
7.1434
 30
0.0
  0
SPLINE
  5
20C
330
1F
100
AcDbEntity
  8
magstocklogo
 62
     7
100
AcDbSpline
210
0.0
220
0.0
230
1.0
 70
     8
 71
     3
 72
     8
 73
     4
 74
     0
 42
0.000000001
 43
0.0000001
 40
0.0
 40
0.0
 40
0.0
 40
0.0
 40
1.0
 40
1.0
 40
1.0
 40
1.0
 10
395.0292
 20
7.1434
 30
0.0
 10
395.0472
 20
4.4344
 30
0.0
 10
393.7262
 20
3.1204
 30
0.0
 10
391.0312
 20
3.1194
 30
0.0
  0
SPLINE
  5
20D
330
1F
100
AcDbEntity
  8
magstocklogo
 62
     7
100
AcDbSpline
210
0.0
220
0.0
230
1.0
 70
     8
 71
     3
 72
     8
 73
     4
 74
     0
 42
0.000000001
 43
0.0000001
 40
0.0
 40
0.0
 40
0.0
 40
0.0
 40
1.0
 40
1.0
 40
1.0
 40
1.0
 10
391.0312
 20
3.1194
 30
0.0
 10
383.1152
 20
3.1164
 30
0.0
 10
375.1992
 20
3.1174
 30
0.0
 10
367.2832
 20
3.1194
 30
0.0
  0
SPLINE
  5
20E
330
1F
100
AcDbEntity
  8
magstocklogo
 62
     7
100
AcDbSpline
210
0.0
220
0.0
230
1.0
 70
     8
 71
     3
 72
     8
 73
     4
 74
     0
 42
0.000000001
 43
0.0000001
 40
0.0
 40
0.0
 40
0.0
 40
0.0
 40
1.0
 40
1.0
 40
1.0
 40
1.0
 10
367.2832
 20
3.1194
 30
0.0
 10
366.0412
 20
3.1194
 30
0.0
 10
364.9162
 20
3.3294
 30
0.0
 10
364.2822
 20
4.6024
 30
0.0
  0
SPLINE
  5
20F
330
1F
100
AcDbEntity
  8
magstocklogo
 62
     7
100
AcDbSpline
210
0.0
220
0.0
230
1.0
 70
     8
 71
     3
 72
     8
 73
     4
 74
     0
 42
0.000000001
 43
0.0000001
 40
0.0
 40
0.0
 40
0.0
 40
0.0
 40
1.0
 40
1.0
 40
1.0
 40
1.0
 10
364.2822
 20
4.6024
 30
0.0
 10
364.0162
 20
5.1344
 30
0.0
 10
364.0212
 20
5.6934
 30
0.0
 10
364.0202
 20
6.2344
 30
0.0
  0
SPLINE
  5
210
330
1F
100
AcDbEntity
  8
magstocklogo
 62
     7
100
AcDbSpline
210
0.0
220
0.0
230
1.0
 70
     8
 71
     3
 72
     8
 73
     4
 74
     0
 42
0.000000001
 43
0.0000001
 40
0.0
 40
0.0
 40
0.0
 40
0.0
 40
1.0
 40
1.0
 40
1.0
 40
1.0
 10
364.0202
 20
6.2344
 30
0.0
 10
364.0152
 20
12.9894
 30
0.0
 10
364.0122
 20
19.7434
 30
0.0
 10
364.0722
 20
26.4974
 30
0.0
  0
SPLINE
  5
211
330
1F
100
AcDbEntity
  8
magstocklogo
 62
     7
100
AcDbSpline
210
0.0
220
0.0
230
1.0
 70
     8
 71
     3
 72
     8
 73
     4
 74
     0
 42
0.000000001
 43
0.0000001
 40
0.0
 40
0.0
 40
0.0
 40
0.0
 40
1.0
 40
1.0
 40
1.0
 40
1.0
 10
364.0722
 20
26.4974
 30
0.0
 10
364.0882
 20
28.1914
 30
0.0
 10
365.0032
 20
29.0224
 30
0.0
 10
366.7292
 20
29.0374
 30
0.0
  0
SPLINE
  5
212
330
1F
100
AcDbEntity
  8
magstocklogo
 62
     7
100
AcDbSpline
210
0.0
220
0.0
230
1.0
 70
     8
 71
     3
 72
     8
 73
     4
 74
     0
 42
0.000000001
 43
0.0000001
 40
0.0
 40
0.0
 40
0.0
 40
0.0
 40
1.0
 40
1.0
 40
1.0
 40
1.0
 10
366.7292
 20
29.0374
 30
0.0
 10
370.9272
 20
29.0734
 30
0.0
 10
375.1252
 20
29.0484
 30
0.0
 10
379.3232
 20
29.0484
 30
0.0
  0
LWPOLYLINE
  5
213
330
1F
100
AcDbEntity
  8
magstocklogo
 62
     7
100
AcDbPolyline
 90
        3
 70
     1
 43
0.0
 10
233.1035
 20
28.3488
 10
233.1035
 20
28.3408
 10
233.1035
 20
28.3408
  0
SPLINE
  5
214
330
1F
100
AcDbEntity
  8
magstocklogo
 62
     7
100
AcDbSpline
210
0.0
220
0.0
230
1.0
 70
     8
 71
     3
 72
     8
 73
     4
 74
     0
 42
0.000000001
 43
0.0000001
 40
0.0
 40
0.0
 40
0.0
 40
0.0
 40
1.0
 40
1.0
 40
1.0
 40
1.0
 10
127.4404
 20
13.5273
 30
0.0
 10
127.4404
 20
10.6833
 30
0.0
 10
127.4374
 20
7.9263
 30
0.0
 10
127.4414
 20
5.1703
 30
0.0
  0
SPLINE
  5
215
330
1F
100
AcDbEntity
  8
magstocklogo
 62
     7
100
AcDbSpline
210
0.0
220
0.0
230
1.0
 70
     8
 71
     3
 72
     8
 73
     4
 74
     0
 42
0.000000001
 43
0.0000001
 40
0.0
 40
0.0
 40
0.0
 40
0.0
 40
1.0
 40
1.0
 40
1.0
 40
1.0
 10
127.4414
 20
5.1703
 30
0.0
 10
127.4434
 20
3.9693
 30
0.0
 10
127.0494
 20
2.9733
 30
0.0
 10
125.9444
 20
2.3933
 30
0.0
  0
SPLINE
  5
216
330
1F
100
AcDbEntity
  8
magstocklogo
 62
     7
100
AcDbSpline
210
0.0
220
0.0
230
1.0
 70
     8
 71
     3
 72
     8
 73
     4
 74
     0
 42
0.000000001
 43
0.0000001
 40
0.0
 40
0.0
 40
0.0
 40
0.0
 40
1.0
 40
1.0
 40
1.0
 40
1.0
 10
125.9444
 20
2.3933
 30
0.0
 10
124.8044
 20
1.7953
 30
0.0
 10
123.6654
 20
1.8573
 30
0.0
 10
122.5594
 20
2.5303
 30
0.0
  0
SPLINE
  5
217
330
1F
100
AcDbEntity
  8
magstocklogo
 62
     7
100
AcDbSpline
210
0.0
220
0.0
230
1.0
 70
     8
 71
     3
 72
     8
 73
     4
 74
     0
 42
0.000000001
 43
0.0000001
 40
0.0
 40
0.0
 40
0.0
 40
0.0
 40
1.0
 40
1.0
 40
1.0
 40
1.0
 10
122.5594
 20
2.5303
 30
0.0
 10
121.9094
 20
2.9253
 30
0.0
 10
121.4934
 20
3.4743
 30
0.0
 10
121.4324
 20
4.2463
 30
0.0
  0
SPLINE
  5
218
330
1F
100
AcDbEntity
  8
magstocklogo
 62
     7
100
AcDbSpline
210
0.0
220
0.0
230
1.0
 70
     8
 71
     3
 72
     8
 73
     4
 74
     0
 42
0.000000001
 43
0.0000001
 40
0.0
 40
0.0
 40
0.0
 40
0.0
 40
1.0
 40
1.0
 40
1.0
 40
1.0
 10
121.4324
 20
4.2463
 30
0.0
 10
121.3854
 20
4.8413
 30
0.0
 10
121.3484
 20
5.4393
 30
0.0
 10
121.3484
 20
6.0363
 30
0.0
  0
SPLINE
  5
219
330
1F
100
AcDbEntity
  8
magstocklogo
 62
     7
100
AcDbSpline
210
0.0
220
0.0
230
1.0
 70
     8
 71
     3
 72
     8
 73
     4
 74
     0
 42
0.000000001
 43
0.0000001
 40
0.0
 40
0.0
 40
0.0
 40
0.0
 40
1.0
 40
1.0
 40
1.0
 40
1.0
 10
121.3484
 20
6.0363
 30
0.0
 10
121.3414
 20
12.1523
 30
0.0
 10
121.3394
 20
18.2683
 30
0.0
 10
121.3504
 20
24.3833
 30
0.0
  0
SPLINE
  5
21A
330
1F
100
AcDbEntity
  8
magstocklogo
 62
     7
100
AcDbSpline
210
0.0
220
0.0
230
1.0
 70
     8
 71
     3
 72
     8
 73
     4
 74
     0
 42
0.000000001
 43
0.0000001
 40
0.0
 40
0.0
 40
0.0
 40
0.0
 40
1.0
 40
1.0
 40
1.0
 40
1.0
 10
121.3504
 20
24.3833
 30
0.0
 10
121.3524
 20
25.0193
 30
0.0
 10
121.3274
 20
25.6933
 30
0.0
 10
121.5184
 20
26.2833
 30
0.0
  0
SPLINE
  5
21B
330
1F
100
AcDbEntity
  8
magstocklogo
 62
     7
100
AcDbSpline
210
0.0
220
0.0
230
1.0
 70
     8
 71
     3
 72
     8
 73
     4
 74
     0
 42
0.000000001
 43
0.0000001
 40
0.0
 40
0.0
 40
0.0
 40
0.0
 40
1.0
 40
1.0
 40
1.0
 40
1.0
 10
121.5184
 20
26.2833
 30
0.0
 10
121.8484
 20
27.3033
 30
0.0
 10
122.5174
 20
28.1243
 30
0.0
 10
123.6534
 20
28.2953
 30
0.0
  0
SPLINE
  5
21C
330
1F
100
AcDbEntity
  8
magstocklogo
 62
     7
100
AcDbSpline
210
0.0
220
0.0
230
1.0
 70
     8
 71
     3
 72
     8
 73
     4
 74
     0
 42
0.000000001
 43
0.0000001
 40
0.0
 40
0.0
 40
0.0
 40
0.0
 40
1.0
 40
1.0
 40
1.0
 40
1.0
 10
123.6534
 20
28.2953
 30
0.0
 10
124.8614
 20
28.4763
 30
0.0
 10
125.8714
 20
27.9873
 30
0.0
 10
126.5264
 20
26.9813
 30
0.0
  0
SPLINE
  5
21D
330
1F
100
AcDbEntity
  8
magstocklogo
 62
     7
100
AcDbSpline
210
0.0
220
0.0
230
1.0
 70
     8
 71
     3
 72
     8
 73
     4
 74
     0
 42
0.000000001
 43
0.0000001
 40
0.0
 40
0.0
 40
0.0
 40
0.0
 40
1.0
 40
1.0
 40
1.0
 40
1.0
 10
126.5264
 20
26.9813
 30
0.0
 10
128.2844
 20
24.2853
 30
0.0
 10
129.9984
 20
21.5603
 30
0.0
 10
131.7114
 20
18.8373
 30
0.0
  0
SPLINE
  5
21E
330
1F
100
AcDbEntity
  8
magstocklogo
 62
     7
100
AcDbSpline
210
0.0
220
0.0
230
1.0
 70
     8
 71
     3
 72
     8
 73
     4
 74
     0
 42
0.000000001
 43
0.0000001
 40
0.0
 40
0.0
 40
0.0
 40
0.0
 40
1.0
 40
1.0
 40
1.0
 40
1.0
 10
131.7114
 20
18.8373
 30
0.0
 10
133.3574
 20
16.2193
 30
0.0
 10
134.9814
 20
13.5893
 30
0.0
 10
136.7024
 20
10.8223
 30
0.0
  0
SPLINE
  5
21F
330
1F
100
AcDbEntity
  8
magstocklogo
 62
     7
100
AcDbSpline
210
0.0
220
0.0
230
1.0
 70
     8
 71
     3
 72
     8
 73
     4
 74
     0
 42
0.000000001
 43
0.0000001
 40
0.0
 40
0.0
 40
0.0
 40
0.0
 40
1.0
 40
1.0
 40
1.0
 40
1.0
 10
136.7024
 20
10.8223
 30
0.0
 10
138.6254
 20
13.8773
 30
0.0
 10
140.4574
 20
16.7953
 30
0.0
 10
142.2954
 20
19.7093
 30
0.0
  0
SPLINE
  5
220
330
1F
100
AcDbEntity
  8
magstocklogo
 62
     7
100
AcDbSpline
210
0.0
220
0.0
230
1.0
 70
     8
 71
     3
 72
     8
 73
     4
 74
     0
 42
0.000000001
 43
0.0000001
 40
0.0
 40
0.0
 40
0.0
 40
0.0
 40
1.0
 40
1.0
 40
1.0
 40
1.0
 10
142.2954
 20
19.7093
 30
0.0
 10
143.7364
 20
21.9933
 30
0.0
 10
145.1644
 20
24.2863
 30
0.0
 10
146.6374
 20
26.5493
 30
0.0
  0
SPLINE
  5
221
330
1F
100
AcDbEntity
  8
magstocklogo
 62
     7
100
AcDbSpline
210
0.0
220
0.0
230
1.0
 70
     8
 71
     3
 72
     8
 73
     4
 74
     0
 42
0.000000001
 43
0.0000001
 40
0.0
 40
0.0
 40
0.0
 40
0.0
 40
1.0
 40
1.0
 40
1.0
 40
1.0
 10
146.6374
 20
26.5493
 30
0.0
 10
147.5804
 20
27.9993
 30
0.0
 10
148.8224
 20
28.5933
 30
0.0
 10
150.0014
 20
28.2663
 30
0.0
  0
SPLINE
  5
222
330
1F
100
AcDbEntity
  8
magstocklogo
 62
     7
100
AcDbSpline
210
0.0
220
0.0
230
1.0
 70
     8
 71
     3
 72
     8
 73
     4
 74
     0
 42
0.000000001
 43
0.0000001
 40
0.0
 40
0.0
 40
0.0
 40
0.0
 40
1.0
 40
1.0
 40
1.0
 40
1.0
 10
150.0014
 20
28.2663
 30
0.0
 10
151.2324
 20
27.9243
 30
0.0
 10
152.1454
 20
26.5273
 30
0.0
 10
152.1474
 20
24.8773
 30
0.0
  0
SPLINE
  5
223
330
1F
100
AcDbEntity
  8
magstocklogo
 62
     7
100
AcDbSpline
210
0.0
220
0.0
230
1.0
 70
     8
 71
     3
 72
     8
 73
     4
 74
     0
 42
0.000000001
 43
0.0000001
 40
0.0
 40
0.0
 40
0.0
 40
0.0
 40
1.0
 40
1.0
 40
1.0
 40
1.0
 10
152.1474
 20
24.8773
 30
0.0
 10
152.1584
 20
18.2823
 30
0.0
 10
152.1584
 20
11.6863
 30
0.0
 10
152.1454
 20
5.0903
 30
0.0
  0
SPLINE
  5
224
330
1F
100
AcDbEntity
  8
magstocklogo
 62
     7
100
AcDbSpline
210
0.0
220
0.0
230
1.0
 70
     8
 71
     3
 72
     8
 73
     4
 74
     0
 42
0.000000001
 43
0.0000001
 40
0.0
 40
0.0
 40
0.0
 40
0.0
 40
1.0
 40
1.0
 40
1.0
 40
1.0
 10
152.1454
 20
5.0903
 30
0.0
 10
152.1414
 20
3.2623
 30
0.0
 10
150.8914
 20
1.9983
 30
0.0
 10
149.1034
 20
1.9343
 30
0.0
  0
SPLINE
  5
225
330
1F
100
AcDbEntity
  8
magstocklogo
 62
     7
100
AcDbSpline
210
0.0
220
0.0
230
1.0
 70
     8
 71
     3
 72
     8
 73
     4
 74
     0
 42
0.000000001
 43
0.0000001
 40
0.0
 40
0.0
 40
0.0
 40
0.0
 40
1.0
 40
1.0
 40
1.0
 40
1.0
 10
149.1034
 20
1.9343
 30
0.0
 10
147.3594
 20
1.8733
 30
0.0
 10
146.0874
 20
3.1393
 30
0.0
 10
146.0664
 20
5.0333
 30
0.0
  0
SPLINE
  5
226
330
1F
100
AcDbEntity
  8
magstocklogo
 62
     7
100
AcDbSpline
210
0.0
220
0.0
230
1.0
 70
     8
 71
     3
 72
     8
 73
     4
 74
     0
 42
0.000000001
 43
0.0000001
 40
0.0
 40
0.0
 40
0.0
 40
0.0
 40
1.0
 40
1.0
 40
1.0
 40
1.0
 10
146.0664
 20
5.0333
 30
0.0
 10
146.0394
 20
7.5513
 30
0.0
 10
146.0604
 20
10.0693
 30
0.0
 10
146.0604
 20
12.5883
 30
0.0
  0
LWPOLYLINE
  5
227
330
1F
100
AcDbEntity
  8
magstocklogo
 62
     7
100
AcDbPolyline
 90
        3
 70
     1
 43
0.0
 10
379.3232
 20
29.0484
 10
379.3232
 20
29.0664
 10
379.3232
 20
29.0664
  0
SPLINE
  5
228
330
1F
100
AcDbEntity
  8
magstocklogo
 62
     7
100
AcDbSpline
210
0.0
220
0.0
230
1.0
 70
     8
 71
     3
 72
     8
 73
     4
 74
     0
 42
0.000000001
 43
0.0000001
 40
0.0
 40
0.0
 40
0.0
 40
0.0
 40
1.0
 40
1.0
 40
1.0
 40
1.0
 10
146.0604
 20
13.9263
 30
0.0
 10
145.0024
 20
12.7033
 30
0.0
 10
144.4434
 20
11.5383
 30
0.0
 10
143.7584
 20
10.4633
 30
0.0
  0
SPLINE
  5
229
330
1F
100
AcDbEntity
  8
magstocklogo
 62
     7
100
AcDbSpline
210
0.0
220
0.0
230
1.0
 70
     8
 71
     3
 72
     8
 73
     4
 74
     0
 42
0.000000001
 43
0.0000001
 40
0.0
 40
0.0
 40
0.0
 40
0.0
 40
1.0
 40
1.0
 40
1.0
 40
1.0
 10
143.7584
 20
10.4633
 30
0.0
 10
142.1554
 20
7.9513
 30
0.0
 10
140.6304
 20
5.3883
 30
0.0
 10
138.9664
 20
2.9193
 30
0.0
  0
SPLINE
  5
22A
330
1F
100
AcDbEntity
  8
magstocklogo
 62
     7
100
AcDbSpline
210
0.0
220
0.0
230
1.0
 70
     8
 71
     3
 72
     8
 73
     4
 74
     0
 42
0.000000001
 43
0.0000001
 40
0.0
 40
0.0
 40
0.0
 40
0.0
 40
1.0
 40
1.0
 40
1.0
 40
1.0
 10
138.9664
 20
2.9193
 30
0.0
 10
137.6904
 20
1.0263
 30
0.0
 10
135.8914
 20
1.0593
 30
0.0
 10
134.5004
 20
2.8733
 30
0.0
  0
SPLINE
  5
22B
330
1F
100
AcDbEntity
  8
magstocklogo
 62
     7
100
AcDbSpline
210
0.0
220
0.0
230
1.0
 70
     8
 71
     3
 72
     8
 73
     4
 74
     0
 42
0.000000001
 43
0.0000001
 40
0.0
 40
0.0
 40
0.0
 40
0.0
 40
1.0
 40
1.0
 40
1.0
 40
1.0
 10
134.5004
 20
2.8733
 30
0.0
 10
134.2104
 20
3.2523
 30
0.0
 10
133.9364
 20
3.6453
 30
0.0
 10
133.6844
 20
4.0503
 30
0.0
  0
SPLINE
  5
22C
330
1F
100
AcDbEntity
  8
magstocklogo
 62
     7
100
AcDbSpline
210
0.0
220
0.0
230
1.0
 70
     8
 71
     3
 72
     8
 73
     4
 74
     0
 42
0.000000001
 43
0.0000001
 40
0.0
 40
0.0
 40
0.0
 40
0.0
 40
1.0
 40
1.0
 40
1.0
 40
1.0
 10
133.6844
 20
4.0503
 30
0.0
 10
131.8984
 20
6.9153
 30
0.0
 10
130.1284
 20
9.7883
 30
0.0
 10
128.3314
 20
12.6443
 30
0.0
  0
SPLINE
  5
22D
330
1F
100
AcDbEntity
  8
magstocklogo
 62
     7
100
AcDbSpline
210
0.0
220
0.0
230
1.0
 70
     8
 71
     3
 72
     8
 73
     4
 74
     0
 42
0.000000001
 43
0.0000001
 40
0.0
 40
0.0
 40
0.0
 40
0.0
 40
1.0
 40
1.0
 40
1.0
 40
1.0
 10
128.3314
 20
12.6443
 30
0.0
 10
128.1364
 20
12.9543
 30
0.0
 10
128.0624
 20
13.4133
 30
0.0
 10
127.4404
 20
13.5273
 30
0.0
  0
SPLINE
  5
22E
330
1F
100
AcDbEntity
  8
magstocklogo
 62
     7
100
AcDbSpline
210
0.0
220
0.0
230
1.0
 70
     8
 71
     3
 72
     8
 73
     4
 74
     0
 42
0.000000001
 43
0.0000001
 40
0.0
 40
0.0
 40
0.0
 40
0.0
 40
1.0
 40
1.0
 40
1.0
 40
1.0
 10
431.2676
 20
3.1201
 30
0.0
 10
427.2286
 20
3.1181
 30
0.0
 10
423.1896
 20
3.1101
 30
0.0
 10
419.1506
 20
3.1211
 30
0.0
  0
SPLINE
  5
22F
330
1F
100
AcDbEntity
  8
magstocklogo
 62
     7
100
AcDbSpline
210
0.0
220
0.0
230
1.0
 70
     8
 71
     3
 72
     8
 73
     4
 74
     0
 42
0.000000001
 43
0.0000001
 40
0.0
 40
0.0
 40
0.0
 40
0.0
 40
1.0
 40
1.0
 40
1.0
 40
1.0
 10
419.1506
 20
3.1211
 30
0.0
 10
416.8156
 20
3.1271
 30
0.0
 10
415.8966
 20
3.8721
 30
0.0
 10
415.8746
 20
6.2071
 30
0.0
  0
SPLINE
  5
230
330
1F
100
AcDbEntity
  8
magstocklogo
 62
     7
100
AcDbSpline
210
0.0
220
0.0
230
1.0
 70
     8
 71
     3
 72
     8
 73
     4
 74
     0
 42
0.000000001
 43
0.0000001
 40
0.0
 40
0.0
 40
0.0
 40
0.0
 40
1.0
 40
1.0
 40
1.0
 40
1.0
 10
415.8746
 20
6.2071
 30
0.0
 10
415.8116
 20
12.8831
 30
0.0
 10
415.8296
 20
19.5601
 30
0.0
 10
415.9006
 20
26.2361
 30
0.0
  0
SPLINE
  5
231
330
1F
100
AcDbEntity
  8
magstocklogo
 62
     7
100
AcDbSpline
210
0.0
220
0.0
230
1.0
 70
     8
 71
     3
 72
     8
 73
     4
 74
     0
 42
0.000000001
 43
0.0000001
 40
0.0
 40
0.0
 40
0.0
 40
0.0
 40
1.0
 40
1.0
 40
1.0
 40
1.0
 10
415.9006
 20
26.2361
 30
0.0
 10
415.9226
 20
28.3361
 30
0.0
 10
416.7616
 20
29.0461
 30
0.0
 10
418.9086
 20
29.0551
 30
0.0
  0
SPLINE
  5
232
330
1F
100
AcDbEntity
  8
magstocklogo
 62
     7
100
AcDbSpline
210
0.0
220
0.0
230
1.0
 70
     8
 71
     3
 72
     8
 73
     4
 74
     0
 42
0.000000001
 43
0.0000001
 40
0.0
 40
0.0
 40
0.0
 40
0.0
 40
1.0
 40
1.0
 40
1.0
 40
1.0
 10
418.9086
 20
29.0551
 30
0.0
 10
424.8676
 20
29.0791
 30
0.0
 10
430.8256
 20
29.0651
 30
0.0
 10
436.7846
 20
29.0661
 30
0.0
  0
SPLINE
  5
233
330
1F
100
AcDbEntity
  8
magstocklogo
 62
     7
100
AcDbSpline
210
0.0
220
0.0
230
1.0
 70
     8
 71
     3
 72
     8
 73
     4
 74
     0
 42
0.000000001
 43
0.0000001
 40
0.0
 40
0.0
 40
0.0
 40
0.0
 40
1.0
 40
1.0
 40
1.0
 40
1.0
 10
436.7846
 20
29.0661
 30
0.0
 10
439.0236
 20
29.0671
 30
0.0
 10
441.2626
 20
29.0981
 30
0.0
 10
443.5016
 20
29.0611
 30
0.0
  0
SPLINE
  5
234
330
1F
100
AcDbEntity
  8
magstocklogo
 62
     7
100
AcDbSpline
210
0.0
220
0.0
230
1.0
 70
     8
 71
     3
 72
     8
 73
     4
 74
     0
 42
0.000000001
 43
0.0000001
 40
0.0
 40
0.0
 40
0.0
 40
0.0
 40
1.0
 40
1.0
 40
1.0
 40
1.0
 10
443.5016
 20
29.0611
 30
0.0
 10
446.0876
 20
29.0201
 30
0.0
 10
447.4386
 20
26.6361
 30
0.0
 10
446.2056
 20
24.3651
 30
0.0
  0
SPLINE
  5
235
330
1F
100
AcDbEntity
  8
magstocklogo
 62
     7
100
AcDbSpline
210
0.0
220
0.0
230
1.0
 70
     8
 71
     3
 72
     8
 73
     4
 74
     0
 42
0.000000001
 43
0.0000001
 40
0.0
 40
0.0
 40
0.0
 40
0.0
 40
1.0
 40
1.0
 40
1.0
 40
1.0
 10
446.2056
 20
24.3651
 30
0.0
 10
445.7746
 20
23.5701
 30
0.0
 10
445.1466
 20
23.0841
 30
0.0
 10
444.2346
 20
23.0211
 30
0.0
  0
SPLINE
  5
236
330
1F
100
AcDbEntity
  8
magstocklogo
 62
     7
100
AcDbSpline
210
0.0
220
0.0
230
1.0
 70
     8
 71
     3
 72
     8
 73
     4
 74
     0
 42
0.000000001
 43
0.0000001
 40
0.0
 40
0.0
 40
0.0
 40
0.0
 40
1.0
 40
1.0
 40
1.0
 40
1.0
 10
444.2346
 20
23.0211
 30
0.0
 10
443.5586
 20
22.9751
 30
0.0
 10
442.8796
 20
22.9471
 30
0.0
 10
442.2026
 20
22.9471
 30
0.0
  0
SPLINE
  5
237
330
1F
100
AcDbEntity
  8
magstocklogo
 62
     7
100
AcDbSpline
210
0.0
220
0.0
230
1.0
 70
     8
 71
     3
 72
     8
 73
     4
 74
     0
 42
0.000000001
 43
0.0000001
 40
0.0
 40
0.0
 40
0.0
 40
0.0
 40
1.0
 40
1.0
 40
1.0
 40
1.0
 10
442.2026
 20
22.9471
 30
0.0
 10
435.8836
 20
22.9431
 30
0.0
 10
429.5656
 20
22.9291
 30
0.0
 10
423.2466
 20
22.9701
 30
0.0
  0
SPLINE
  5
238
330
1F
100
AcDbEntity
  8
magstocklogo
 62
     7
100
AcDbSpline
210
0.0
220
0.0
230
1.0
 70
     8
 71
     3
 72
     8
 73
     4
 74
     0
 42
0.000000001
 43
0.0000001
 40
0.0
 40
0.0
 40
0.0
 40
0.0
 40
1.0
 40
1.0
 40
1.0
 40
1.0
 10
423.2466
 20
22.9701
 30
0.0
 10
422.2646
 20
22.9751
 30
0.0
 10
421.8626
 20
22.8361
 30
0.0
 10
421.8896
 20
21.6911
 30
0.0
  0
SPLINE
  5
239
330
1F
100
AcDbEntity
  8
magstocklogo
 62
     7
100
AcDbSpline
210
0.0
220
0.0
230
1.0
 70
     8
 71
     3
 72
     8
 73
     4
 74
     0
 42
0.000000001
 43
0.0000001
 40
0.0
 40
0.0
 40
0.0
 40
0.0
 40
1.0
 40
1.0
 40
1.0
 40
1.0
 10
421.8896
 20
21.6911
 30
0.0
 10
421.9776
 20
17.8961
 30
0.0
 10
421.9476
 20
14.0991
 30
0.0
 10
421.9026
 20
10.3041
 30
0.0
  0
SPLINE
  5
23A
330
1F
100
AcDbEntity
  8
magstocklogo
 62
     7
100
AcDbSpline
210
0.0
220
0.0
230
1.0
 70
     8
 71
     3
 72
     8
 73
     4
 74
     0
 42
0.000000001
 43
0.0000001
 40
0.0
 40
0.0
 40
0.0
 40
0.0
 40
1.0
 40
1.0
 40
1.0
 40
1.0
 10
421.9026
 20
10.3041
 30
0.0
 10
421.8936
 20
9.5061
 30
0.0
 10
422.1216
 20
9.3291
 30
0.0
 10
422.8956
 20
9.3331
 30
0.0
  0
SPLINE
  5
23B
330
1F
100
AcDbEntity
  8
magstocklogo
 62
     7
100
AcDbSpline
210
0.0
220
0.0
230
1.0
 70
     8
 71
     3
 72
     8
 73
     4
 74
     0
 42
0.000000001
 43
0.0000001
 40
0.0
 40
0.0
 40
0.0
 40
0.0
 40
1.0
 40
1.0
 40
1.0
 40
1.0
 10
422.8956
 20
9.3331
 30
0.0
 10
429.6546
 20
9.3651
 30
0.0
 10
436.4126
 20
9.3621
 30
0.0
 10
443.1706
 20
9.3461
 30
0.0
  0
SPLINE
  5
23C
330
1F
100
AcDbEntity
  8
magstocklogo
 62
     7
100
AcDbSpline
210
0.0
220
0.0
230
1.0
 70
     8
 71
     3
 72
     8
 73
     4
 74
     0
 42
0.000000001
 43
0.0000001
 40
0.0
 40
0.0
 40
0.0
 40
0.0
 40
1.0
 40
1.0
 40
1.0
 40
1.0
 10
443.1706
 20
9.3461
 30
0.0
 10
445.8826
 20
9.3391
 30
0.0
 10
447.4546
 20
7.0381
 30
0.0
 10
446.3146
 20
4.7771
 30
0.0
  0
SPLINE
  5
23D
330
1F
100
AcDbEntity
  8
magstocklogo
 62
     7
100
AcDbSpline
210
0.0
220
0.0
230
1.0
 70
     8
 71
     3
 72
     8
 73
     4
 74
     0
 42
0.000000001
 43
0.0000001
 40
0.0
 40
0.0
 40
0.0
 40
0.0
 40
1.0
 40
1.0
 40
1.0
 40
1.0
 10
446.3146
 20
4.7771
 30
0.0
 10
445.7396
 20
3.6371
 30
0.0
 10
444.7746
 20
3.1181
 30
0.0
 10
443.5046
 20
3.1201
 30
0.0
  0
SPLINE
  5
23E
330
1F
100
AcDbEntity
  8
magstocklogo
 62
     7
100
AcDbSpline
210
0.0
220
0.0
230
1.0
 70
     8
 71
     3
 72
     8
 73
     4
 74
     0
 42
0.000000001
 43
0.0000001
 40
0.0
 40
0.0
 40
0.0
 40
0.0
 40
1.0
 40
1.0
 40
1.0
 40
1.0
 10
443.5046
 20
3.1201
 30
0.0
 10
439.4256
 20
3.1251
 30
0.0
 10
435.3466
 20
3.1221
 30
0.0
 10
431.2676
 20
3.1201
 30
0.0
  0
SPLINE
  5
23F
330
1F
100
AcDbEntity
  8
magstocklogo
 62
     7
100
AcDbSpline
210
0.0
220
0.0
230
1.0
 70
     8
 71
     3
 72
     8
 73
     4
 74
     0
 42
0.000000001
 43
0.0000001
 40
0.0
 40
0.0
 40
0.0
 40
0.0
 40
1.0
 40
1.0
 40
1.0
 40
1.0
 10
476.7314
 20
17.0322
 30
0.0
 10
480.1594
 20
17.0322
 30
0.0
 10
483.2324
 20
17.0352
 30
0.0
 10
486.3054
 20
17.0302
 30
0.0
  0
SPLINE
  5
240
330
1F
100
AcDbEntity
  8
magstocklogo
 62
     7
100
AcDbSpline
210
0.0
220
0.0
230
1.0
 70
     8
 71
     3
 72
     8
 73
     4
 74
     0
 42
0.000000001
 43
0.0000001
 40
0.0
 40
0.0
 40
0.0
 40
0.0
 40
1.0
 40
1.0
 40
1.0
 40
1.0
 10
486.3054
 20
17.0302
 30
0.0
 10
487.8084
 20
17.0282
 30
0.0
 10
488.7934
 20
16.3922
 30
0.0
 10
488.8134
 20
14.9332
 30
0.0
  0
SPLINE
  5
241
330
1F
100
AcDbEntity
  8
magstocklogo
 62
     7
100
AcDbSpline
210
0.0
220
0.0
230
1.0
 70
     8
 71
     3
 72
     8
 73
     4
 74
     0
 42
0.000000001
 43
0.0000001
 40
0.0
 40
0.0
 40
0.0
 40
0.0
 40
1.0
 40
1.0
 40
1.0
 40
1.0
 10
488.8134
 20
14.9332
 30
0.0
 10
488.8624
 20
11.5102
 30
0.0
 10
489.0464
 20
8.0812
 30
0.0
 10
488.7054
 20
4.6512
 30
0.0
  0
SPLINE
  5
242
330
1F
100
AcDbEntity
  8
magstocklogo
 62
     7
100
AcDbSpline
210
0.0
220
0.0
230
1.0
 70
     8
 71
     3
 72
     8
 73
     4
 74
     0
 42
0.000000001
 43
0.0000001
 40
0.0
 40
0.0
 40
0.0
 40
0.0
 40
1.0
 40
1.0
 40
1.0
 40
1.0
 10
488.7054
 20
4.6512
 30
0.0
 10
488.5644
 20
3.2462
 30
0.0
 10
487.7184
 20
2.8222
 30
0.0
 10
486.6344
 20
2.6722
 30
0.0
  0
SPLINE
  5
243
330
1F
100
AcDbEntity
  8
magstocklogo
 62
     7
100
AcDbSpline
210
0.0
220
0.0
230
1.0
 70
     8
 71
     3
 72
     8
 73
     4
 74
     0
 42
0.000000001
 43
0.0000001
 40
0.0
 40
0.0
 40
0.0
 40
0.0
 40
1.0
 40
1.0
 40
1.0
 40
1.0
 10
486.6344
 20
2.6722
 30
0.0
 10
485.5034
 20
2.5152
 30
0.0
 10
484.4964
 20
2.9422
 30
0.0
 10
483.8724
 20
3.9622
 30
0.0
  0
SPLINE
  5
244
330
1F
100
AcDbEntity
  8
magstocklogo
 62
     7
100
AcDbSpline
210
0.0
220
0.0
230
1.0
 70
     8
 71
     3
 72
     8
 73
     4
 74
     0
 42
0.000000001
 43
0.0000001
 40
0.0
 40
0.0
 40
0.0
 40
0.0
 40
1.0
 40
1.0
 40
1.0
 40
1.0
 10
483.8724
 20
3.9622
 30
0.0
 10
483.5214
 20
4.5362
 30
0.0
 10
483.3374
 20
5.1742
 30
0.0
 10
483.3554
 20
5.8862
 30
0.0
  0
SPLINE
  5
245
330
1F
100
AcDbEntity
  8
magstocklogo
 62
     7
100
AcDbSpline
210
0.0
220
0.0
230
1.0
 70
     8
 71
     3
 72
     8
 73
     4
 74
     0
 42
0.000000001
 43
0.0000001
 40
0.0
 40
0.0
 40
0.0
 40
0.0
 40
1.0
 40
1.0
 40
1.0
 40
1.0
 10
483.3554
 20
5.8862
 30
0.0
 10
483.3974
 20
7.5242
 30
0.0
 10
483.3444
 20
9.1652
 30
0.0
 10
483.3814
 20
10.8032
 30
0.0
  0
SPLINE
  5
246
330
1F
100
AcDbEntity
  8
magstocklogo
 62
     7
100
AcDbSpline
210
0.0
220
0.0
230
1.0
 70
     8
 71
     3
 72
     8
 73
     4
 74
     0
 42
0.000000001
 43
0.0000001
 40
0.0
 40
0.0
 40
0.0
 40
0.0
 40
1.0
 40
1.0
 40
1.0
 40
1.0
 10
483.3814
 20
10.8032
 30
0.0
 10
483.3944
 20
11.3802
 30
0.0
 10
483.2224
 20
11.5442
 30
0.0
 10
482.6464
 20
11.5402
 30
0.0
  0
SPLINE
  5
247
330
1F
100
AcDbEntity
  8
magstocklogo
 62
     7
100
AcDbSpline
210
0.0
220
0.0
230
1.0
 70
     8
 71
     3
 72
     8
 73
     4
 74
     0
 42
0.000000001
 43
0.0000001
 40
0.0
 40
0.0
 40
0.0
 40
0.0
 40
1.0
 40
1.0
 40
1.0
 40
1.0
 10
482.6464
 20
11.5402
 30
0.0
 10
478.4874
 20
11.5162
 30
0.0
 10
474.3284
 20
11.5082
 30
0.0
 10
470.1694
 20
11.5472
 30
0.0
  0
SPLINE
  5
248
330
1F
100
AcDbEntity
  8
magstocklogo
 62
     7
100
AcDbSpline
210
0.0
220
0.0
230
1.0
 70
     8
 71
     3
 72
     8
 73
     4
 74
     0
 42
0.000000001
 43
0.0000001
 40
0.0
 40
0.0
 40
0.0
 40
0.0
 40
1.0
 40
1.0
 40
1.0
 40
1.0
 10
470.1694
 20
11.5472
 30
0.0
 10
469.4524
 20
11.5532
 30
0.0
 10
469.4184
 20
11.2422
 30
0.0
 10
469.4244
 20
10.6972
 30
0.0
  0
SPLINE
  5
249
330
1F
100
AcDbEntity
  8
magstocklogo
 62
     7
100
AcDbSpline
210
0.0
220
0.0
230
1.0
 70
     8
 71
     3
 72
     8
 73
     4
 74
     0
 42
0.000000001
 43
0.0000001
 40
0.0
 40
0.0
 40
0.0
 40
0.0
 40
1.0
 40
1.0
 40
1.0
 40
1.0
 10
469.4244
 20
10.6972
 30
0.0
 10
469.4464
 20
9.0182
 30
0.0
 10
469.4424
 20
7.3392
 30
0.0
 10
469.4304
 20
5.6592
 30
0.0
  0
SPLINE
  5
24A
330
1F
100
AcDbEntity
  8
magstocklogo
 62
     7
100
AcDbSpline
210
0.0
220
0.0
230
1.0
 70
     8
 71
     3
 72
     8
 73
     4
 74
     0
 42
0.000000001
 43
0.0000001
 40
0.0
 40
0.0
 40
0.0
 40
0.0
 40
1.0
 40
1.0
 40
1.0
 40
1.0
 10
469.4304
 20
5.6592
 30
0.0
 10
469.4194
 20
3.9892
 30
0.0
 10
468.2874
 20
2.8422
 30
0.0
 10
466.5144
 20
2.6752
 30
0.0
  0
SPLINE
  5
24B
330
1F
100
AcDbEntity
  8
magstocklogo
 62
     7
100
AcDbSpline
210
0.0
220
0.0
230
1.0
 70
     8
 71
     3
 72
     8
 73
     4
 74
     0
 42
0.000000001
 43
0.0000001
 40
0.0
 40
0.0
 40
0.0
 40
0.0
 40
1.0
 40
1.0
 40
1.0
 40
1.0
 10
466.5144
 20
2.6752
 30
0.0
 10
465.1154
 20
2.5432
 30
0.0
 10
463.7544
 20
3.6332
 30
0.0
 10
463.4114
 20
5.0762
 30
0.0
  0
SPLINE
  5
24C
330
1F
100
AcDbEntity
  8
magstocklogo
 62
     7
100
AcDbSpline
210
0.0
220
0.0
230
1.0
 70
     8
 71
     3
 72
     8
 73
     4
 74
     0
 42
0.000000001
 43
0.0000001
 40
0.0
 40
0.0
 40
0.0
 40
0.0
 40
1.0
 40
1.0
 40
1.0
 40
1.0
 10
463.4114
 20
5.0762
 30
0.0
 10
463.2524
 20
5.7382
 30
0.0
 10
463.2064
 20
6.3922
 30
0.0
 10
463.2064
 20
7.0642
 30
0.0
  0
SPLINE
  5
24D
330
1F
100
AcDbEntity
  8
magstocklogo
 62
     7
100
AcDbSpline
210
0.0
220
0.0
230
1.0
 70
     8
 71
     3
 72
     8
 73
     4
 74
     0
 42
0.000000001
 43
0.0000001
 40
0.0
 40
0.0
 40
0.0
 40
0.0
 40
1.0
 40
1.0
 40
1.0
 40
1.0
 10
463.2064
 20
7.0642
 30
0.0
 10
463.2104
 20
13.5432
 30
0.0
 10
463.2084
 20
20.0212
 30
0.0
 10
463.2094
 20
26.4992
 30
0.0
  0
SPLINE
  5
24E
330
1F
100
AcDbEntity
  8
magstocklogo
 62
     7
100
AcDbSpline
210
0.0
220
0.0
230
1.0
 70
     8
 71
     3
 72
     8
 73
     4
 74
     0
 42
0.000000001
 43
0.0000001
 40
0.0
 40
0.0
 40
0.0
 40
0.0
 40
1.0
 40
1.0
 40
1.0
 40
1.0
 10
463.2094
 20
26.4992
 30
0.0
 10
463.2104
 20
28.5322
 30
0.0
 10
464.2204
 20
29.5112
 30
0.0
 10
466.3124
 20
29.5112
 30
0.0
  0
SPLINE
  5
24F
330
1F
100
AcDbEntity
  8
magstocklogo
 62
     7
100
AcDbSpline
210
0.0
220
0.0
230
1.0
 70
     8
 71
     3
 72
     8
 73
     4
 74
     0
 42
0.000000001
 43
0.0000001
 40
0.0
 40
0.0
 40
0.0
 40
0.0
 40
1.0
 40
1.0
 40
1.0
 40
1.0
 10
466.3124
 20
29.5112
 30
0.0
 10
468.4104
 20
29.5112
 30
0.0
 10
469.6714
 20
28.3362
 30
0.0
 10
469.6724
 20
26.3812
 30
0.0
  0
SPLINE
  5
250
330
1F
100
AcDbEntity
  8
magstocklogo
 62
     7
100
AcDbSpline
210
0.0
220
0.0
230
1.0
 70
     8
 71
     3
 72
     8
 73
     4
 74
     0
 42
0.000000001
 43
0.0000001
 40
0.0
 40
0.0
 40
0.0
 40
0.0
 40
1.0
 40
1.0
 40
1.0
 40
1.0
 10
469.6724
 20
26.3812
 30
0.0
 10
469.6734
 20
24.5022
 30
0.0
 10
469.6724
 20
22.6242
 30
0.0
 10
469.6724
 20
20.5682
 30
0.0
  0
SPLINE
  5
251
330
1F
100
AcDbEntity
  8
magstocklogo
 62
     7
100
AcDbSpline
210
0.0
220
0.0
230
1.0
 70
     8
 71
     3
 72
     8
 73
     4
 74
     0
 42
0.000000001
 43
0.0000001
 40
0.0
 40
0.0
 40
0.0
 40
0.0
 40
1.0
 40
1.0
 40
1.0
 40
1.0
 10
469.6724
 20
20.5682
 30
0.0
 10
471.6064
 20
21.6092
 30
0.0
 10
473.4494
 20
22.5842
 30
0.0
 10
475.2754
 20
23.5902
 30
0.0
  0
SPLINE
  5
252
330
1F
100
AcDbEntity
  8
magstocklogo
 62
     7
100
AcDbSpline
210
0.0
220
0.0
230
1.0
 70
     8
 71
     3
 72
     8
 73
     4
 74
     0
 42
0.000000001
 43
0.0000001
 40
0.0
 40
0.0
 40
0.0
 40
0.0
 40
1.0
 40
1.0
 40
1.0
 40
1.0
 10
475.2754
 20
23.5902
 30
0.0
 10
478.3974
 20
25.3102
 30
0.0
 10
481.5204
 20
27.0282
 30
0.0
 10
484.6164
 20
28.7972
 30
0.0
  0
SPLINE
  5
253
330
1F
100
AcDbEntity
  8
magstocklogo
 62
     7
100
AcDbSpline
210
0.0
220
0.0
230
1.0
 70
     8
 71
     3
 72
     8
 73
     4
 74
     0
 42
0.000000001
 43
0.0000001
 40
0.0
 40
0.0
 40
0.0
 40
0.0
 40
1.0
 40
1.0
 40
1.0
 40
1.0
 10
484.6164
 20
28.7972
 30
0.0
 10
485.4724
 20
29.2852
 30
0.0
 10
486.3644
 20
29.3842
 30
0.0
 10
487.2644
 20
29.2542
 30
0.0
  0
SPLINE
  5
254
330
1F
100
AcDbEntity
  8
magstocklogo
 62
     7
100
AcDbSpline
210
0.0
220
0.0
230
1.0
 70
     8
 71
     3
 72
     8
 73
     4
 74
     0
 42
0.000000001
 43
0.0000001
 40
0.0
 40
0.0
 40
0.0
 40
0.0
 40
1.0
 40
1.0
 40
1.0
 40
1.0
 10
487.2644
 20
29.2542
 30
0.0
 10
488.0784
 20
29.1362
 30
0.0
 10
488.8114
 20
28.6152
 30
0.0
 10
488.9704
 20
27.7982
 30
0.0
  0
SPLINE
  5
255
330
1F
100
AcDbEntity
  8
magstocklogo
 62
     7
100
AcDbSpline
210
0.0
220
0.0
230
1.0
 70
     8
 71
     3
 72
     8
 73
     4
 74
     0
 42
0.000000001
 43
0.0000001
 40
0.0
 40
0.0
 40
0.0
 40
0.0
 40
1.0
 40
1.0
 40
1.0
 40
1.0
 10
488.9704
 20
27.7982
 30
0.0
 10
489.1594
 20
26.8292
 30
0.0
 10
489.5024
 20
25.7492
 30
0.0
 10
488.3534
 20
24.9832
 30
0.0
  0
SPLINE
  5
256
330
1F
100
AcDbEntity
  8
magstocklogo
 62
     7
100
AcDbSpline
210
0.0
220
0.0
230
1.0
 70
     8
 71
     3
 72
     8
 73
     4
 74
     0
 42
0.000000001
 43
0.0000001
 40
0.0
 40
0.0
 40
0.0
 40
0.0
 40
1.0
 40
1.0
 40
1.0
 40
1.0
 10
488.3534
 20
24.9832
 30
0.0
 10
485.7014
 20
23.2152
 30
0.0
 10
483.0794
 20
21.3992
 30
0.0
 10
480.4484
 20
19.5992
 30
0.0
  0
SPLINE
  5
257
330
1F
100
AcDbEntity
  8
magstocklogo
 62
     7
100
AcDbSpline
210
0.0
220
0.0
230
1.0
 70
     8
 71
     3
 72
     8
 73
     4
 74
     0
 42
0.000000001
 43
0.0000001
 40
0.0
 40
0.0
 40
0.0
 40
0.0
 40
1.0
 40
1.0
 40
1.0
 40
1.0
 10
480.4484
 20
19.5992
 30
0.0
 10
479.3024
 20
18.8152
 30
0.0
 10
478.1644
 20
18.0222
 30
0.0
 10
476.7314
 20
17.0322
 30
0.0
  0
SPLINE
  5
258
330
1F
100
AcDbEntity
  8
magstocklogo
 62
     7
100
AcDbSpline
210
0.0
220
0.0
230
1.0
 70
     8
 71
     3
 72
     8
 73
     4
 74
     0
 42
0.000000001
 43
0.0000001
 40
0.0
 40
0.0
 40
0.0
 40
0.0
 40
1.0
 40
1.0
 40
1.0
 40
1.0
 10
619.1914
 20
62.668
 30
0.0
 10
618.9224
 20
49.649
 30
0.0
 10
614.8914
 20
38.061
 30
0.0
 10
606.7284
 20
27.969
 30
0.0
  0
SPLINE
  5
259
330
1F
100
AcDbEntity
  8
magstocklogo
 62
     7
100
AcDbSpline
210
0.0
220
0.0
230
1.0
 70
     8
 71
     3
 72
     8
 73
     4
 74
     0
 42
0.000000001
 43
0.0000001
 40
0.0
 40
0.0
 40
0.0
 40
0.0
 40
1.0
 40
1.0
 40
1.0
 40
1.0
 10
606.7284
 20
27.969
 30
0.0
 10
605.6514
 20
26.637
 30
0.0
 10
604.4464
 20
25.41
 30
0.0
 10
603.3304
 20
24.109
 30
0.0
  0
SPLINE
  5
25A
330
1F
100
AcDbEntity
  8
magstocklogo
 62
     7
100
AcDbSpline
210
0.0
220
0.0
230
1.0
 70
     8
 71
     3
 72
     8
 73
     4
 74
     0
 42
0.000000001
 43
0.0000001
 40
0.0
 40
0.0
 40
0.0
 40
0.0
 40
1.0
 40
1.0
 40
1.0
 40
1.0
 10
603.3304
 20
24.109
 30
0.0
 10
602.2814
 20
22.888
 30
0.0
 10
600.3664
 20
23.065
 30
0.0
 10
599.5744
 20
23.871
 30
0.0
  0
SPLINE
  5
25B
330
1F
100
AcDbEntity
  8
magstocklogo
 62
     7
100
AcDbSpline
210
0.0
220
0.0
230
1.0
 70
     8
 71
     3
 72
     8
 73
     4
 74
     0
 42
0.000000001
 43
0.0000001
 40
0.0
 40
0.0
 40
0.0
 40
0.0
 40
1.0
 40
1.0
 40
1.0
 40
1.0
 10
599.5744
 20
23.871
 30
0.0
 10
598.4984
 20
24.965
 30
0.0
 10
598.5354
 20
26.458
 30
0.0
 10
599.7434
 20
27.693
 30
0.0
  0
SPLINE
  5
25C
330
1F
100
AcDbEntity
  8
magstocklogo
 62
     7
100
AcDbSpline
210
0.0
220
0.0
230
1.0
 70
     8
 71
     3
 72
     8
 73
     4
 74
     0
 42
0.000000001
 43
0.0000001
 40
0.0
 40
0.0
 40
0.0
 40
0.0
 40
1.0
 40
1.0
 40
1.0
 40
1.0
 10
599.7434
 20
27.693
 30
0.0
 10
606.6774
 20
34.788
 30
0.0
 10
611.1974
 20
43.209
 30
0.0
 10
613.1034
 20
52.913
 30
0.0
  0
SPLINE
  5
25D
330
1F
100
AcDbEntity
  8
magstocklogo
 62
     7
100
AcDbSpline
210
0.0
220
0.0
230
1.0
 70
     8
 71
     3
 72
     8
 73
     4
 74
     0
 42
0.000000001
 43
0.0000001
 40
0.0
 40
0.0
 40
0.0
 40
0.0
 40
1.0
 40
1.0
 40
1.0
 40
1.0
 10
613.1034
 20
52.913
 30
0.0
 10
615.9304
 20
67.308
 30
0.0
 10
612.7234
 20
80.344
 30
0.0
 10
603.7004
 20
91.93
 30
0.0
  0
SPLINE
  5
25E
330
1F
100
AcDbEntity
  8
magstocklogo
 62
     7
100
AcDbSpline
210
0.0
220
0.0
230
1.0
 70
     8
 71
     3
 72
     8
 73
     4
 74
     0
 42
0.000000001
 43
0.0000001
 40
0.0
 40
0.0
 40
0.0
 40
0.0
 40
1.0
 40
1.0
 40
1.0
 40
1.0
 10
603.7004
 20
91.93
 30
0.0
 10
602.4724
 20
93.506
 30
0.0
 10
601.1254
 20
94.977
 30
0.0
 10
599.7454
 20
96.422
 30
0.0
  0
SPLINE
  5
25F
330
1F
100
AcDbEntity
  8
magstocklogo
 62
     7
100
AcDbSpline
210
0.0
220
0.0
230
1.0
 70
     8
 71
     3
 72
     8
 73
     4
 74
     0
 42
0.000000001
 43
0.0000001
 40
0.0
 40
0.0
 40
0.0
 40
0.0
 40
1.0
 40
1.0
 40
1.0
 40
1.0
 10
599.7454
 20
96.422
 30
0.0
 10
598.5314
 20
97.693
 30
0.0
 10
598.4944
 20
99.176
 30
0.0
 10
599.5804
 20
100.219
 30
0.0
  0
SPLINE
  5
260
330
1F
100
AcDbEntity
  8
magstocklogo
 62
     7
100
AcDbSpline
210
0.0
220
0.0
230
1.0
 70
     8
 71
     3
 72
     8
 73
     4
 74
     0
 42
0.000000001
 43
0.0000001
 40
0.0
 40
0.0
 40
0.0
 40
0.0
 40
1.0
 40
1.0
 40
1.0
 40
1.0
 10
599.5804
 20
100.219
 30
0.0
 10
600.6314
 20
101.23
 30
0.0
 10
602.2294
 20
101.1
 30
0.0
 10
603.3904
 20
99.915
 30
0.0
  0
SPLINE
  5
261
330
1F
100
AcDbEntity
  8
magstocklogo
 62
     7
100
AcDbSpline
210
0.0
220
0.0
230
1.0
 70
     8
 71
     3
 72
     8
 73
     4
 74
     0
 42
0.000000001
 43
0.0000001
 40
0.0
 40
0.0
 40
0.0
 40
0.0
 40
1.0
 40
1.0
 40
1.0
 40
1.0
 10
603.3904
 20
99.915
 30
0.0
 10
610.3164
 20
92.851
 30
0.0
 10
615.2204
 20
84.634
 30
0.0
 10
617.6384
 20
74.991
 30
0.0
  0
SPLINE
  5
262
330
1F
100
AcDbEntity
  8
magstocklogo
 62
     7
100
AcDbSpline
210
0.0
220
0.0
230
1.0
 70
     8
 71
     3
 72
     8
 73
     4
 74
     0
 42
0.000000001
 43
0.0000001
 40
0.0
 40
0.0
 40
0.0
 40
0.0
 40
1.0
 40
1.0
 40
1.0
 40
1.0
 10
617.6384
 20
74.991
 30
0.0
 10
618.6614
 20
70.917
 30
0.0
 10
619.0544
 20
66.77
 30
0.0
 10
619.1914
 20
62.668
 30
0.0
  0
SPLINE
  5
263
330
1F
100
AcDbEntity
  8
magstocklogo
 62
     7
100
AcDbSpline
210
0.0
220
0.0
230
1.0
 70
     8
 71
     3
 72
     8
 73
     4
 74
     0
 42
0.000000001
 43
0.0000001
 40
0.0
 40
0.0
 40
0.0
 40
0.0
 40
1.0
 40
1.0
 40
1.0
 40
1.0
 10
195.9004
 20
2.1475
 30
0.0
 10
194.8504
 20
2.1125
 30
0.0
 10
194.0824
 20
2.8515
 30
0.0
 10
193.4604
 20
3.7615
 30
0.0
  0
SPLINE
  5
264
330
1F
100
AcDbEntity
  8
magstocklogo
 62
     7
100
AcDbSpline
210
0.0
220
0.0
230
1.0
 70
     8
 71
     3
 72
     8
 73
     4
 74
     0
 42
0.000000001
 43
0.0000001
 40
0.0
 40
0.0
 40
0.0
 40
0.0
 40
1.0
 40
1.0
 40
1.0
 40
1.0
 10
193.4604
 20
3.7615
 30
0.0
 10
192.4064
 20
5.3045
 30
0.0
 10
191.3824
 20
6.8685
 30
0.0
 10
190.3754
 20
8.4425
 30
0.0
  0
SPLINE
  5
265
330
1F
100
AcDbEntity
  8
magstocklogo
 62
     7
100
AcDbSpline
210
0.0
220
0.0
230
1.0
 70
     8
 71
     3
 72
     8
 73
     4
 74
     0
 42
0.000000001
 43
0.0000001
 40
0.0
 40
0.0
 40
0.0
 40
0.0
 40
1.0
 40
1.0
 40
1.0
 40
1.0
 10
190.3754
 20
8.4425
 30
0.0
 10
190.0714
 20
8.9185
 30
0.0
 10
189.7484
 20
9.1405
 30
0.0
 10
189.1444
 20
9.1345
 30
0.0
  0
SPLINE
  5
266
330
1F
100
AcDbEntity
  8
magstocklogo
 62
     7
100
AcDbSpline
210
0.0
220
0.0
230
1.0
 70
     8
 71
     3
 72
     8
 73
     4
 74
     0
 42
0.000000001
 43
0.0000001
 40
0.0
 40
0.0
 40
0.0
 40
0.0
 40
1.0
 40
1.0
 40
1.0
 40
1.0
 10
189.1444
 20
9.1345
 30
0.0
 10
185.6284
 20
9.1005
 30
0.0
 10
182.1094
 20
9.0955
 30
0.0
 10
178.5934
 20
9.1365
 30
0.0
  0
SPLINE
  5
267
330
1F
100
AcDbEntity
  8
magstocklogo
 62
     7
100
AcDbSpline
210
0.0
220
0.0
230
1.0
 70
     8
 71
     3
 72
     8
 73
     4
 74
     0
 42
0.000000001
 43
0.0000001
 40
0.0
 40
0.0
 40
0.0
 40
0.0
 40
1.0
 40
1.0
 40
1.0
 40
1.0
 10
178.5934
 20
9.1365
 30
0.0
 10
177.9314
 20
9.1445
 30
0.0
 10
177.6084
 20
8.8925
 30
0.0
 10
177.2784
 20
8.3765
 30
0.0
  0
SPLINE
  5
268
330
1F
100
AcDbEntity
  8
magstocklogo
 62
     7
100
AcDbSpline
210
0.0
220
0.0
230
1.0
 70
     8
 71
     3
 72
     8
 73
     4
 74
     0
 42
0.000000001
 43
0.0000001
 40
0.0
 40
0.0
 40
0.0
 40
0.0
 40
1.0
 40
1.0
 40
1.0
 40
1.0
 10
177.2784
 20
8.3765
 30
0.0
 10
176.2074
 20
6.7025
 30
0.0
 10
175.1404
 20
5.0205
 30
0.0
 10
173.9634
 20
3.4215
 30
0.0
  0
SPLINE
  5
269
330
1F
100
AcDbEntity
  8
magstocklogo
 62
     7
100
AcDbSpline
210
0.0
220
0.0
230
1.0
 70
     8
 71
     3
 72
     8
 73
     4
 74
     0
 42
0.000000001
 43
0.0000001
 40
0.0
 40
0.0
 40
0.0
 40
0.0
 40
1.0
 40
1.0
 40
1.0
 40
1.0
 10
173.9634
 20
3.4215
 30
0.0
 10
172.7174
 20
1.7315
 30
0.0
 10
170.6804
 20
1.6735
 30
0.0
 10
169.2284
 20
3.1745
 30
0.0
  0
SPLINE
  5
26A
330
1F
100
AcDbEntity
  8
magstocklogo
 62
     7
100
AcDbSpline
210
0.0
220
0.0
230
1.0
 70
     8
 71
     3
 72
     8
 73
     4
 74
     0
 42
0.000000001
 43
0.0000001
 40
0.0
 40
0.0
 40
0.0
 40
0.0
 40
1.0
 40
1.0
 40
1.0
 40
1.0
 10
169.2284
 20
3.1745
 30
0.0
 10
168.2134
 20
4.2245
 30
0.0
 10
168.1604
 20
5.6455
 30
0.0
 10
169.1224
 20
7.2195
 30
0.0
  0
SPLINE
  5
26B
330
1F
100
AcDbEntity
  8
magstocklogo
 62
     7
100
AcDbSpline
210
0.0
220
0.0
230
1.0
 70
     8
 71
     3
 72
     8
 73
     4
 74
     0
 42
0.000000001
 43
0.0000001
 40
0.0
 40
0.0
 40
0.0
 40
0.0
 40
1.0
 40
1.0
 40
1.0
 40
1.0
 10
169.1224
 20
7.2195
 30
0.0
 10
170.6554
 20
9.7275
 30
0.0
 10
172.1864
 20
12.2385
 30
0.0
 10
173.7644
 20
14.7185
 30
0.0
  0
SPLINE
  5
26C
330
1F
100
AcDbEntity
  8
magstocklogo
 62
     7
100
AcDbSpline
210
0.0
220
0.0
230
1.0
 70
     8
 71
     3
 72
     8
 73
     4
 74
     0
 42
0.000000001
 43
0.0000001
 40
0.0
 40
0.0
 40
0.0
 40
0.0
 40
1.0
 40
1.0
 40
1.0
 40
1.0
 10
173.7644
 20
14.7185
 30
0.0
 10
176.0224
 20
18.2655
 30
0.0
 10
178.0944
 20
21.9295
 30
0.0
 10
180.4724
 20
25.4025
 30
0.0
  0
SPLINE
  5
26D
330
1F
100
AcDbEntity
  8
magstocklogo
 62
     7
100
AcDbSpline
210
0.0
220
0.0
230
1.0
 70
     8
 71
     3
 72
     8
 73
     4
 74
     0
 42
0.000000001
 43
0.0000001
 40
0.0
 40
0.0
 40
0.0
 40
0.0
 40
1.0
 40
1.0
 40
1.0
 40
1.0
 10
180.4724
 20
25.4025
 30
0.0
 10
180.8174
 20
25.9065
 30
0.0
 10
181.2294
 20
26.3325
 30
0.0
 10
181.6624
 20
26.7375
 30
0.0
  0
SPLINE
  5
26E
330
1F
100
AcDbEntity
  8
magstocklogo
 62
     7
100
AcDbSpline
210
0.0
220
0.0
230
1.0
 70
     8
 71
     3
 72
     8
 73
     4
 74
     0
 42
0.000000001
 43
0.0000001
 40
0.0
 40
0.0
 40
0.0
 40
0.0
 40
1.0
 40
1.0
 40
1.0
 40
1.0
 10
181.6624
 20
26.7375
 30
0.0
 10
183.1084
 20
28.0885
 30
0.0
 10
184.9274
 20
28.0715
 30
0.0
 10
186.3344
 20
26.6535
 30
0.0
  0
SPLINE
  5
26F
330
1F
100
AcDbEntity
  8
magstocklogo
 62
     7
100
AcDbSpline
210
0.0
220
0.0
230
1.0
 70
     8
 71
     3
 72
     8
 73
     4
 74
     0
 42
0.000000001
 43
0.0000001
 40
0.0
 40
0.0
 40
0.0
 40
0.0
 40
1.0
 40
1.0
 40
1.0
 40
1.0
 10
186.3344
 20
26.6535
 30
0.0
 10
187.8084
 20
25.1685
 30
0.0
 10
188.7004
 20
23.2725
 30
0.0
 10
189.7904
 20
21.5225
 30
0.0
  0
SPLINE
  5
270
330
1F
100
AcDbEntity
  8
magstocklogo
 62
     7
100
AcDbSpline
210
0.0
220
0.0
230
1.0
 70
     8
 71
     3
 72
     8
 73
     4
 74
     0
 42
0.000000001
 43
0.0000001
 40
0.0
 40
0.0
 40
0.0
 40
0.0
 40
1.0
 40
1.0
 40
1.0
 40
1.0
 10
189.7904
 20
21.5225
 30
0.0
 10
192.7724
 20
16.7395
 30
0.0
 10
195.7144
 20
11.9315
 30
0.0
 10
198.6614
 20
7.1275
 30
0.0
  0
SPLINE
  5
271
330
1F
100
AcDbEntity
  8
magstocklogo
 62
     7
100
AcDbSpline
210
0.0
220
0.0
230
1.0
 70
     8
 71
     3
 72
     8
 73
     4
 74
     0
 42
0.000000001
 43
0.0000001
 40
0.0
 40
0.0
 40
0.0
 40
0.0
 40
1.0
 40
1.0
 40
1.0
 40
1.0
 10
198.6614
 20
7.1275
 30
0.0
 10
199.3454
 20
6.0135
 30
0.0
 10
199.6024
 20
4.8135
 30
0.0
 10
198.8814
 20
3.6395
 30
0.0
  0
SPLINE
  5
272
330
1F
100
AcDbEntity
  8
magstocklogo
 62
     7
100
AcDbSpline
210
0.0
220
0.0
230
1.0
 70
     8
 71
     3
 72
     8
 73
     4
 74
     0
 42
0.000000001
 43
0.0000001
 40
0.0
 40
0.0
 40
0.0
 40
0.0
 40
1.0
 40
1.0
 40
1.0
 40
1.0
 10
198.8814
 20
3.6395
 30
0.0
 10
198.2614
 20
2.6315
 30
0.0
 10
197.2954
 20
2.1125
 30
0.0
 10
195.9004
 20
2.1475
 30
0.0
  0
SPLINE
  5
273
330
1F
100
AcDbEntity
  8
magstocklogo
 62
     7
100
AcDbSpline
210
0.0
220
0.0
230
1.0
 70
     8
 71
     3
 72
     8
 73
     4
 74
     0
 42
0.000000001
 43
0.0000001
 40
0.0
 40
0.0
 40
0.0
 40
0.0
 40
1.0
 40
1.0
 40
1.0
 40
1.0
 10
598.8193
 20
61.5215
 30
0.0
 10
598.4803
 20
52.0695
 30
0.0
 10
594.9593
 20
42.9995
 30
0.0
 10
587.6503
 20
35.5075
 30
0.0
  0
SPLINE
  5
274
330
1F
100
AcDbEntity
  8
magstocklogo
 62
     7
100
AcDbSpline
210
0.0
220
0.0
230
1.0
 70
     8
 71
     3
 72
     8
 73
     4
 74
     0
 42
0.000000001
 43
0.0000001
 40
0.0
 40
0.0
 40
0.0
 40
0.0
 40
1.0
 40
1.0
 40
1.0
 40
1.0
 10
587.6503
 20
35.5075
 30
0.0
 10
586.1063
 20
33.9245
 30
0.0
 10
583.7993
 20
34.4785
 30
0.0
 10
583.2653
 20
36.5195
 30
0.0
  0
SPLINE
  5
275
330
1F
100
AcDbEntity
  8
magstocklogo
 62
     7
100
AcDbSpline
210
0.0
220
0.0
230
1.0
 70
     8
 71
     3
 72
     8
 73
     4
 74
     0
 42
0.000000001
 43
0.0000001
 40
0.0
 40
0.0
 40
0.0
 40
0.0
 40
1.0
 40
1.0
 40
1.0
 40
1.0
 10
583.2653
 20
36.5195
 30
0.0
 10
582.9813
 20
37.6025
 30
0.0
 10
583.4933
 20
38.4675
 30
0.0
 10
584.2183
 20
39.1955
 30
0.0
  0
SPLINE
  5
276
330
1F
100
AcDbEntity
  8
magstocklogo
 62
     7
100
AcDbSpline
210
0.0
220
0.0
230
1.0
 70
     8
 71
     3
 72
     8
 73
     4
 74
     0
 42
0.000000001
 43
0.0000001
 40
0.0
 40
0.0
 40
0.0
 40
0.0
 40
1.0
 40
1.0
 40
1.0
 40
1.0
 10
584.2183
 20
39.1955
 30
0.0
 10
586.3433
 20
41.3295
 30
0.0
 10
588.1063
 20
43.7325
 30
0.0
 10
589.5183
 20
46.3805
 30
0.0
  0
SPLINE
  5
277
330
1F
100
AcDbEntity
  8
magstocklogo
 62
     7
100
AcDbSpline
210
0.0
220
0.0
230
1.0
 70
     8
 71
     3
 72
     8
 73
     4
 74
     0
 42
0.000000001
 43
0.0000001
 40
0.0
 40
0.0
 40
0.0
 40
0.0
 40
1.0
 40
1.0
 40
1.0
 40
1.0
 10
589.5183
 20
46.3805
 30
0.0
 10
593.0183
 20
52.9485
 30
0.0
 10
594.5413
 20
59.8665
 30
0.0
 10
593.3313
 20
67.3185
 30
0.0
  0
SPLINE
  5
278
330
1F
100
AcDbEntity
  8
magstocklogo
 62
     7
100
AcDbSpline
210
0.0
220
0.0
230
1.0
 70
     8
 71
     3
 72
     8
 73
     4
 74
     0
 42
0.000000001
 43
0.0000001
 40
0.0
 40
0.0
 40
0.0
 40
0.0
 40
1.0
 40
1.0
 40
1.0
 40
1.0
 10
593.3313
 20
67.3185
 30
0.0
 10
592.2943
 20
73.7105
 30
0.0
 10
589.4673
 20
79.1705
 30
0.0
 10
585.1303
 20
83.9075
 30
0.0
  0
SPLINE
  5
279
330
1F
100
AcDbEntity
  8
magstocklogo
 62
     7
100
AcDbSpline
210
0.0
220
0.0
230
1.0
 70
     8
 71
     3
 72
     8
 73
     4
 74
     0
 42
0.000000001
 43
0.0000001
 40
0.0
 40
0.0
 40
0.0
 40
0.0
 40
1.0
 40
1.0
 40
1.0
 40
1.0
 10
585.1303
 20
83.9075
 30
0.0
 10
584.7253
 20
84.3485
 30
0.0
 10
584.3383
 20
84.8055
 30
0.0
 10
583.9523
 20
85.2635
 30
0.0
  0
SPLINE
  5
27A
330
1F
100
AcDbEntity
  8
magstocklogo
 62
     7
100
AcDbSpline
210
0.0
220
0.0
230
1.0
 70
     8
 71
     3
 72
     8
 73
     4
 74
     0
 42
0.000000001
 43
0.0000001
 40
0.0
 40
0.0
 40
0.0
 40
0.0
 40
1.0
 40
1.0
 40
1.0
 40
1.0
 10
583.9523
 20
85.2635
 30
0.0
 10
582.9073
 20
86.5085
 30
0.0
 10
582.9463
 20
87.8345
 30
0.0
 10
584.0513
 20
88.8485
 30
0.0
  0
SPLINE
  5
27B
330
1F
100
AcDbEntity
  8
magstocklogo
 62
     7
100
AcDbSpline
210
0.0
220
0.0
230
1.0
 70
     8
 71
     3
 72
     8
 73
     4
 74
     0
 42
0.000000001
 43
0.0000001
 40
0.0
 40
0.0
 40
0.0
 40
0.0
 40
1.0
 40
1.0
 40
1.0
 40
1.0
 10
584.0513
 20
88.8485
 30
0.0
 10
585.1203
 20
89.8275
 30
0.0
 10
586.5773
 20
89.7695
 30
0.0
 10
587.6773
 20
88.6425
 30
0.0
  0
SPLINE
  5
27C
330
1F
100
AcDbEntity
  8
magstocklogo
 62
     7
100
AcDbSpline
210
0.0
220
0.0
230
1.0
 70
     8
 71
     3
 72
     8
 73
     4
 74
     0
 42
0.000000001
 43
0.0000001
 40
0.0
 40
0.0
 40
0.0
 40
0.0
 40
1.0
 40
1.0
 40
1.0
 40
1.0
 10
587.6773
 20
88.6425
 30
0.0
 10
590.2463
 20
86.0105
 30
0.0
 10
592.4983
 20
83.1345
 30
0.0
 10
594.2823
 20
79.9085
 30
0.0
  0
SPLINE
  5
27D
330
1F
100
AcDbEntity
  8
magstocklogo
 62
     7
100
AcDbSpline
210
0.0
220
0.0
230
1.0
 70
     8
 71
     3
 72
     8
 73
     4
 74
     0
 42
0.000000001
 43
0.0000001
 40
0.0
 40
0.0
 40
0.0
 40
0.0
 40
1.0
 40
1.0
 40
1.0
 40
1.0
 10
594.2823
 20
79.9085
 30
0.0
 10
597.2843
 20
74.4795
 30
0.0
 10
598.7633
 20
68.6555
 30
0.0
 10
598.8193
 20
61.5215
 30
0.0
  0
SPLINE
  5
27E
330
1F
100
AcDbEntity
  8
magstocklogo
 62
     7
100
AcDbSpline
210
0.0
220
0.0
230
1.0
 70
     8
 71
     3
 72
     8
 73
     4
 74
     0
 42
0.000000001
 43
0.0000001
 40
0.0
 40
0.0
 40
0.0
 40
0.0
 40
1.0
 40
1.0
 40
1.0
 40
1.0
 10
330.4961
 20
28.5732
 30
0.0
 10
334.6531
 20
28.5732
 30
0.0
 10
338.8111
 20
28.5882
 30
0.0
 10
342.9691
 20
28.5662
 30
0.0
  0
SPLINE
  5
27F
330
1F
100
AcDbEntity
  8
magstocklogo
 62
     7
100
AcDbSpline
210
0.0
220
0.0
230
1.0
 70
     8
 71
     3
 72
     8
 73
     4
 74
     0
 42
0.000000001
 43
0.0000001
 40
0.0
 40
0.0
 40
0.0
 40
0.0
 40
1.0
 40
1.0
 40
1.0
 40
1.0
 10
342.9691
 20
28.5662
 30
0.0
 10
344.3851
 20
28.5582
 30
0.0
 10
345.4081
 20
27.8002
 30
0.0
 10
345.7921
 20
26.5942
 30
0.0
  0
SPLINE
  5
280
330
1F
100
AcDbEntity
  8
magstocklogo
 62
     7
100
AcDbSpline
210
0.0
220
0.0
230
1.0
 70
     8
 71
     3
 72
     8
 73
     4
 74
     0
 42
0.000000001
 43
0.0000001
 40
0.0
 40
0.0
 40
0.0
 40
0.0
 40
1.0
 40
1.0
 40
1.0
 40
1.0
 10
345.7921
 20
26.5942
 30
0.0
 10
346.2041
 20
25.2952
 30
0.0
 10
345.7701
 20
23.8412
 30
0.0
 10
344.7651
 20
23.0282
 30
0.0
  0
SPLINE
  5
281
330
1F
100
AcDbEntity
  8
magstocklogo
 62
     7
100
AcDbSpline
210
0.0
220
0.0
230
1.0
 70
     8
 71
     3
 72
     8
 73
     4
 74
     0
 42
0.000000001
 43
0.0000001
 40
0.0
 40
0.0
 40
0.0
 40
0.0
 40
1.0
 40
1.0
 40
1.0
 40
1.0
 10
344.7651
 20
23.0282
 30
0.0
 10
344.0521
 20
22.4532
 30
0.0
 10
343.2101
 20
22.4682
 30
0.0
 10
342.3811
 20
22.4642
 30
0.0
  0
SPLINE
  5
282
330
1F
100
AcDbEntity
  8
magstocklogo
 62
     7
100
AcDbSpline
210
0.0
220
0.0
230
1.0
 70
     8
 71
     3
 72
     8
 73
     4
 74
     0
 42
0.000000001
 43
0.0000001
 40
0.0
 40
0.0
 40
0.0
 40
0.0
 40
1.0
 40
1.0
 40
1.0
 40
1.0
 10
342.3811
 20
22.4642
 30
0.0
 10
339.8231
 20
22.4492
 30
0.0
 10
337.2641
 20
22.4302
 30
0.0
 10
334.7061
 20
22.4872
 30
0.0
  0
SPLINE
  5
283
330
1F
100
AcDbEntity
  8
magstocklogo
 62
     7
100
AcDbSpline
210
0.0
220
0.0
230
1.0
 70
     8
 71
     3
 72
     8
 73
     4
 74
     0
 42
0.000000001
 43
0.0000001
 40
0.0
 40
0.0
 40
0.0
 40
0.0
 40
1.0
 40
1.0
 40
1.0
 40
1.0
 10
334.7061
 20
22.4872
 30
0.0
 10
333.8191
 20
22.5072
 30
0.0
 10
333.5701
 20
22.2602
 30
0.0
 10
333.5791
 20
21.3502
 30
0.0
  0
SPLINE
  5
284
330
1F
100
AcDbEntity
  8
magstocklogo
 62
     7
100
AcDbSpline
210
0.0
220
0.0
230
1.0
 70
     8
 71
     3
 72
     8
 73
     4
 74
     0
 42
0.000000001
 43
0.0000001
 40
0.0
 40
0.0
 40
0.0
 40
0.0
 40
1.0
 40
1.0
 40
1.0
 40
1.0
 10
333.5791
 20
21.3502
 30
0.0
 10
333.6261
 20
16.1542
 30
0.0
 10
333.6181
 20
10.9562
 30
0.0
 10
333.5901
 20
5.7592
 30
0.0
  0
SPLINE
  5
285
330
1F
100
AcDbEntity
  8
magstocklogo
 62
     7
100
AcDbSpline
210
0.0
220
0.0
230
1.0
 70
     8
 71
     3
 72
     8
 73
     4
 74
     0
 42
0.000000001
 43
0.0000001
 40
0.0
 40
0.0
 40
0.0
 40
0.0
 40
1.0
 40
1.0
 40
1.0
 40
1.0
 10
333.5901
 20
5.7592
 30
0.0
 10
333.5771
 20
3.3042
 30
0.0
 10
331.2011
 20
1.9312
 30
0.0
 10
329.0301
 20
3.0872
 30
0.0
  0
SPLINE
  5
286
330
1F
100
AcDbEntity
  8
magstocklogo
 62
     7
100
AcDbSpline
210
0.0
220
0.0
230
1.0
 70
     8
 71
     3
 72
     8
 73
     4
 74
     0
 42
0.000000001
 43
0.0000001
 40
0.0
 40
0.0
 40
0.0
 40
0.0
 40
1.0
 40
1.0
 40
1.0
 40
1.0
 10
329.0301
 20
3.0872
 30
0.0
 10
328.1721
 20
3.5432
 30
0.0
 10
327.5851
 20
4.2122
 30
0.0
 10
327.5761
 20
5.2472
 30
0.0
  0
SPLINE
  5
287
330
1F
100
AcDbEntity
  8
magstocklogo
 62
     7
100
AcDbSpline
210
0.0
220
0.0
230
1.0
 70
     8
 71
     3
 72
     8
 73
     4
 74
     0
 42
0.000000001
 43
0.0000001
 40
0.0
 40
0.0
 40
0.0
 40
0.0
 40
1.0
 40
1.0
 40
1.0
 40
1.0
 10
327.5761
 20
5.2472
 30
0.0
 10
327.5491
 20
8.1242
 30
0.0
 10
327.5201
 20
11.0012
 30
0.0
 10
327.5071
 20
13.8772
 30
0.0
  0
SPLINE
  5
288
330
1F
100
AcDbEntity
  8
magstocklogo
 62
     7
100
AcDbSpline
210
0.0
220
0.0
230
1.0
 70
     8
 71
     3
 72
     8
 73
     4
 74
     0
 42
0.000000001
 43
0.0000001
 40
0.0
 40
0.0
 40
0.0
 40
0.0
 40
1.0
 40
1.0
 40
1.0
 40
1.0
 10
327.5071
 20
13.8772
 30
0.0
 10
327.4961
 20
16.3162
 30
0.0
 10
327.4401
 20
18.7572
 30
0.0
 10
327.5351
 20
21.1922
 30
0.0
  0
SPLINE
  5
289
330
1F
100
AcDbEntity
  8
magstocklogo
 62
     7
100
AcDbSpline
210
0.0
220
0.0
230
1.0
 70
     8
 71
     3
 72
     8
 73
     4
 74
     0
 42
0.000000001
 43
0.0000001
 40
0.0
 40
0.0
 40
0.0
 40
0.0
 40
1.0
 40
1.0
 40
1.0
 40
1.0
 10
327.5351
 20
21.1922
 30
0.0
 10
327.5791
 20
22.3042
 30
0.0
 10
327.1981
 20
22.5112
 30
0.0
 10
326.1841
 20
22.4872
 30
0.0
  0
SPLINE
  5
28A
330
1F
100
AcDbEntity
  8
magstocklogo
 62
     7
100
AcDbSpline
210
0.0
220
0.0
230
1.0
 70
     8
 71
     3
 72
     8
 73
     4
 74
     0
 42
0.000000001
 43
0.0000001
 40
0.0
 40
0.0
 40
0.0
 40
0.0
 40
1.0
 40
1.0
 40
1.0
 40
1.0
 10
326.1841
 20
22.4872
 30
0.0
 10
323.4671
 20
22.4212
 30
0.0
 10
320.7481
 20
22.4672
 30
0.0
 10
318.0301
 20
22.4712
 30
0.0
  0
SPLINE
  5
28B
330
1F
100
AcDbEntity
  8
magstocklogo
 62
     7
100
AcDbSpline
210
0.0
220
0.0
230
1.0
 70
     8
 71
     3
 72
     8
 73
     4
 74
     0
 42
0.000000001
 43
0.0000001
 40
0.0
 40
0.0
 40
0.0
 40
0.0
 40
1.0
 40
1.0
 40
1.0
 40
1.0
 10
318.0301
 20
22.4712
 30
0.0
 10
316.8011
 20
22.4732
 30
0.0
 10
315.8641
 20
22.9852
 30
0.0
 10
315.3811
 20
24.1362
 30
0.0
  0
SPLINE
  5
28C
330
1F
100
AcDbEntity
  8
magstocklogo
 62
     7
100
AcDbSpline
210
0.0
220
0.0
230
1.0
 70
     8
 71
     3
 72
     8
 73
     4
 74
     0
 42
0.000000001
 43
0.0000001
 40
0.0
 40
0.0
 40
0.0
 40
0.0
 40
1.0
 40
1.0
 40
1.0
 40
1.0
 10
315.3811
 20
24.1362
 30
0.0
 10
314.8901
 20
25.3072
 30
0.0
 10
314.9551
 20
26.4622
 30
0.0
 10
315.7371
 20
27.5132
 30
0.0
  0
SPLINE
  5
28D
330
1F
100
AcDbEntity
  8
magstocklogo
 62
     7
100
AcDbSpline
210
0.0
220
0.0
230
1.0
 70
     8
 71
     3
 72
     8
 73
     4
 74
     0
 42
0.000000001
 43
0.0000001
 40
0.0
 40
0.0
 40
0.0
 40
0.0
 40
1.0
 40
1.0
 40
1.0
 40
1.0
 10
315.7371
 20
27.5132
 30
0.0
 10
316.3991
 20
28.4022
 30
0.0
 10
317.3441
 20
28.5922
 30
0.0
 10
318.3831
 20
28.5892
 30
0.0
  0
SPLINE
  5
28E
330
1F
100
AcDbEntity
  8
magstocklogo
 62
     7
100
AcDbSpline
210
0.0
220
0.0
230
1.0
 70
     8
 71
     3
 72
     8
 73
     4
 74
     0
 42
0.000000001
 43
0.0000001
 40
0.0
 40
0.0
 40
0.0
 40
0.0
 40
1.0
 40
1.0
 40
1.0
 40
1.0
 10
318.3831
 20
28.5892
 30
0.0
 10
322.4211
 20
28.5792
 30
0.0
 10
326.4581
 20
28.5852
 30
0.0
 10
330.4961
 20
28.5852
 30
0.0
  0
LWPOLYLINE
  5
28F
330
1F
100
AcDbEntity
  8
magstocklogo
 62
     7
100
AcDbPolyline
 90
        2
 70
     0
 43
0.0
 10
146.0604
 20
12.5883
 10
146.0604
 20
13.9263
  0
SPLINE
  5
290
330
1F
100
AcDbEntity
  8
magstocklogo
 62
     7
100
AcDbSpline
210
0.0
220
0.0
230
1.0
 70
     8
 71
     3
 72
     8
 73
     4
 74
     0
 42
0.000000001
 43
0.0000001
 40
0.0
 40
0.0
 40
0.0
 40
0.0
 40
1.0
 40
1.0
 40
1.0
 40
1.0
 10
53.0415
 20
78.9448
 30
0.0
 10
40.9665
 20
78.9448
 30
0.0
 10
28.8915
 20
78.9448
 30
0.0
 10
16.8165
 20
78.9448
 30
0.0
  0
SPLINE
  5
291
330
1F
100
AcDbEntity
  8
magstocklogo
 62
     7
100
AcDbSpline
210
0.0
220
0.0
230
1.0
 70
     8
 71
     3
 72
     8
 73
     4
 74
     0
 42
0.000000001
 43
0.0000001
 40
0.0
 40
0.0
 40
0.0
 40
0.0
 40
1.0
 40
1.0
 40
1.0
 40
1.0
 10
16.8165
 20
78.9448
 30
0.0
 10
14.8995
 20
78.9448
 30
0.0
 10
14.1655
 20
79.6888
 30
0.0
 10
14.1655
 20
81.6428
 30
0.0
  0
SPLINE
  5
292
330
1F
100
AcDbEntity
  8
magstocklogo
 62
     7
100
AcDbSpline
210
0.0
220
0.0
230
1.0
 70
     8
 71
     3
 72
     8
 73
     4
 74
     0
 42
0.000000001
 43
0.0000001
 40
0.0
 40
0.0
 40
0.0
 40
0.0
 40
1.0
 40
1.0
 40
1.0
 40
1.0
 10
14.1655
 20
81.6428
 30
0.0
 10
14.1635
 20
96.1958
 30
0.0
 10
14.1615
 20
110.7498
 30
0.0
 10
14.1605
 20
125.3038
 30
0.0
  0
SPLINE
  5
293
330
1F
100
AcDbEntity
  8
magstocklogo
 62
     7
100
AcDbSpline
210
0.0
220
0.0
230
1.0
 70
     8
 71
     3
 72
     8
 73
     4
 74
     0
 42
0.000000001
 43
0.0000001
 40
0.0
 40
0.0
 40
0.0
 40
0.0
 40
1.0
 40
1.0
 40
1.0
 40
1.0
 10
14.1605
 20
125.3038
 30
0.0
 10
14.1605
 20
127.6708
 30
0.0
 10
14.8775
 20
128.3998
 30
0.0
 10
17.2135
 20
128.3998
 30
0.0
  0
SPLINE
  5
294
330
1F
100
AcDbEntity
  8
magstocklogo
 62
     7
100
AcDbSpline
210
0.0
220
0.0
230
1.0
 70
     8
 71
     3
 72
     8
 73
     4
 74
     0
 42
0.000000001
 43
0.0000001
 40
0.0
 40
0.0
 40
0.0
 40
0.0
 40
1.0
 40
1.0
 40
1.0
 40
1.0
 10
17.2135
 20
128.3998
 30
0.0
 10
41.0835
 20
128.4008
 30
0.0
 10
64.9545
 20
128.4008
 30
0.0
 10
88.8235
 20
128.3998
 30
0.0
  0
SPLINE
  5
295
330
1F
100
AcDbEntity
  8
magstocklogo
 62
     7
100
AcDbSpline
210
0.0
220
0.0
230
1.0
 70
     8
 71
     3
 72
     8
 73
     4
 74
     0
 42
0.000000001
 43
0.0000001
 40
0.0
 40
0.0
 40
0.0
 40
0.0
 40
1.0
 40
1.0
 40
1.0
 40
1.0
 10
88.8235
 20
128.3998
 30
0.0
 10
90.5415
 20
128.3998
 30
0.0
 10
91.1975
 20
127.7518
 30
0.0
 10
91.1985
 20
126.0158
 30
0.0
  0
SPLINE
  5
296
330
1F
100
AcDbEntity
  8
magstocklogo
 62
     7
100
AcDbSpline
210
0.0
220
0.0
230
1.0
 70
     8
 71
     3
 72
     8
 73
     4
 74
     0
 42
0.000000001
 43
0.0000001
 40
0.0
 40
0.0
 40
0.0
 40
0.0
 40
1.0
 40
1.0
 40
1.0
 40
1.0
 10
91.1985
 20
126.0158
 30
0.0
 10
91.2025
 20
110.9828
 30
0.0
 10
91.2025
 20
95.9488
 30
0.0
 10
91.2005
 20
80.9148
 30
0.0
  0
SPLINE
  5
297
330
1F
100
AcDbEntity
  8
magstocklogo
 62
     7
100
AcDbSpline
210
0.0
220
0.0
230
1.0
 70
     8
 71
     3
 72
     8
 73
     4
 74
     0
 42
0.000000001
 43
0.0000001
 40
0.0
 40
0.0
 40
0.0
 40
0.0
 40
1.0
 40
1.0
 40
1.0
 40
1.0
 10
91.2005
 20
80.9148
 30
0.0
 10
91.1995
 20
79.4628
 30
0.0
 10
90.6685
 20
78.9638
 30
0.0
 10
89.1455
 20
78.9628
 30
0.0
  0
SPLINE
  5
298
330
1F
100
AcDbEntity
  8
magstocklogo
 62
     7
100
AcDbSpline
210
0.0
220
0.0
230
1.0
 70
     8
 71
     3
 72
     8
 73
     4
 74
     0
 42
0.000000001
 43
0.0000001
 40
0.0
 40
0.0
 40
0.0
 40
0.0
 40
1.0
 40
1.0
 40
1.0
 40
1.0
 10
89.1455
 20
78.9628
 30
0.0
 10
77.1115
 20
78.9618
 30
0.0
 10
65.0765
 20
78.9628
 30
0.0
 10
53.0415
 20
78.9628
 30
0.0
  0
LWPOLYLINE
  5
299
330
1F
100
AcDbEntity
  8
magstocklogo
 62
     7
100
AcDbPolyline
 90
        3
 70
     1
 43
0.0
 10
330.4961
 20
28.5852
 10
330.4961
 20
28.5732
 10
330.4961
 20
28.5732
  0
SPLINE
  5
29A
330
1F
100
AcDbEntity
  8
magstocklogo
 62
     7
100
AcDbSpline
210
0.0
220
0.0
230
1.0
 70
     8
 71
     3
 72
     8
 73
     4
 74
     0
 42
0.000000001
 43
0.0000001
 40
0.0
 40
0.0
 40
0.0
 40
0.0
 40
1.0
 40
1.0
 40
1.0
 40
1.0
 10
36.2402
 20
39.8721
 30
0.0
 10
36.2402
 20
38.4731
 30
0.0
 10
36.2092
 20
37.0721
 30
0.0
 10
36.2542
 20
35.6751
 30
0.0
  0
SPLINE
  5
29B
330
1F
100
AcDbEntity
  8
magstocklogo
 62
     7
100
AcDbSpline
210
0.0
220
0.0
230
1.0
 70
     8
 71
     3
 72
     8
 73
     4
 74
     0
 42
0.000000001
 43
0.0000001
 40
0.0
 40
0.0
 40
0.0
 40
0.0
 40
1.0
 40
1.0
 40
1.0
 40
1.0
 10
36.2542
 20
35.6751
 30
0.0
 10
36.2752
 20
35.0341
 30
0.0
 10
36.0572
 20
34.8641
 30
0.0
 10
35.4392
 20
34.8691
 30
0.0
  0
SPLINE
  5
29C
330
1F
100
AcDbEntity
  8
magstocklogo
 62
     7
100
AcDbSpline
210
0.0
220
0.0
230
1.0
 70
     8
 71
     3
 72
     8
 73
     4
 74
     0
 42
0.000000001
 43
0.0000001
 40
0.0
 40
0.0
 40
0.0
 40
0.0
 40
1.0
 40
1.0
 40
1.0
 40
1.0
 10
35.4392
 20
34.8691
 30
0.0
 10
33.5612
 20
34.8861
 30
0.0
 10
31.6802
 20
34.7881
 30
0.0
 10
29.8042
 20
34.8441
 30
0.0
  0
SPLINE
  5
29D
330
1F
100
AcDbEntity
  8
magstocklogo
 62
     7
100
AcDbSpline
210
0.0
220
0.0
230
1.0
 70
     8
 71
     3
 72
     8
 73
     4
 74
     0
 42
0.000000001
 43
0.0000001
 40
0.0
 40
0.0
 40
0.0
 40
0.0
 40
1.0
 40
1.0
 40
1.0
 40
1.0
 10
29.8042
 20
34.8441
 30
0.0
 10
28.9302
 20
34.8701
 30
0.0
 10
28.7572
 20
34.5871
 30
0.0
 10
28.7802
 20
33.7731
 30
0.0
  0
SPLINE
  5
29E
330
1F
100
AcDbEntity
  8
magstocklogo
 62
     7
100
AcDbSpline
210
0.0
220
0.0
230
1.0
 70
     8
 71
     3
 72
     8
 73
     4
 74
     0
 42
0.000000001
 43
0.0000001
 40
0.0
 40
0.0
 40
0.0
 40
0.0
 40
1.0
 40
1.0
 40
1.0
 40
1.0
 10
28.7802
 20
33.7731
 30
0.0
 10
28.8402
 20
31.6571
 30
0.0
 10
28.7752
 20
29.5361
 30
0.0
 10
28.8152
 20
27.4181
 30
0.0
  0
SPLINE
  5
29F
330
1F
100
AcDbEntity
  8
magstocklogo
 62
     7
100
AcDbSpline
210
0.0
220
0.0
230
1.0
 70
     8
 71
     3
 72
     8
 73
     4
 74
     0
 42
0.000000001
 43
0.0000001
 40
0.0
 40
0.0
 40
0.0
 40
0.0
 40
1.0
 40
1.0
 40
1.0
 40
1.0
 10
28.8152
 20
27.4181
 30
0.0
 10
28.8272
 20
26.7831
 30
0.0
 10
28.6362
 20
26.6191
 30
0.0
 10
28.0142
 20
26.6261
 30
0.0
  0
SPLINE
  5
2A0
330
1F
100
AcDbEntity
  8
magstocklogo
 62
     7
100
AcDbSpline
210
0.0
220
0.0
230
1.0
 70
     8
 71
     3
 72
     8
 73
     4
 74
     0
 42
0.000000001
 43
0.0000001
 40
0.0
 40
0.0
 40
0.0
 40
0.0
 40
1.0
 40
1.0
 40
1.0
 40
1.0
 10
28.0142
 20
26.6261
 30
0.0
 10
25.1772
 20
26.6581
 30
0.0
 10
22.3382
 20
26.6591
 30
0.0
 10
19.5002
 20
26.6251
 30
0.0
  0
SPLINE
  5
2A1
330
1F
100
AcDbEntity
  8
magstocklogo
 62
     7
100
AcDbSpline
210
0.0
220
0.0
230
1.0
 70
     8
 71
     3
 72
     8
 73
     4
 74
     0
 42
0.000000001
 43
0.0000001
 40
0.0
 40
0.0
 40
0.0
 40
0.0
 40
1.0
 40
1.0
 40
1.0
 40
1.0
 10
19.5002
 20
26.6251
 30
0.0
 10
18.8682
 20
26.6171
 30
0.0
 10
18.6952
 20
26.7981
 30
0.0
 10
18.7052
 20
27.4241
 30
0.0
  0
SPLINE
  5
2A2
330
1F
100
AcDbEntity
  8
magstocklogo
 62
     7
100
AcDbSpline
210
0.0
220
0.0
230
1.0
 70
     8
 71
     3
 72
     8
 73
     4
 74
     0
 42
0.000000001
 43
0.0000001
 40
0.0
 40
0.0
 40
0.0
 40
0.0
 40
1.0
 40
1.0
 40
1.0
 40
1.0
 10
18.7052
 20
27.4241
 30
0.0
 10
18.7432
 20
29.5821
 30
0.0
 10
18.6822
 20
31.7411
 30
0.0
 10
18.7402
 20
33.8981
 30
0.0
  0
SPLINE
  5
2A3
330
1F
100
AcDbEntity
  8
magstocklogo
 62
     7
100
AcDbSpline
210
0.0
220
0.0
230
1.0
 70
     8
 71
     3
 72
     8
 73
     4
 74
     0
 42
0.000000001
 43
0.0000001
 40
0.0
 40
0.0
 40
0.0
 40
0.0
 40
1.0
 40
1.0
 40
1.0
 40
1.0
 10
18.7402
 20
33.8981
 30
0.0
 10
18.7612
 20
34.6661
 30
0.0
 10
18.5242
 20
34.8311
 30
0.0
 10
17.8012
 20
34.8061
 30
0.0
  0
SPLINE
  5
2A4
330
1F
100
AcDbEntity
  8
magstocklogo
 62
     7
100
AcDbSpline
210
0.0
220
0.0
230
1.0
 70
     8
 71
     3
 72
     8
 73
     4
 74
     0
 42
0.000000001
 43
0.0000001
 40
0.0
 40
0.0
 40
0.0
 40
0.0
 40
1.0
 40
1.0
 40
1.0
 40
1.0
 10
17.8012
 20
34.8061
 30
0.0
 10
15.9242
 20
34.7371
 30
0.0
 10
14.0432
 20
34.7811
 30
0.0
 10
12.1662
 20
34.7231
 30
0.0
  0
SPLINE
  5
2A5
330
1F
100
AcDbEntity
  8
magstocklogo
 62
     7
100
AcDbSpline
210
0.0
220
0.0
230
1.0
 70
     8
 71
     3
 72
     8
 73
     4
 74
     0
 42
0.000000001
 43
0.0000001
 40
0.0
 40
0.0
 40
0.0
 40
0.0
 40
1.0
 40
1.0
 40
1.0
 40
1.0
 10
12.1662
 20
34.7231
 30
0.0
 10
11.5152
 20
34.7021
 30
0.0
 10
11.2632
 20
34.8311
 30
0.0
 10
11.2732
 20
35.5531
 30
0.0
  0
SPLINE
  5
2A6
330
1F
100
AcDbEntity
  8
magstocklogo
 62
     7
100
AcDbSpline
210
0.0
220
0.0
230
1.0
 70
     8
 71
     3
 72
     8
 73
     4
 74
     0
 42
0.000000001
 43
0.0000001
 40
0.0
 40
0.0
 40
0.0
 40
0.0
 40
1.0
 40
1.0
 40
1.0
 40
1.0
 10
11.2732
 20
35.5531
 30
0.0
 10
11.3102
 20
38.3511
 30
0.0
 10
11.3032
 20
41.1491
 30
0.0
 10
11.2582
 20
43.9461
 30
0.0
  0
SPLINE
  5
2A7
330
1F
100
AcDbEntity
  8
magstocklogo
 62
     7
100
AcDbSpline
210
0.0
220
0.0
230
1.0
 70
     8
 71
     3
 72
     8
 73
     4
 74
     0
 42
0.000000001
 43
0.0000001
 40
0.0
 40
0.0
 40
0.0
 40
0.0
 40
1.0
 40
1.0
 40
1.0
 40
1.0
 10
11.2582
 20
43.9461
 30
0.0
 10
11.2462
 20
44.6421
 30
0.0
 10
11.4682
 20
44.8241
 30
0.0
 10
12.1332
 20
44.8171
 30
0.0
  0
SPLINE
  5
2A8
330
1F
100
AcDbEntity
  8
magstocklogo
 62
     7
100
AcDbSpline
210
0.0
220
0.0
230
1.0
 70
     8
 71
     3
 72
     8
 73
     4
 74
     0
 42
0.000000001
 43
0.0000001
 40
0.0
 40
0.0
 40
0.0
 40
0.0
 40
1.0
 40
1.0
 40
1.0
 40
1.0
 10
12.1332
 20
44.8171
 30
0.0
 10
14.0512
 20
44.7981
 30
0.0
 10
15.9702
 20
44.8751
 30
0.0
 10
17.8882
 20
44.8451
 30
0.0
  0
SPLINE
  5
2A9
330
1F
100
AcDbEntity
  8
magstocklogo
 62
     7
100
AcDbSpline
210
0.0
220
0.0
230
1.0
 70
     8
 71
     3
 72
     8
 73
     4
 74
     0
 42
0.000000001
 43
0.0000001
 40
0.0
 40
0.0
 40
0.0
 40
0.0
 40
1.0
 40
1.0
 40
1.0
 40
1.0
 10
17.8882
 20
44.8451
 30
0.0
 10
18.5842
 20
44.8341
 30
0.0
 10
18.7512
 20
45.0591
 30
0.0
 10
18.7352
 20
45.7201
 30
0.0
  0
SPLINE
  5
2AA
330
1F
100
AcDbEntity
  8
magstocklogo
 62
     7
100
AcDbSpline
210
0.0
220
0.0
230
1.0
 70
     8
 71
     3
 72
     8
 73
     4
 74
     0
 42
0.000000001
 43
0.0000001
 40
0.0
 40
0.0
 40
0.0
 40
0.0
 40
1.0
 40
1.0
 40
1.0
 40
1.0
 10
18.7352
 20
45.7201
 30
0.0
 10
18.6912
 20
47.4371
 30
0.0
 10
18.7432
 20
49.1581
 30
0.0
 10
18.7072
 20
50.8761
 30
0.0
  0
SPLINE
  5
2AB
330
1F
100
AcDbEntity
  8
magstocklogo
 62
     7
100
AcDbSpline
210
0.0
220
0.0
230
1.0
 70
     8
 71
     3
 72
     8
 73
     4
 74
     0
 42
0.000000001
 43
0.0000001
 40
0.0
 40
0.0
 40
0.0
 40
0.0
 40
1.0
 40
1.0
 40
1.0
 40
1.0
 10
18.7072
 20
50.8761
 30
0.0
 10
18.6952
 20
51.4511
 30
0.0
 10
18.8622
 20
51.6181
 30
0.0
 10
19.4402
 20
51.6121
 30
0.0
  0
SPLINE
  5
2AC
330
1F
100
AcDbEntity
  8
magstocklogo
 62
     7
100
AcDbSpline
210
0.0
220
0.0
230
1.0
 70
     8
 71
     3
 72
     8
 73
     4
 74
     0
 42
0.000000001
 43
0.0000001
 40
0.0
 40
0.0
 40
0.0
 40
0.0
 40
1.0
 40
1.0
 40
1.0
 40
1.0
 10
19.4402
 20
51.6121
 30
0.0
 10
22.3182
 20
51.5841
 30
0.0
 10
25.1972
 20
51.5851
 30
0.0
 10
28.0752
 20
51.6121
 30
0.0
  0
SPLINE
  5
2AD
330
1F
100
AcDbEntity
  8
magstocklogo
 62
     7
100
AcDbSpline
210
0.0
220
0.0
230
1.0
 70
     8
 71
     3
 72
     8
 73
     4
 74
     0
 42
0.000000001
 43
0.0000001
 40
0.0
 40
0.0
 40
0.0
 40
0.0
 40
1.0
 40
1.0
 40
1.0
 40
1.0
 10
28.0752
 20
51.6121
 30
0.0
 10
28.6462
 20
51.6181
 30
0.0
 10
28.8252
 20
51.4631
 30
0.0
 10
28.8132
 20
50.8811
 30
0.0
  0
SPLINE
  5
2AE
330
1F
100
AcDbEntity
  8
magstocklogo
 62
     7
100
AcDbSpline
210
0.0
220
0.0
230
1.0
 70
     8
 71
     3
 72
     8
 73
     4
 74
     0
 42
0.000000001
 43
0.0000001
 40
0.0
 40
0.0
 40
0.0
 40
0.0
 40
1.0
 40
1.0
 40
1.0
 40
1.0
 10
28.8132
 20
50.8811
 30
0.0
 10
28.7762
 20
49.1631
 30
0.0
 10
28.8332
 20
47.4421
 30
0.0
 10
28.7832
 20
45.7251
 30
0.0
  0
SPLINE
  5
2AF
330
1F
100
AcDbEntity
  8
magstocklogo
 62
     7
100
AcDbSpline
210
0.0
220
0.0
230
1.0
 70
     8
 71
     3
 72
     8
 73
     4
 74
     0
 42
0.000000001
 43
0.0000001
 40
0.0
 40
0.0
 40
0.0
 40
0.0
 40
1.0
 40
1.0
 40
1.0
 40
1.0
 10
28.7832
 20
45.7251
 30
0.0
 10
28.7632
 20
45.0291
 30
0.0
 10
28.9912
 20
44.8561
 30
0.0
 10
29.6562
 20
44.8781
 30
0.0
  0
SPLINE
  5
2B0
330
1F
100
AcDbEntity
  8
magstocklogo
 62
     7
100
AcDbSpline
210
0.0
220
0.0
230
1.0
 70
     8
 71
     3
 72
     8
 73
     4
 74
     0
 42
0.000000001
 43
0.0000001
 40
0.0
 40
0.0
 40
0.0
 40
0.0
 40
1.0
 40
1.0
 40
1.0
 40
1.0
 10
29.6562
 20
44.8781
 30
0.0
 10
31.4932
 20
44.9361
 30
0.0
 10
33.3352
 20
44.8851
 30
0.0
 10
35.1712
 20
44.9641
 30
0.0
  0
SPLINE
  5
2B1
330
1F
100
AcDbEntity
  8
magstocklogo
 62
     7
100
AcDbSpline
210
0.0
220
0.0
230
1.0
 70
     8
 71
     3
 72
     8
 73
     4
 74
     0
 42
0.000000001
 43
0.0000001
 40
0.0
 40
0.0
 40
0.0
 40
0.0
 40
1.0
 40
1.0
 40
1.0
 40
1.0
 10
35.1712
 20
44.9641
 30
0.0
 10
35.9812
 20
44.9981
 30
0.0
 10
36.3002
 20
44.8291
 30
0.0
 10
36.2502
 20
43.9481
 30
0.0
  0
SPLINE
  5
2B2
330
1F
100
AcDbEntity
  8
magstocklogo
 62
     7
100
AcDbSpline
210
0.0
220
0.0
230
1.0
 70
     8
 71
     3
 72
     8
 73
     4
 74
     0
 42
0.000000001
 43
0.0000001
 40
0.0
 40
0.0
 40
0.0
 40
0.0
 40
1.0
 40
1.0
 40
1.0
 40
1.0
 10
36.2502
 20
43.9481
 30
0.0
 10
36.1732
 20
42.5931
 30
0.0
 10
36.2302
 20
41.2311
 30
0.0
 10
36.2302
 20
39.8721
 30
0.0
  0
LWPOLYLINE
  5
2B3
330
1F
100
AcDbEntity
  8
magstocklogo
 62
     7
100
AcDbPolyline
 90
        3
 70
     1
 43
0.0
 10
53.0415
 20
78.9628
 10
53.0415
 20
78.9448
 10
53.0415
 20
78.9448
  0
SPLINE
  5
2B4
330
1F
100
AcDbEntity
  8
magstocklogo
 62
     7
100
AcDbSpline
210
0.0
220
0.0
230
1.0
 70
     8
 71
     3
 72
     8
 73
     4
 74
     0
 42
0.000000001
 43
0.0000001
 40
0.0
 40
0.0
 40
0.0
 40
0.0
 40
1.0
 40
1.0
 40
1.0
 40
1.0
 10
82.812
 20
62.4258
 30
0.0
 10
85.868
 20
62.4218
 30
0.0
 10
88.277
 20
60.0028
 30
0.0
 10
88.256
 20
56.9578
 30
0.0
  0
SPLINE
  5
2B5
330
1F
100
AcDbEntity
  8
magstocklogo
 62
     7
100
AcDbSpline
210
0.0
220
0.0
230
1.0
 70
     8
 71
     3
 72
     8
 73
     4
 74
     0
 42
0.000000001
 43
0.0000001
 40
0.0
 40
0.0
 40
0.0
 40
0.0
 40
1.0
 40
1.0
 40
1.0
 40
1.0
 10
88.256
 20
56.9578
 30
0.0
 10
88.235
 20
53.9228
 30
0.0
 10
85.806
 20
51.5578
 30
0.0
 10
82.728
 20
51.5738
 30
0.0
  0
SPLINE
  5
2B6
330
1F
100
AcDbEntity
  8
magstocklogo
 62
     7
100
AcDbSpline
210
0.0
220
0.0
230
1.0
 70
     8
 71
     3
 72
     8
 73
     4
 74
     0
 42
0.000000001
 43
0.0000001
 40
0.0
 40
0.0
 40
0.0
 40
0.0
 40
1.0
 40
1.0
 40
1.0
 40
1.0
 10
82.728
 20
51.5738
 30
0.0
 10
79.741
 20
51.5908
 30
0.0
 10
77.352
 20
53.9908
 30
0.0
 10
77.344
 20
56.9828
 30
0.0
  0
SPLINE
  5
2B7
330
1F
100
AcDbEntity
  8
magstocklogo
 62
     7
100
AcDbSpline
210
0.0
220
0.0
230
1.0
 70
     8
 71
     3
 72
     8
 73
     4
 74
     0
 42
0.000000001
 43
0.0000001
 40
0.0
 40
0.0
 40
0.0
 40
0.0
 40
1.0
 40
1.0
 40
1.0
 40
1.0
 10
77.344
 20
56.9828
 30
0.0
 10
77.336
 20
60.0248
 30
0.0
 10
79.751
 20
62.4288
 30
0.0
 10
82.812
 20
62.4258
 30
0.0
  0
SPLINE
  5
2B8
330
1F
100
AcDbEntity
  8
magstocklogo
 62
     7
100
AcDbSpline
210
0.0
220
0.0
230
1.0
 70
     8
 71
     3
 72
     8
 73
     4
 74
     0
 42
0.000000001
 43
0.0000001
 40
0.0
 40
0.0
 40
0.0
 40
0.0
 40
1.0
 40
1.0
 40
1.0
 40
1.0
 10
72.0044
 20
21.334
 30
0.0
 10
68.9444
 20
21.333
 30
0.0
 10
66.5314
 20
23.742
 30
0.0
 10
66.5444
 20
26.786
 30
0.0
  0
SPLINE
  5
2B9
330
1F
100
AcDbEntity
  8
magstocklogo
 62
     7
100
AcDbSpline
210
0.0
220
0.0
230
1.0
 70
     8
 71
     3
 72
     8
 73
     4
 74
     0
 42
0.000000001
 43
0.0000001
 40
0.0
 40
0.0
 40
0.0
 40
0.0
 40
1.0
 40
1.0
 40
1.0
 40
1.0
 10
66.5444
 20
26.786
 30
0.0
 10
66.5574
 20
29.821
 30
0.0
 10
68.9844
 20
32.2
 30
0.0
 10
72.0554
 20
32.186
 30
0.0
  0
SPLINE
  5
2BA
330
1F
100
AcDbEntity
  8
magstocklogo
 62
     7
100
AcDbSpline
210
0.0
220
0.0
230
1.0
 70
     8
 71
     3
 72
     8
 73
     4
 74
     0
 42
0.000000001
 43
0.0000001
 40
0.0
 40
0.0
 40
0.0
 40
0.0
 40
1.0
 40
1.0
 40
1.0
 40
1.0
 10
72.0554
 20
32.186
 30
0.0
 10
75.0494
 20
32.172
 30
0.0
 10
77.4384
 20
29.786
 30
0.0
 10
77.4554
 20
26.795
 30
0.0
  0
SPLINE
  5
2BB
330
1F
100
AcDbEntity
  8
magstocklogo
 62
     7
100
AcDbSpline
210
0.0
220
0.0
230
1.0
 70
     8
 71
     3
 72
     8
 73
     4
 74
     0
 42
0.000000001
 43
0.0000001
 40
0.0
 40
0.0
 40
0.0
 40
0.0
 40
1.0
 40
1.0
 40
1.0
 40
1.0
 10
77.4554
 20
26.795
 30
0.0
 10
77.4734
 20
23.751
 30
0.0
 10
75.0624
 20
21.335
 30
0.0
 10
72.0044
 20
21.334
 30
0.0
  0
SPLINE
  5
2BC
330
1F
100
AcDbEntity
  8
magstocklogo
 62
     7
100
AcDbSpline
210
0.0
220
0.0
230
1.0
 70
     8
 71
     3
 72
     8
 73
     4
 74
     0
 42
0.000000001
 43
0.0000001
 40
0.0
 40
0.0
 40
0.0
 40
0.0
 40
1.0
 40
1.0
 40
1.0
 40
1.0
 10
97.6162
 20
40.0225
 30
0.0
 10
97.5852
 20
36.9925
 30
0.0
 10
95.0742
 20
34.5605
 30
0.0
 10
92.0432
 20
34.6245
 30
0.0
  0
SPLINE
  5
2BD
330
1F
100
AcDbEntity
  8
magstocklogo
 62
     7
100
AcDbSpline
210
0.0
220
0.0
230
1.0
 70
     8
 71
     3
 72
     8
 73
     4
 74
     0
 42
0.000000001
 43
0.0000001
 40
0.0
 40
0.0
 40
0.0
 40
0.0
 40
1.0
 40
1.0
 40
1.0
 40
1.0
 10
92.0432
 20
34.6245
 30
0.0
 10
89.0612
 20
34.6875
 30
0.0
 10
86.6732
 20
37.1525
 30
0.0
 10
86.7042
 20
40.1365
 30
0.0
  0
SPLINE
  5
2BE
330
1F
100
AcDbEntity
  8
magstocklogo
 62
     7
100
AcDbSpline
210
0.0
220
0.0
230
1.0
 70
     8
 71
     3
 72
     8
 73
     4
 74
     0
 42
0.000000001
 43
0.0000001
 40
0.0
 40
0.0
 40
0.0
 40
0.0
 40
1.0
 40
1.0
 40
1.0
 40
1.0
 10
86.7042
 20
40.1365
 30
0.0
 10
86.7352
 20
43.1685
 30
0.0
 10
89.2452
 20
45.5985
 30
0.0
 10
92.2772
 20
45.5355
 30
0.0
  0
SPLINE
  5
2BF
330
1F
100
AcDbEntity
  8
magstocklogo
 62
     7
100
AcDbSpline
210
0.0
220
0.0
230
1.0
 70
     8
 71
     3
 72
     8
 73
     4
 74
     0
 42
0.000000001
 43
0.0000001
 40
0.0
 40
0.0
 40
0.0
 40
0.0
 40
1.0
 40
1.0
 40
1.0
 40
1.0
 10
92.2772
 20
45.5355
 30
0.0
 10
95.2592
 20
45.4725
 30
0.0
 10
97.6472
 20
43.0065
 30
0.0
 10
97.6162
 20
40.0225
 30
0.0
  0
SPLINE
  5
2C0
330
1F
100
AcDbEntity
  8
magstocklogo
 62
     7
100
AcDbSpline
210
0.0
220
0.0
230
1.0
 70
     8
 71
     3
 72
     8
 73
     4
 74
     0
 42
0.000000001
 43
0.0000001
 40
0.0
 40
0.0
 40
0.0
 40
0.0
 40
1.0
 40
1.0
 40
1.0
 40
1.0
 10
59.7344
 20
42.5732
 30
0.0
 10
59.7274
 20
45.6692
 30
0.0
 10
62.0734
 20
48.0252
 30
0.0
 10
65.1634
 20
48.0252
 30
0.0
  0
SPLINE
  5
2C1
330
1F
100
AcDbEntity
  8
magstocklogo
 62
     7
100
AcDbSpline
210
0.0
220
0.0
230
1.0
 70
     8
 71
     3
 72
     8
 73
     4
 74
     0
 42
0.000000001
 43
0.0000001
 40
0.0
 40
0.0
 40
0.0
 40
0.0
 40
1.0
 40
1.0
 40
1.0
 40
1.0
 10
65.1634
 20
48.0252
 30
0.0
 10
68.2504
 20
48.0252
 30
0.0
 10
70.5934
 20
45.6662
 30
0.0
 10
70.5864
 20
42.5662
 30
0.0
  0
SPLINE
  5
2C2
330
1F
100
AcDbEntity
  8
magstocklogo
 62
     7
100
AcDbSpline
210
0.0
220
0.0
230
1.0
 70
     8
 71
     3
 72
     8
 73
     4
 74
     0
 42
0.000000001
 43
0.0000001
 40
0.0
 40
0.0
 40
0.0
 40
0.0
 40
1.0
 40
1.0
 40
1.0
 40
1.0
 10
70.5864
 20
42.5662
 30
0.0
 10
70.5804
 20
39.5382
 30
0.0
 10
68.2374
 20
37.1862
 30
0.0
 10
65.2164
 20
37.1742
 30
0.0
  0
SPLINE
  5
2C3
330
1F
100
AcDbEntity
  8
magstocklogo
 62
     7
100
AcDbSpline
210
0.0
220
0.0
230
1.0
 70
     8
 71
     3
 72
     8
 73
     4
 74
     0
 42
0.000000001
 43
0.0000001
 40
0.0
 40
0.0
 40
0.0
 40
0.0
 40
1.0
 40
1.0
 40
1.0
 40
1.0
 10
65.2164
 20
37.1742
 30
0.0
 10
62.1044
 20
37.1612
 30
0.0
 10
59.7414
 20
39.4872
 30
0.0
 10
59.7344
 20
42.5732
 30
0.0
  0
SPLINE
  5
2C4
330
1F
100
AcDbEntity
  8
magstocklogo
 62
     7
100
AcDbSpline
210
0.0
220
0.0
230
1.0
 70
     8
 71
     3
 72
     8
 73
     4
 74
     0
 42
0.000000001
 43
0.0000001
 40
0.0
 40
0.0
 40
0.0
 40
0.0
 40
1.0
 40
1.0
 40
1.0
 40
1.0
 10
379.4629
 20
22.8242
 30
0.0
 10
382.2189
 20
22.8242
 30
0.0
 10
384.9749
 20
22.7982
 30
0.0
 10
387.7289
 20
22.8432
 30
0.0
  0
SPLINE
  5
2C5
330
1F
100
AcDbEntity
  8
magstocklogo
 62
     7
100
AcDbSpline
210
0.0
220
0.0
230
1.0
 70
     8
 71
     3
 72
     8
 73
     4
 74
     0
 42
0.000000001
 43
0.0000001
 40
0.0
 40
0.0
 40
0.0
 40
0.0
 40
1.0
 40
1.0
 40
1.0
 40
1.0
 10
387.7289
 20
22.8432
 30
0.0
 10
388.4319
 20
22.8542
 30
0.0
 10
388.5779
 20
22.6342
 30
0.0
 10
388.5749
 20
21.9772
 30
0.0
  0
SPLINE
  5
2C6
330
1F
100
AcDbEntity
  8
magstocklogo
 62
     7
100
AcDbSpline
210
0.0
220
0.0
230
1.0
 70
     8
 71
     3
 72
     8
 73
     4
 74
     0
 42
0.000000001
 43
0.0000001
 40
0.0
 40
0.0
 40
0.0
 40
0.0
 40
1.0
 40
1.0
 40
1.0
 40
1.0
 10
388.5749
 20
21.9772
 30
0.0
 10
388.5519
 20
18.1012
 30
0.0
 10
388.5509
 20
14.2252
 30
0.0
 10
388.5959
 20
10.3502
 30
0.0
  0
SPLINE
  5
2C7
330
1F
100
AcDbEntity
  8
magstocklogo
 62
     7
100
AcDbSpline
210
0.0
220
0.0
230
1.0
 70
     8
 71
     3
 72
     8
 73
     4
 74
     0
 42
0.000000001
 43
0.0000001
 40
0.0
 40
0.0
 40
0.0
 40
0.0
 40
1.0
 40
1.0
 40
1.0
 40
1.0
 10
388.5959
 20
10.3502
 30
0.0
 10
388.6039
 20
9.6672
 30
0.0
 10
388.3439
 20
9.4312
 30
0.0
 10
387.7479
 20
9.3882
 30
0.0
  0
SPLINE
  5
2C8
330
1F
100
AcDbEntity
  8
magstocklogo
 62
     7
100
AcDbSpline
210
0.0
220
0.0
230
1.0
 70
     8
 71
     3
 72
     8
 73
     4
 74
     0
 42
0.000000001
 43
0.0000001
 40
0.0
 40
0.0
 40
0.0
 40
0.0
 40
1.0
 40
1.0
 40
1.0
 40
1.0
 10
387.7479
 20
9.3882
 30
0.0
 10
387.5099
 20
9.3722
 30
0.0
 10
387.2709
 20
9.3612
 30
0.0
 10
387.0309
 20
9.3612
 30
0.0
  0
SPLINE
  5
2C9
330
1F
100
AcDbEntity
  8
magstocklogo
 62
     7
100
AcDbSpline
210
0.0
220
0.0
230
1.0
 70
     8
 71
     3
 72
     8
 73
     4
 74
     0
 42
0.000000001
 43
0.0000001
 40
0.0
 40
0.0
 40
0.0
 40
0.0
 40
1.0
 40
1.0
 40
1.0
 40
1.0
 10
387.0309
 20
9.3612
 30
0.0
 10
381.7179
 20
9.3592
 30
0.0
 10
376.4029
 20
9.3772
 30
0.0
 10
371.0899
 20
9.3412
 30
0.0
  0
SPLINE
  5
2CA
330
1F
100
AcDbEntity
  8
magstocklogo
 62
     7
100
AcDbSpline
210
0.0
220
0.0
230
1.0
 70
     8
 71
     3
 72
     8
 73
     4
 74
     0
 42
0.000000001
 43
0.0000001
 40
0.0
 40
0.0
 40
0.0
 40
0.0
 40
1.0
 40
1.0
 40
1.0
 40
1.0
 10
371.0899
 20
9.3412
 30
0.0
 10
370.3029
 20
9.3362
 30
0.0
 10
370.0919
 20
9.5472
 30
0.0
 10
370.1009
 20
10.3302
 30
0.0
  0
SPLINE
  5
2CB
330
1F
100
AcDbEntity
  8
magstocklogo
 62
     7
100
AcDbSpline
210
0.0
220
0.0
230
1.0
 70
     8
 71
     3
 72
     8
 73
     4
 74
     0
 42
0.000000001
 43
0.0000001
 40
0.0
 40
0.0
 40
0.0
 40
0.0
 40
1.0
 40
1.0
 40
1.0
 40
1.0
 10
370.1009
 20
10.3302
 30
0.0
 10
370.1409
 20
14.1632
 30
0.0
 10
370.1499
 20
17.9982
 30
0.0
 10
370.0959
 20
21.8322
 30
0.0
  0
SPLINE
  5
2CC
330
1F
100
AcDbEntity
  8
magstocklogo
 62
     7
100
AcDbSpline
210
0.0
220
0.0
230
1.0
 70
     8
 71
     3
 72
     8
 73
     4
 74
     0
 42
0.000000001
 43
0.0000001
 40
0.0
 40
0.0
 40
0.0
 40
0.0
 40
1.0
 40
1.0
 40
1.0
 40
1.0
 10
370.0959
 20
21.8322
 30
0.0
 10
370.0839
 20
22.7292
 30
0.0
 10
370.4129
 20
22.8572
 30
0.0
 10
371.1919
 20
22.8452
 30
0.0
  0
SPLINE
  5
2CD
330
1F
100
AcDbEntity
  8
magstocklogo
 62
     7
100
AcDbSpline
210
0.0
220
0.0
230
1.0
 70
     8
 71
     3
 72
     8
 73
     4
 74
     0
 42
0.000000001
 43
0.0000001
 40
0.0
 40
0.0
 40
0.0
 40
0.0
 40
1.0
 40
1.0
 40
1.0
 40
1.0
 10
371.1919
 20
22.8452
 30
0.0
 10
373.9489
 20
22.8032
 30
0.0
 10
376.7059
 20
22.8292
 30
0.0
 10
379.4629
 20
22.8292
 30
0.0
  0
LWPOLYLINE
  5
2CE
330
1F
100
AcDbEntity
  8
magstocklogo
 62
     7
100
AcDbPolyline
 90
        3
 70
     1
 43
0.0
 10
36.2302
 20
39.8721
 10
36.2402
 20
39.8721
 10
36.2402
 20
39.8721
  0
LWPOLYLINE
  5
2CF
330
1F
100
AcDbEntity
  8
magstocklogo
 62
     7
100
AcDbPolyline
 90
        3
 70
     1
 43
0.0
 10
379.4629
 20
22.8292
 10
379.4629
 20
22.8242
 10
379.4629
 20
22.8242
  0
SPLINE
  5
2D0
330
1F
100
AcDbEntity
  8
magstocklogo
 62
     7
100
AcDbSpline
210
0.0
220
0.0
230
1.0
 70
     8
 71
     3
 72
     8
 73
     4
 74
     0
 42
0.000000001
 43
0.0000001
 40
0.0
 40
0.0
 40
0.0
 40
0.0
 40
1.0
 40
1.0
 40
1.0
 40
1.0
 10
181.0553
 20
14.6025
 30
0.0
 10
181.9963
 20
16.1295
 30
0.0
 10
182.8583
 20
17.5275
 30
0.0
 10
183.8173
 20
19.0825
 30
0.0
  0
SPLINE
  5
2D1
330
1F
100
AcDbEntity
  8
magstocklogo
 62
     7
100
AcDbSpline
210
0.0
220
0.0
230
1.0
 70
     8
 71
     3
 72
     8
 73
     4
 74
     0
 42
0.000000001
 43
0.0000001
 40
0.0
 40
0.0
 40
0.0
 40
0.0
 40
1.0
 40
1.0
 40
1.0
 40
1.0
 10
183.8173
 20
19.0825
 30
0.0
 10
184.7603
 20
17.5595
 30
0.0
 10
185.6383
 20
16.1415
 30
0.0
 10
186.5913
 20
14.6025
 30
0.0
  0
SPLINE
  5
2D2
330
1F
100
AcDbEntity
  8
magstocklogo
 62
     7
100
AcDbSpline
210
0.0
220
0.0
230
1.0
 70
     8
 71
     3
 72
     8
 73
     4
 74
     0
 42
0.000000001
 43
0.0000001
 40
0.0
 40
0.0
 40
0.0
 40
0.0
 40
1.0
 40
1.0
 40
1.0
 40
1.0
 10
52.3213
 20
84.0
 30
0.0
 10
42.2423
 20
84.0
 30
0.0
 10
32.1643
 20
84.0
 30
0.0
 10
22.0853
 20
84.0
 30
0.0
  0
SPLINE
  5
2D3
330
1F
100
AcDbEntity
  8
magstocklogo
 62
     7
100
AcDbSpline
210
0.0
220
0.0
230
1.0
 70
     8
 71
     3
 72
     8
 73
     4
 74
     0
 42
0.000000001
 43
0.0000001
 40
0.0
 40
0.0
 40
0.0
 40
0.0
 40
1.0
 40
1.0
 40
1.0
 40
1.0
 10
22.0853
 20
84.0
 30
0.0
 10
20.5043
 20
84.0
 30
0.0
 10
20.1603
 20
84.349
 30
0.0
 10
20.1603
 20
85.953
 30
0.0
  0
LWPOLYLINE
  5
2D4
330
1F
100
AcDbEntity
  8
magstocklogo
 62
     7
100
AcDbPolyline
 90
        2
 70
     0
 43
0.0
 10
186.5913
 20
14.6025
 10
181.0553
 20
14.6025
  0
SPLINE
  5
2D5
330
1F
100
AcDbEntity
  8
magstocklogo
 62
     7
100
AcDbSpline
210
0.0
220
0.0
230
1.0
 70
     8
 71
     3
 72
     8
 73
     4
 74
     0
 42
0.000000001
 43
0.0000001
 40
0.0
 40
0.0
 40
0.0
 40
0.0
 40
1.0
 40
1.0
 40
1.0
 40
1.0
 10
20.1603
 20
121.948
 30
0.0
 10
20.1603
 20
123.409
 30
0.0
 10
20.8243
 20
124.078
 30
0.0
 10
22.3103
 20
124.078
 30
0.0
  0
SPLINE
  5
2D6
330
1F
100
AcDbEntity
  8
magstocklogo
 62
     7
100
AcDbSpline
210
0.0
220
0.0
230
1.0
 70
     8
 71
     3
 72
     8
 73
     4
 74
     0
 42
0.000000001
 43
0.0000001
 40
0.0
 40
0.0
 40
0.0
 40
0.0
 40
1.0
 40
1.0
 40
1.0
 40
1.0
 10
22.3103
 20
124.078
 30
0.0
 10
42.6283
 20
124.081
 30
0.0
 10
62.9453
 20
124.081
 30
0.0
 10
83.2613
 20
124.079
 30
0.0
  0
SPLINE
  5
2D7
330
1F
100
AcDbEntity
  8
magstocklogo
 62
     7
100
AcDbSpline
210
0.0
220
0.0
230
1.0
 70
     8
 71
     3
 72
     8
 73
     4
 74
     0
 42
0.000000001
 43
0.0000001
 40
0.0
 40
0.0
 40
0.0
 40
0.0
 40
1.0
 40
1.0
 40
1.0
 40
1.0
 10
83.2613
 20
124.079
 30
0.0
 10
84.5593
 20
124.079
 30
0.0
 10
84.9593
 20
123.644
 30
0.0
 10
84.9593
 20
122.26
 30
0.0
  0
SPLINE
  5
2D8
330
1F
100
AcDbEntity
  8
magstocklogo
 62
     7
100
AcDbSpline
210
0.0
220
0.0
230
1.0
 70
     8
 71
     3
 72
     8
 73
     4
 74
     0
 42
0.000000001
 43
0.0000001
 40
0.0
 40
0.0
 40
0.0
 40
0.0
 40
1.0
 40
1.0
 40
1.0
 40
1.0
 10
84.9593
 20
122.26
 30
0.0
 10
84.9603
 20
110.222
 30
0.0
 10
84.9603
 20
98.184
 30
0.0
 10
84.9603
 20
86.146
 30
0.0
  0
SPLINE
  5
2D9
330
1F
100
AcDbEntity
  8
magstocklogo
 62
     7
100
AcDbSpline
210
0.0
220
0.0
230
1.0
 70
     8
 71
     3
 72
     8
 73
     4
 74
     0
 42
0.000000001
 43
0.0000001
 40
0.0
 40
0.0
 40
0.0
 40
0.0
 40
1.0
 40
1.0
 40
1.0
 40
1.0
 10
84.9603
 20
86.146
 30
0.0
 10
84.9593
 20
84.669
 30
0.0
 10
84.3293
 20
84.03
 30
0.0
 10
82.7973
 20
84.004
 30
0.0
  0
SPLINE
  5
2DA
330
1F
100
AcDbEntity
  8
magstocklogo
 62
     7
100
AcDbSpline
210
0.0
220
0.0
230
1.0
 70
     8
 71
     3
 72
     8
 73
     4
 74
     0
 42
0.000000001
 43
0.0000001
 40
0.0
 40
0.0
 40
0.0
 40
0.0
 40
1.0
 40
1.0
 40
1.0
 40
1.0
 10
82.7973
 20
84.004
 30
0.0
 10
81.4373
 20
83.982
 30
0.0
 10
80.0773
 20
84.0
 30
0.0
 10
78.7173
 20
84.0
 30
0.0
  0
LWPOLYLINE
  5
2DB
330
1F
100
AcDbEntity
  8
magstocklogo
 62
     7
100
AcDbPolyline
 90
        2
 70
     1
 43
0.0
 10
20.1603
 20
85.953
 10
20.1603
 20
121.948
  0
LWPOLYLINE
  5
2DC
330
1F
100
AcDbEntity
  8
magstocklogo
 62
     7
100
AcDbPolyline
 90
        3
 70
     1
 43
0.0
 10
78.7173
 20
84.0
 10
52.3213
 20
84.0
 10
52.3213
 20
84.0
  0
XLINE
  5
10056
330
1F
100
AcDbEntity
  8
0
  6
ByBlock
100
AcDbXline
 10
227.2168078508092
 20
5.440877364704674
 30
0.0
 11
1.0
 21
0.0
 31
0.0
  0
XLINE
  5
10057
330
1F
100
AcDbEntity
  8
0
  6
ByBlock
100
AcDbXline
 10
229.3208147921933
 20
25.11139310049931
 30
0.0
 11
-1.0
 21
0.0
 31
0.0
  0
XLINE
  5
10058
330
1F
100
AcDbEntity
  8
0
  6
ByBlock
100
AcDbXline
 10
107.2373365905374
 20
40.00204014593124
 30
0.0
 11
1.0
 21
0.0
 31
0.0
  0
LINE
  5
10072
330
1F
100
AcDbEntity
  8
1mm
  6
ByBlock
100
AcDbLine
 10
124.1191397653975
 20
5.470719122492461
 30
0.0
 11
124.1191397653975
 21
25.10148047332898
 31
0.0
  0
LINE
  5
10073
330
1F
100
AcDbEntity
  8
1mm
  6
ByBlock
100
AcDbLine
 10
124.1191397653975
 20
25.10148047332898
 30
0.0
 11
136.7492772921434
 21
5.523859663380422
 31
0.0
  0
LINE
  5
10074
330
1F
100
AcDbEntity
  8
1mm
  6
ByBlock
100
AcDbLine
 10
136.7492772921434
 20
5.523859663380422
 30
0.0
 11
149.400659486375
 21
25.12162764242398
 31
0.0
  0
LINE
  5
1007C
330
1F
100
AcDbEntity
  8
1mm
  6
ByBlock
100
AcDbLine
 10
149.400659486375
 20
25.12162764242398
 30
0.0
 11
149.400659486375
 21
5.440877364704674
 31
0.0
  0
LINE
  5
1007D
330
1F
100
AcDbEntity
  8
1mm
  6
ByBlock
100
AcDbLine
 10
171.6056582765329
 20
5.476753857086988
 30
0.0
 11
183.9278781509945
 21
25.12189297122854
 31
0.0
  0
LINE
  5
1007E
330
1F
100
AcDbEntity
  8
1mm
  6
ByBlock
100
AcDbLine
 10
183.9278781509945
 20
25.12189297122854
 30
0.0
 11
195.9684472854683
 21
5.476753857086988
 31
0.0
  0
LINE
  5
1007F
330
1F
100
AcDbEntity
  8
1mm
  6
ByBlock
100
AcDbLine
 10
195.9684472854683
 20
5.476753857086988
 30
0.0
 11
191.673273500656
 21
12.58843504177622
 31
0.0
  0
LINE
  5
10080
330
1F
100
AcDbEntity
  8
1mm
  6
ByBlock
100
AcDbLine
 10
191.673273500656
 20
12.58843504177622
 30
0.0
 11
176.112070116336
 21
12.58843504177623
 31
0.0
  0
LINE
  5
10081
330
1F
100
AcDbEntity
  8
1mm
  6
ByBlock
100
AcDbLine
 10
245.4631899520079
 20
25.12491061686391
 30
0.0
 11
220.7833699412544
 21
25.12491061686391
 31
0.0
  0
LINE
  5
10082
330
1F
100
AcDbEntity
  8
1mm
  6
ByBlock
100
AcDbLine
 10
220.7833699412544
 20
25.12491061686391
 30
0.0
 11
220.7833699412544
 21
5.453148114461595
 31
0.0
  0
LINE
  5
10083
330
1F
100
AcDbEntity
  8
1mm
  6
ByBlock
100
AcDbLine
 10
220.7833699412544
 20
5.453148114461595
 30
0.0
 11
245.3334320478419
 21
5.453148114461595
 31
0.0
  0
LINE
  5
10084
330
1F
100
AcDbEntity
  8
1mm
  6
ByBlock
100
AcDbLine
 10
245.3334320478419
 20
5.453148114461595
 30
0.0
 11
245.3334320478419
 21
15.39970032727495
 31
0.0
  0
LINE
  5
10085
330
1F
100
AcDbEntity
  8
1mm
  6
ByBlock
100
AcDbLine
 10
245.3334320478419
 20
15.39970032727495
 30
0.0
 11
233.2111841987715
 21
15.39970032727495
 31
0.0
  0
LINE
  5
10086
330
1F
100
AcDbEntity
  8
1mm
  6
ByBlock
100
AcDbLine
 10
296.455770749658
 20
25.15137791476246
 30
0.0
 11
272.0753785694733
 21
25.15137791476246
 31
0.0
  0
LINE
  5
10087
330
1F
100
AcDbEntity
  8
1mm
  6
ByBlock
100
AcDbLine
 10
272.0753785694733
 20
25.15137791476246
 30
0.0
 11
272.0753785694733
 21
15.46963372768552
 31
0.0
  0
LINE
  5
10088
330
1F
100
AcDbEntity
  8
1mm
  6
ByBlock
100
AcDbLine
 10
272.0753785694733
 20
15.46963372768552
 30
0.0
 11
296.2797390371657
 21
15.46963372768552
 31
0.0
  0
LINE
  5
10089
330
1F
100
AcDbEntity
  8
1mm
  6
ByBlock
100
AcDbLine
 10
296.2797390371657
 20
15.46963372768552
 30
0.0
 11
296.2797390371657
 21
5.435826115623971
 31
0.0
  0
LINE
  5
1008A
330
1F
100
AcDbEntity
  8
1mm
  6
ByBlock
100
AcDbLine
 10
296.2797390371657
 20
5.435826115623971
 30
0.0
 11
272.1633944257194
 21
5.435826115623974
 31
0.0
  0
LINE
  5
1008B
330
1F
100
AcDbEntity
  8
1mm
  6
ByBlock
100
AcDbLine
 10
318.1877795678733
 20
25.24248807845477
 30
0.0
 11
343.0082510292887
 21
25.24248807845477
 31
0.0
  0
LINE
  5
1008C
330
1F
100
AcDbEntity
  8
1mm
  6
ByBlock
100
AcDbLine
 10
343.0082510292887
 20
25.24248807845477
 30
0.0
 11
330.7740470110733
 21
25.24248807845477
 31
0.0
  0
LINE
  5
1008D
330
1F
100
AcDbEntity
  8
1mm
  6
ByBlock
100
AcDbLine
 10
330.7740470110733
 20
25.24248807845477
 30
0.0
 11
330.7740470110733
 21
5.436863052430372
 31
0.0
  0
LINE
  5
10092
330
1F
100
AcDbEntity
  8
1mm
  6
ByBlock
100
AcDbLine
 10
367.2722063123247
 20
25.3480673276549
 30
0.0
 11
391.6299706720586
 21
25.3480673276549
 31
0.0
  0
LINE
  5
10093
330
1F
100
AcDbEntity
  8
1mm
  6
ByBlock
100
AcDbLine
 10
391.6299706720586
 20
25.3480673276549
 30
0.0
 11
391.6299706720586
 21
5.934349360531627
 31
0.0
  0
LINE
  5
10094
330
1F
100
AcDbEntity
  8
1mm
  6
ByBlock
100
AcDbLine
 10
391.6299706720586
 20
5.934349360531627
 30
0.0
 11
366.8728706271405
 21
5.93434936053163
 31
0.0
  0
LINE
  5
10095
330
1F
100
AcDbEntity
  8
1mm
  6
ByBlock
100
AcDbLine
 10
366.8728706271405
 20
5.93434936053163
 30
0.0
 11
366.8728706271405
 21
25.25559012368734
 31
0.0
  0
LINE
  5
10097
330
1F
100
AcDbEntity
  8
1mm
  6
ByBlock
100
AcDbLine
 10
443.1722047883488
 20
25.61995124705659
 30
0.0
 11
419.2979037815795
 21
25.61995124705659
 31
0.0
  0
LINE
  5
10098
330
1F
100
AcDbEntity
  8
1mm
  6
ByBlock
100
AcDbLine
 10
419.2979037815795
 20
25.61995124705659
 30
0.0
 11
419.2979037815795
 21
5.926403411979646
 31
0.0
  0
LINE
  5
10099
330
1F
100
AcDbEntity
  8
1mm
  6
ByBlock
100
AcDbLine
 10
419.2979037815795
 20
5.926403411979646
 30
0.0
 11
443.3922444289641
 21
5.926403411979646
 31
0.0
  0
LINE
  5
1009B
330
1F
100
AcDbEntity
  8
1mm
  6
ByBlock
100
AcDbLine
 10
466.5368905493334
 20
25.85374336521042
 30
0.0
 11
466.5368905493334
 21
5.962159853579632
 31
0.0
  0
LINE
  5
1009C
330
1F
100
AcDbEntity
  8
1mm
  6
ByBlock
100
AcDbLine
 10
466.5368905493334
 20
5.962159853579632
 30
0.0
 11
466.5368905493334
 21
14.58771376570272
 31
0.0
  0
LINE
  5
1009D
330
1F
100
AcDbEntity
  8
1mm
  6
ByBlock
100
AcDbLine
 10
466.5368905493334
 20
14.58771376570272
 30
0.0
 11
486.0764106359796
 21
26.38183850268734
 31
0.0
  0
LINE
  5
1009E
330
1F
100
AcDbEntity
  8
1mm
  6
ByBlock
100
AcDbLine
 10
486.0764106359796
 20
26.38183850268734
 30
0.0
 11
466.5140205092464
 21
14.58771376570272
 31
0.0
  0
LINE
  5
1009F
330
1F
100
AcDbEntity
  8
1mm
  6
ByBlock
100
AcDbLine
 10
466.5140205092464
 20
14.58771376570272
 30
0.0
 11
486.0053290304752
 21
14.58771376570272
 31
0.0
  0
LINE
  5
100A0
330
1F
100
AcDbEntity
  8
1mm
  6
ByBlock
100
AcDbLine
 10
486.0053290304752
 20
14.58771376570272
 30
0.0
 11
486.0053290304752
 21
6.129089846377529
 31
0.0
  0
XLINE
  5
100A7
330
1F
100
AcDbEntity
  8
magstocklogo
  6
ByBlock
100
AcDbXline
 10
152.5799844462412
 20
113.5437619617622
 30
0.0
 11
1.0
 21
0.0
 31
0.0
  0
LINE
  5
100AE
330
1F
100
AcDbEntity
  8
1mm
  6
ByBlock
100
AcDbLine
 10
109.3840828757797
 20
40.04124624537751
 30
0.0
 11
119.6159261643951
 21
40.04124624537751
 31
0.0
  0
LINE
  5
100AF
330
1F
100
AcDbEntity
  8
1mm
  6
ByBlock
100
AcDbLine
 10
119.6159261643951
 20
40.04124624537751
 30
0.0
 11
151.6082517781114
 21
114.4032853666228
 31
0.0
  0
LINE
  5
100B0
330
1F
100
AcDbEntity
  8
1mm
  6
ByBlock
100
AcDbLine
 10
151.6082517781114
 20
114.4032853666228
 30
0.0
 11
188.5621688715269
 21
39.94859680342275
 31
0.0
  0
LINE
  5
100B1
330
1F
100
AcDbEntity
  8
1mm
  6
ByBlock
100
AcDbLine
 10
188.5621688715269
 20
39.94859680342275
 30
0.0
 11
260.3804326435171
 21
39.94859680342275
 31
0.0
  0
LINE
  5
100B2
330
1F
100
AcDbEntity
  8
1mm
  6
ByBlock
100
AcDbLine
 10
260.3804326435171
 20
39.94859680342275
 30
0.0
 11
292.0694829955909
 21
114.2631325169234
 31
0.0
  0
LINE
  5
100B3
330
1F
100
AcDbEntity
  8
1mm
  6
ByBlock
100
AcDbLine
 10
292.0694829955909
 20
114.2631325169234
 30
0.0
 11
330.3300744845756
 21
40.06821838326181
 31
0.0
  0
LINE
  5
100B4
330
1F
100
AcDbEntity
  8
1mm
  6
ByBlock
100
AcDbLine
 10
330.3300744845756
 20
40.06821838326181
 30
0.0
 11
401.4179067454988
 21
40.06821838326181
 31
0.0
  0
LINE
  5
100B5
330
1F
100
AcDbEntity
  8
1mm
  6
ByBlock
100
AcDbLine
 10
401.4179067454988
 20
40.06821838326181
 30
0.0
 11
432.9966668086872
 21
114.8519871471926
 31
0.0
  0
LINE
  5
100B6
330
1F
100
AcDbEntity
  8
1mm
  6
ByBlock
100
AcDbLine
 10
432.9966668086872
 20
114.8519871471926
 30
0.0
 11
470.5333276785947
 21
40.09245155088489
 31
0.0
  0
LINE
  5
100B7
330
1F
100
AcDbEntity
  8
1mm
  6
ByBlock
100
AcDbLine
 10
470.5333276785947
 20
40.09245155088489
 30
0.0
 11
502.6324781770564
 21
40.09245155088489
 31
0.0
  0
LINE
  5
100B8
330
1F
100
AcDbEntity
  8
1mm
  6
ByBlock
100
AcDbLine
 10
502.6324781770564
 20
40.09245155088489
 30
0.0
 11
502.6324781770564
 21
59.96405132934644
 31
0.0
  0
LINE
  5
100B9
330
1F
100
AcDbEntity
  8
1mm
  6
ByBlock
100
AcDbLine
 10
502.6324781770564
 20
59.96405132934644
 30
0.0
 11
504.557825032441
 21
59.96405132934644
 31
0.0
  0
LWPOLYLINE
  5
100BB
330
1F
100
AcDbEntity
  8
1mm
  6
ByBlock
100
AcDbPolyline
 90
        4
 70
     1
 43
0.0
 10
513.6465473462872
 20
76.1772016555003
 10
513.6465473462872
 20
46.47185017242334
 10
527.6740744355179
 20
46.47185017242334
 10
527.6740744355179
 20
76.1772016555003
  0
LINE
  5
100BC
330
1F
100
AcDbEntity
  8
1mm
  6
ByBlock
100
AcDbLine
 10
537.1012257733065
 20
44.80940589040414
 30
0.0
 11
537.1012257733065
 21
77.29963407501958
 31
0.0
  0
LINE
  5
100BD
330
1F
100
AcDbEntity
  8
1mm
  6
ByBlock
100
AcDbLine
 10
537.1012257733065
 20
77.29963407501958
 30
0.0
 11
572.3937915382296
 21
112.6005651470196
 31
0.0
  0
LINE
  5
100BE
330
1F
100
AcDbEntity
  8
1mm
  6
ByBlock
100
AcDbLine
 10
572.3937915382296
 20
112.6005651470196
 30
0.0
 11
572.3937915382296
 21
9.671731768558018
 31
0.0
  0
LINE
  5
100BF
330
1F
100
AcDbEntity
  8
1mm
  6
ByBlock
100
AcDbLine
 10
572.3937915382296
 20
9.671731768558018
 30
0.0
 11
537.1012257733065
 21
44.80940589040414
 31
0.0
  0
LWPOLYLINE
  5
100C0
330
1F
100
AcDbEntity
  8
1mm
  6
ByBlock
100
AcDbPolyline
 90
        4
 70
     1
 43
0.0
 10
14.89902692826772
 20
126.3427780870965
 10
14.89902692826772
 20
81.78818898186563
 10
85.23607329872931
 20
81.78818898186563
 10
85.23607329872931
 20
126.3427780870965
  0
ELLIPSE
  5
100C8
330
1F
100
AcDbEntity
  8
1mm
  6
ByBlock
100
AcDbEllipse
 10
572.8987335138036
 20
62.37375106302206
 30
0.0
 11
0.0
 21
-30.21784615384615
 31
0.0
210
0.0
220
0.0
230
1.0
 40
0.7557499999999971
 41
0.6318702898594788
 42
2.544879825426747
  0
ELLIPSE
  5
100C9
330
1F
100
AcDbEntity
  8
1mm
  6
ByBlock
100
AcDbEllipse
 10
570.313428898419
 20
62.53155537071436
 30
0.0
 11
0.0
 21
-49.42296615384623
 31
0.0
210
0.0
220
0.0
230
1.0
 40
0.9293478260869539
 41
7.062055714832576
 42
8.647307254614091
  0
ELLIPSE
  5
100CA
330
1F
100
AcDbEntity
  8
1mm
  6
ByBlock
100
AcDbEllipse
 10
570.2796856368803
 20
61.36136927840668
 30
0.0
 11
7.436400327653304E-15
 21
71.54368861538462
 31
0.0
210
0.0
220
0.0
230
1.0
 40
0.9448537533935696
 41
3.902530234276453
 42
5.530492045545554
  0
CIRCLE
  5
100CB
330
1F
100
AcDbEntity
  8
1mm
  6
ByBlock
100
AcDbCircle
 10
60.38041013207302
 20
42.46659862456053
 30
0.0
 40
1.719059692307688
  0
CIRCLE
  5
100CC
330
1F
100
AcDbEntity
  8
1mm
  6
ByBlock
100
AcDbCircle
 10
78.21565443976533
 20
56.86372354763745
 30
0.0
 40
2.148824615384612
  0
CIRCLE
  5
100CD
330
1F
100
AcDbEntity
  8
1mm
  6
ByBlock
100
AcDbCircle
 10
88.31513013207302
 20
40.10289154763745
 30
0.0
 40
2.148824615384626
  0
CIRCLE
  5
100CE
330
1F
100
AcDbEntity
  8
1mm
  6
ByBlock
100
AcDbCircle
 10
67.68641382438071
 20
26.3504140091759
 30
0.0
 40
2.08474277567716
  0
LINE
  5
100D4
330
1F
100
AcDbEntity
  8
1mm
  6
ByBlock
100
AcDbLine
 10
12.21033327218487
 20
39.86663415767401
 30
0.0
 11
29.57283616449256
 21
39.86663415767401
 31
0.0
  0
LINE
  5
100D5
330
1F
100
AcDbEntity
  8
1mm
  6
ByBlock
100
AcDbLine
 10
29.57283616449256
 20
39.86663415767401
 30
0.0
 11
20.46181979526179
 21
39.86663415767401
 31
0.0
  0
LINE
  5
100D6
330
1F
100
AcDbEntity
  8
1mm
  6
ByBlock
100
AcDbLine
 10
20.46181979526179
 20
39.86663415767401
 30
0.0
 11
20.46181979526179
 21
47.94621471152016
 31
0.0
  0
LINE
  5
100D7
330
1F
100
AcDbEntity
  8
1mm
  6
ByBlock
100
AcDbLine
 10
20.46181979526179
 20
47.94621471152016
 30
0.0
 11
20.46181979526179
 21
32.30277151152016
 31
0.0
  0
LWPOLYLINE
  5
100D8
330
1F
100
AcDbEntity
  8
1mm
  6
ByBlock
100
AcDbPolyline
 90
        4
 70
     1
 43
0.0
 10
98.92587949319966
 20
5.119920565460447
 10
98.92587949319966
 20
138.5883875806912
 10
0.7531229580073813
 20
138.5883875806912
 10
0.7531229580073813
 20
5.119920565460447
  0
LWPOLYLINE
  5
100D9
330
1F
100
AcDbEntity
  8
1mm
  6
ByBlock
100
AcDbPolyline
 90
        4
 70
     1
 43
0.0
 10
-10.61464649391579
 20
149.9453401191527
 10
-10.61464649391579
 20
-7.206989508251155
 10
652.4957158858917
 20
-7.206989508251155
 10
652.4957158858917
 20
149.9453401191527
  0
CIRCLE
  5
100DA
330
1F
100
AcDbEntity
  8
5mm
  6
ByBlock
100
AcDbCircle
 10
50.21299088589188
 20
104.5741220302104
 30
0.0
 40
3.402706000778423
  0
LWPOLYLINE
  5
100E0
330
1F
100
AcDbEntity
  8
5mm
  6
ByBlock
100
AcDbPolyline
 90
        4
 70
     1
 43
0.0
 10
-15.35553834487733
 20
154.7247625109796
 10
-15.35553834487733
 20
-12.90112698018348
 10
658.0961185277871
 20
-12.90112698018348
 10
658.0961185277871
 20
154.7247625109796
  0
ENDSEC
  0
SECTION
  2
OBJECTS
  0
DICTIONARY
  5
C
330
0
100
AcDbDictionary
281
     1
  3
ACAD_DETAILVIEWSTYLE
350
1007A
  3
ACAD_GROUP
350
D
  3
ACAD_IMAGE_VARS
350
10047
  3
ACAD_LAYOUT
350
10021
  3
ACAD_MATERIAL
350
1003D
  3
ACAD_MLEADERSTYLE
350
10043
  3
ACAD_MLINESTYLE
350
17
  3
ACAD_SCALELIST
350
FFFF
  3
ACAD_SECTIONVIEWSTYLE
350
1007B
  3
ACAD_TABLESTYLE
350
10041
  3
ACAD_VISUALSTYLE
350
10024
  3
ACDB_RECOMPOSE_DATA
350
100F4
  3
AcDbVariableDictionary
350
10075
  3
APPDATA
350
10045
  0
SUN
  5
10046
330
2E
100
AcDbSun
 90
        1
290
     0
 63
     7
421
 16777215
 40
1.0
291
     1
 91
  2455826
 92
 54000000
292
     0
 70
     2
 71
   256
280
     1
  0
DICTIONARY
  5
10048
330
2
100
AcDbDictionary
280
     1
281
     1
  3
ACAD_LAYERSTATES
360
10049
  3
ACLYDICTIONARY
360
100F1
  0
DICTIONARY
  5
1007A
102
{ACAD_REACTORS
330
C
102
}
330
C
100
AcDbDictionary
281
     1
  0
DICTIONARY
  5
D
330
C
100
AcDbDictionary
281
     1
  0
RASTERVARIABLES
  5
10047
102
{ACAD_REACTORS
330
C
102
}
330
C
100
AcDbRasterVariables
 90
        0
 70
     1
 71
     1
 72
     0
  0
DICTIONARY
  5
10021
102
{ACAD_REACTORS
330
C
102
}
330
C
100
AcDbDictionary
281
     1
  3
Model
350
10022
  3
Sheet 1
350
10023
  0
DICTIONARY
  5
1003D
102
{ACAD_REACTORS
330
C
102
}
330
C
100
AcDbDictionary
281
     1
  3
ByBlock
350
1003F
  3
ByLayer
350
1003E
  3
Global
350
10040
  0
DICTIONARY
  5
10043
102
{ACAD_REACTORS
330
C
102
}
330
C
100
AcDbDictionary
281
     1
  3
Standard
350
10044
  0
DICTIONARY
  5
17
330
C
100
AcDbDictionary
281
     1
  0
DICTIONARY
  5
FFFF
102
{ACAD_REACTORS
330
C
102
}
330
C
100
AcDbDictionary
281
     1
  3
A0
350
10000
  3
A1
350
10001
  3
A2
350
10002
  3
A3
350
10003
  3
A4
350
10004
  3
A5
350
10005
  3
A6
350
10006
  3
A7
350
10007
  3
A8
350
10008
  3
A9
350
10009
  3
B0
350
1000A
  3
B1
350
1000B
  3
B2
350
1000C
  3
B3
350
1000D
  3
B4
350
1000E
  3
B5
350
1000F
  3
B6
350
10010
  3
B7
350
10011
  3
B8
350
10012
  3
B9
350
10013
  3
C0
350
10014
  3
C1
350
10015
  3
C2
350
10016
  3
C3
350
10017
  3
C4
350
10018
  3
C5
350
10019
  3
C6
350
1001A
  3
C7
350
1001B
  3
C8
350
1001C
  3
C9
350
1001D
  3
D0
350
1001E
  3
D1
350
1001F
  3
D2
350
10020
  0
DICTIONARY
  5
1007B
102
{ACAD_REACTORS
330
C
102
}
330
C
100
AcDbDictionary
281
     1
  0
DICTIONARY
  5
10041
102
{ACAD_REACTORS
330
C
102
}
330
C
100
AcDbDictionary
281
     1
  3
Standard
350
10042
  0
DICTIONARY
  5
10024
102
{ACAD_REACTORS
330
C
102
}
330
C
100
AcDbDictionary
281
     1
  3
2dWireframe
350
10029
  3
Basic
350
1002C
  3
Brighten
350
10030
  3
ColorChange
350
10034
  3
Conceptual
350
1002E
  3
Dim
350
1002F
  3
EdgeColorOff
350
10037
  3
Facepattern
350
10033
  3
Flat
350
10025
  3
FlatWithEdges
350
10026
  3
Gouraud
350
10027
  3
GouraudWithEdges
350
10028
  3
Hidden
350
1002B
  3
JitterOff
350
10035
  3
Linepattern
350
10032
  3
OverhangOff
350
10036
  3
Realistic
350
1002D
  3
Shaded
350
1003C
  3
Shaded with edges
350
1003B
  3
Shades of Gray
350
10038
  3
Sketchy
350
10039
  3
Thicken
350
10031
  3
Wireframe
350
1002A
  3
X-Ray
350
1003A
  0
XRECORD
  5
100F4
102
{ACAD_REACTORS
330
C
102
}
330
C
100
AcDbXrecord
280
     1
 90
        1
330
10042
  0
DICTIONARY
  5
10075
102
{ACAD_REACTORS
330
C
102
}
330
C
100
AcDbDictionary
281
     1
  3
CANNOSCALE
350
10076
  3
CMLEADERSTYLE
350
10078
  3
CTABLESTYLE
350
10077
  3
MSLTSCALE
350
10079
  0
DICTIONARY
  5
10045
102
{ACAD_REACTORS
330
C
102
}
330
C
100
AcDbDictionary
281
     1
  0
DICTIONARY
  5
10049
102
{ACAD_REACTORS
330
10048
102
}
330
10048
100
AcDbDictionary
281
     1
  0
DICTIONARY
  5
100F1
102
{ACAD_REACTORS
330
10048
102
}
330
10048
100
AcDbDictionary
281
     1
1001
ACAD
1000
<All
  0
LAYOUT
  5
10022
102
{ACAD_REACTORS
330
10021
102
}
330
10021
100
AcDbPlotSettings
  1

  2
none_device
  4
Letter_(8.50_x_11.00_Inches)
  6

 40
6.35
 41
6.35
 42
6.35
 43
6.35
 44
215.9
 45
279.4
 46
0.0
 47
0.0
 48
0.0
 49
0.0
140
0.0
141
0.0
142
1.0
143
52.855
 70
  1712
 72
     0
 73
     0
 74
     0
  7

 75
     0
 76
     0
 77
     2
 78
   300
147
0.0189196859332135
148
36.06799999999968
149
558.8
100
AcDbLayout
  1
Model
 70
     1
 71
     0
 10
0.0
 20
0.0
 11
12.0
 21
9.0
 12
0.0
 22
0.0
 32
0.0
 14
1.000000000000000E+20
 24
1.000000000000000E+20
 34
1.000000000000000E+20
 15
-1.000000000000000E+20
 25
-1.000000000000000E+20
 35
-1.000000000000000E+20
146
0.0
 13
0.0
 23
0.0
 33
0.0
 16
1.0
 26
0.0
 36
0.0
 17
0.0
 27
1.0
 37
0.0
 76
     0
330
1F
331
2E
  0
LAYOUT
  5
10023
102
{ACAD_REACTORS
330
10021
102
}
330
10021
100
AcDbPlotSettings
  1

  2
none_device
  4

  6

 40
0.0
 41
0.0
 42
0.0
 43
0.0
 44
0.0
 45
0.0
 46
0.0
 47
0.0
 48
0.0
 49
0.0
140
0.0
141
0.0
142
1.0
143
1.0
 70
   688
 72
     1
 73
     0
 74
     5
  7

 75
    16
 76
     0
 77
     2
 78
   300
147
1.0
148
0.0
149
0.0
100
AcDbLayout
  1
Sheet 1
 70
     1
 71
     1
 10
0.0
 20
0.0
 11
0.0
 21
0.0
 12
0.0
 22
0.0
 32
0.0
 14
1.000000000000000E+20
 24
1.000000000000000E+20
 34
1.000000000000000E+20
 15
-1.000000000000000E+20
 25
-1.000000000000000E+20
 35
-1.000000000000000E+20
146
0.0
 13
0.0
 23
0.0
 33
0.0
 16
1.0
 26
0.0
 36
0.0
 17
0.0
 27
1.0
 37
0.0
 76
     0
330
1B
  0
MATERIAL
  5
1003F
102
{ACAD_REACTORS
330
1003D
102
}
330
1003D
100
AcDbMaterial
  1
ByBlock
 72
     1
 94
      127
  0
MATERIAL
  5
1003E
102
{ACAD_REACTORS
330
1003D
102
}
330
1003D
100
AcDbMaterial
  1
ByLayer
 72
     1
 94
      127
  0
MATERIAL
  5
10040
102
{ACAD_REACTORS
330
1003D
102
}
330
1003D
100
AcDbMaterial
  1
Global
 72
     1
 94
      127
  0
MLEADERSTYLE
  5
10044
102
{ACAD_REACTORS
330
10043
102
}
330
10043
100
AcDbMLeaderStyle
179
     2
170
     2
171
     1
172
     0
 90
        2
 40
0.0
 41
0.0
173
     1
 91
-1056964608
340
14
 92
       -2
290
     1
 42
2.0
291
     1
 43
8.0
  3
Standard
341
0
 44
4.0
300

342
11
174
     1
178
     6
175
     1
176
     0
 93
-1056964608
 45
4.0
292
     0
297
     0
 46
4.0
343
0
 94
-1056964608
 47
1.0
 49
1.0
140
1.0
293
     1
141
0.0
294
     1
177
     0
142
1.0
295
     0
296
     0
143
3.75
271
     0
272
     9
273
     9
298
     0
  0
SCALE
  5
10000
102
{ACAD_REACTORS
330
FFFF
102
}
330
FFFF
100
AcDbScale
 70
     0
300
1:1
140
1.0
141
1.0
290
     1
  0
SCALE
  5
10001
102
{ACAD_REACTORS
330
FFFF
102
}
330
FFFF
100
AcDbScale
 70
     0
300
1:2
140
1.0
141
2.0
290
     0
  0
SCALE
  5
10002
102
{ACAD_REACTORS
330
FFFF
102
}
330
FFFF
100
AcDbScale
 70
     0
300
1:4
140
1.0
141
4.0
290
     0
  0
SCALE
  5
10003
102
{ACAD_REACTORS
330
FFFF
102
}
330
FFFF
100
AcDbScale
 70
     0
300
1:5
140
1.0
141
5.0
290
     0
  0
SCALE
  5
10004
102
{ACAD_REACTORS
330
FFFF
102
}
330
FFFF
100
AcDbScale
 70
     0
300
1:8
140
1.0
141
8.0
290
     0
  0
SCALE
  5
10005
102
{ACAD_REACTORS
330
FFFF
102
}
330
FFFF
100
AcDbScale
 70
     0
300
1:10
140
1.0
141
10.0
290
     0
  0
SCALE
  5
10006
102
{ACAD_REACTORS
330
FFFF
102
}
330
FFFF
100
AcDbScale
 70
     0
300
1:16
140
1.0
141
16.0
290
     0
  0
SCALE
  5
10007
102
{ACAD_REACTORS
330
FFFF
102
}
330
FFFF
100
AcDbScale
 70
     0
300
1:20
140
1.0
141
20.0
290
     0
  0
SCALE
  5
10008
102
{ACAD_REACTORS
330
FFFF
102
}
330
FFFF
100
AcDbScale
 70
     0
300
1:30
140
1.0
141
30.0
290
     0
  0
SCALE
  5
10009
102
{ACAD_REACTORS
330
FFFF
102
}
330
FFFF
100
AcDbScale
 70
     0
300
1:40
140
1.0
141
40.0
290
     0
  0
SCALE
  5
1000A
102
{ACAD_REACTORS
330
FFFF
102
}
330
FFFF
100
AcDbScale
 70
     0
300
1:50
140
1.0
141
50.0
290
     0
  0
SCALE
  5
1000B
102
{ACAD_REACTORS
330
FFFF
102
}
330
FFFF
100
AcDbScale
 70
     0
300
1:100
140
1.0
141
100.0
290
     0
  0
SCALE
  5
1000C
102
{ACAD_REACTORS
330
FFFF
102
}
330
FFFF
100
AcDbScale
 70
     0
300
2:1
140
2.0
141
1.0
290
     0
  0
SCALE
  5
1000D
102
{ACAD_REACTORS
330
FFFF
102
}
330
FFFF
100
AcDbScale
 70
     0
300
4:1
140
4.0
141
1.0
290
     0
  0
SCALE
  5
1000E
102
{ACAD_REACTORS
330
FFFF
102
}
330
FFFF
100
AcDbScale
 70
     0
300
8:1
140
8.0
141
1.0
290
     0
  0
SCALE
  5
1000F
102
{ACAD_REACTORS
330
FFFF
102
}
330
FFFF
100
AcDbScale
 70
     0
300
10:1
140
10.0
141
1.0
290
     0
  0
SCALE
  5
10010
102
{ACAD_REACTORS
330
FFFF
102
}
330
FFFF
100
AcDbScale
 70
     0
300
100:1
140
100.0
141
1.0
290
     0
  0
SCALE
  5
10011
102
{ACAD_REACTORS
330
FFFF
102
}
330
FFFF
100
AcDbScale
 70
     0
300
1/128" = 1'-0"
140
0.0078125
141
12.0
290
     0
  0
SCALE
  5
10012
102
{ACAD_REACTORS
330
FFFF
102
}
330
FFFF
100
AcDbScale
 70
     0
300
1/64" = 1'-0"
140
0.015625
141
12.0
290
     0
  0
SCALE
  5
10013
102
{ACAD_REACTORS
330
FFFF
102
}
330
FFFF
100
AcDbScale
 70
     0
300
1/32" = 1'-0"
140
0.03125
141
12.0
290
     0
  0
SCALE
  5
10014
102
{ACAD_REACTORS
330
FFFF
102
}
330
FFFF
100
AcDbScale
 70
     0
300
1/16" = 1'-0"
140
0.0625
141
12.0
290
     0
  0
SCALE
  5
10015
102
{ACAD_REACTORS
330
FFFF
102
}
330
FFFF
100
AcDbScale
 70
     0
300
3/32" = 1'-0"
140
0.09375
141
12.0
290
     0
  0
SCALE
  5
10016
102
{ACAD_REACTORS
330
FFFF
102
}
330
FFFF
100
AcDbScale
 70
     0
300
1/8" = 1'-0"
140
0.125
141
12.0
290
     0
  0
SCALE
  5
10017
102
{ACAD_REACTORS
330
FFFF
102
}
330
FFFF
100
AcDbScale
 70
     0
300
3/16" = 1'-0"
140
0.1875
141
12.0
290
     0
  0
SCALE
  5
10018
102
{ACAD_REACTORS
330
FFFF
102
}
330
FFFF
100
AcDbScale
 70
     0
300
1/4" = 1'-0"
140
0.25
141
12.0
290
     0
  0
SCALE
  5
10019
102
{ACAD_REACTORS
330
FFFF
102
}
330
FFFF
100
AcDbScale
 70
     0
300
3/8" = 1'-0"
140
0.375
141
12.0
290
     0
  0
SCALE
  5
1001A
102
{ACAD_REACTORS
330
FFFF
102
}
330
FFFF
100
AcDbScale
 70
     0
300
1/2" = 1'-0"
140
0.5
141
12.0
290
     0
  0
SCALE
  5
1001B
102
{ACAD_REACTORS
330
FFFF
102
}
330
FFFF
100
AcDbScale
 70
     0
300
3/4" = 1'-0"
140
0.75
141
12.0
290
     0
  0
SCALE
  5
1001C
102
{ACAD_REACTORS
330
FFFF
102
}
330
FFFF
100
AcDbScale
 70
     0
300
1" = 1'-0"
140
1.0
141
12.0
290
     0
  0
SCALE
  5
1001D
102
{ACAD_REACTORS
330
FFFF
102
}
330
FFFF
100
AcDbScale
 70
     0
300
1-1/2" = 1'-0"
140
1.5
141
12.0
290
     0
  0
SCALE
  5
1001E
102
{ACAD_REACTORS
330
FFFF
102
}
330
FFFF
100
AcDbScale
 70
     0
300
3" = 1'-0"
140
3.0
141
12.0
290
     0
  0
SCALE
  5
1001F
102
{ACAD_REACTORS
330
FFFF
102
}
330
FFFF
100
AcDbScale
 70
     0
300
6" = 1'-0"
140
6.0
141
12.0
290
     0
  0
SCALE
  5
10020
102
{ACAD_REACTORS
330
FFFF
102
}
330
FFFF
100
AcDbScale
 70
     0
300
1'-0" = 1'-0"
140
12.0
141
12.0
290
     0
  0
TABLESTYLE
  5
10042
102
{ACAD_REACTORS
330
10041
102
}
102
{ACAD_XDICTIONARY
360
100F2
102
}
330
10041
100
AcDbTableStyle
  3
Standard
 70
     0
 71
     0
 40
0.06
 41
0.06
280
     0
281
     0
  7
STANDARD
140
4.5
170
     2
 62
     0
 63
   257
283
     0
 90
        4
 91
        0
  1

274
    -2
284
     1
 64
     0
275
    -2
285
     1
 65
     0
276
    -2
286
     1
 66
     0
277
    -2
287
     1
 67
     0
278
    -2
288
     1
 68
     0
279
    -2
289
     1
 69
     0
  7
STANDARD
140
6.0
170
     5
 62
     0
 63
   257
283
     0
 90
        4
 91
        0
  1

274
    -2
284
     1
 64
     0
275
    -2
285
     1
 65
     0
276
    -2
286
     1
 66
     0
277
    -2
287
     1
 67
     0
278
    -2
288
     1
 68
     0
279
    -2
289
     1
 69
     0
  7
STANDARD
140
4.5
170
     5
 62
     0
 63
   257
283
     0
 90
        4
 91
        0
  1

274
    -2
284
     1
 64
     0
275
    -2
285
     1
 65
     0
276
    -2
286
     1
 66
     0
277
    -2
287
     1
 67
     0
278
    -2
288
     1
 68
     0
279
    -2
289
     1
 69
     0
  0
VISUALSTYLE
  5
10029
102
{ACAD_REACTORS
330
10024
102
}
330
10024
100
AcDbVisualStyle
  2
2dWireframe
 70
     4
177
     3
291
     0
 70
    58
 90
        0
176
     1
 90
        2
176
     1
 90
        0
176
     1
 90
        0
176
     1
 40
0.6
176
     1
 40
30.0
176
     1
 62
     7
420
 16777215
176
     1
 90
        1
176
     1
 90
        4
176
     1
 62
     7
176
     1
 62
   257
176
     1
 90
        1
176
     1
 90
        1
176
     1
 40
1.0
176
     1
 90
        0
176
     1
 62
   257
176
     1
 40
1.0
176
     1
 90
        1
176
     1
 90
        6
176
     1
 90
        2
176
     1
 62
     7
176
     1
 90
        5
176
     1
 90
        0
176
     1
 90
        0
176
     1
290
     0
176
     1
 90
        1
176
     1
 40
0.0
176
     1
 90
        0
176
     1
290
     1
176
     1
290
     1
176
     1
290
     0
176
     1
290
     0
176
     1
290
     0
176
     1
290
     0
176
     1
290
     0
176
     1
290
     0
176
     1
290
     0
176
     1
 90
       50
176
     1
 40
0.0
176
     1
 40
1.0
176
     1
 90
        0
176
     1
 62
   178
420
        0
176
     1
 90
       50
176
     1
 90
        3
176
     1
 62
     5
420
      255
176
     1
290
     0
176
     1
 90
       50
176
     1
 90
       50
176
     1
 90
       50
176
     1
290
     0
176
     1
 90
       50
176
     1
 62
   256
176
     0
 40
1.0
176
     0
 90
        2
176
     1
  1
strokes_ogs.tif
176
     1
290
     0
176
     1
 40
1.0
176
     1
 40
1.0
176
     1
  0
VISUALSTYLE
  5
1002C
102
{ACAD_REACTORS
330
10024
102
}
330
10024
100
AcDbVisualStyle
  2
Basic
 70
     7
177
     3
291
     1
 70
    58
 90
        1
176
     1
 90
        0
176
     1
 90
        1
176
     1
 90
        0
176
     1
 40
0.6
176
     1
 40
30.0
176
     1
 62
     7
420
 16777215
176
     1
 90
        0
176
     1
 90
        4
176
     1
 62
     7
176
     1
 62
   257
176
     1
 90
        1
176
     1
 90
        1
176
     1
 40
1.0
176
     1
 90
        8
176
     1
 62
     7
176
     1
 40
1.0
176
     1
 90
        1
176
     1
 90
        6
176
     1
 90
        2
176
     1
 62
     7
176
     1
 90
        5
176
     1
 90
        0
176
     1
 90
        0
176
     1
290
     0
176
     1
 90
        1
176
     1
 40
0.0
176
     1
 90
        0
176
     1
290
     0
176
     1
290
     1
176
     1
290
     1
176
     1
290
     0
176
     1
290
     0
176
     1
290
     0
176
     1
290
     0
176
     1
290
     0
176
     1
290
     0
176
     1
 90
       50
176
     1
 40
0.0
176
     1
 40
1.0
176
     1
 90
        0
176
     1
 62
   178
420
        0
176
     1
 90
       50
176
     1
 90
        3
176
     1
 62
     5
420
      255
176
     1
290
     0
176
     1
 90
       50
176
     1
 90
       50
176
     1
 90
       50
176
     1
290
     0
176
     1
 90
       50
176
     1
 62
   256
176
     0
 40
1.0
176
     0
 90
        2
176
     1
  1
strokes_ogs.tif
176
     1
290
     0
176
     1
 40
1.0
176
     1
 40
1.0
176
     1
  0
VISUALSTYLE
  5
10030
102
{ACAD_REACTORS
330
10024
102
}
330
10024
100
AcDbVisualStyle
  2
Brighten
 70
    12
177
     3
291
     1
 70
    58
 90
        2
176
     1
 90
        2
176
     1
 90
        0
176
     1
 90
        0
176
     1
 40
0.6
176
     1
 40
30.0
176
     1
 62
     7
420
 16777215
176
     1
 90
        1
176
     1
 90
        4
176
     1
 62
     7
176
     1
 62
   257
176
     1
 90
        1
176
     1
 90
        1
176
     1
 40
1.0
176
     1
 90
        8
176
     1
 62
     7
176
     1
 40
1.0
176
     1
 90
        1
176
     1
 90
        6
176
     1
 90
        2
176
     1
 62
     7
176
     1
 90
        5
176
     1
 90
        0
176
     1
 90
        0
176
     1
290
     0
176
     1
 90
        1
176
     1
 40
50.0
176
     1
 90
        0
176
     1
290
     0
176
     1
290
     1
176
     1
290
     1
176
     1
290
     0
176
     1
290
     0
176
     1
290
     0
176
     1
290
     0
176
     1
290
     0
176
     1
290
     0
176
     1
 90
       50
176
     1
 40
0.0
176
     1
 40
1.0
176
     1
 90
        0
176
     1
 62
   178
420
        0
176
     1
 90
       50
176
     1
 90
        3
176
     1
 62
     5
420
      255
176
     1
290
     0
176
     1
 90
       50
176
     1
 90
       50
176
     1
 90
       50
176
     1
290
     0
176
     1
 90
       50
176
     1
 62
   256
176
     0
 40
1.0
176
     0
 90
        2
176
     1
  1
strokes_ogs.tif
176
     1
290
     0
176
     1
 40
1.0
176
     1
 40
1.0
176
     1
  0
VISUALSTYLE
  5
10034
102
{ACAD_REACTORS
330
10024
102
}
330
10024
100
AcDbVisualStyle
  2
ColorChange
 70
    16
177
     3
291
     1
 70
    58
 90
        2
176
     1
 90
        2
176
     1
 90
        3
176
     1
 90
        0
176
     1
 40
0.6
176
     1
 40
30.0
176
     1
 62
     8
420
  8421504
176
     1
 90
        1
176
     1
 90
        4
176
     1
 62
     7
176
     1
 62
   257
176
     1
 90
        1
176
     1
 90
        1
176
     1
 40
1.0
176
     1
 90
        8
176
     1
 62
     8
420
  8421504
176
     1
 40
1.0
176
     1
 90
        1
176
     1
 90
        6
176
     1
 90
        2
176
     1
 62
     7
176
     1
 90
        5
176
     1
 90
        0
176
     1
 90
        0
176
     1
290
     0
176
     1
 90
        1
176
     1
 40
0.0
176
     1
 90
        0
176
     1
290
     0
176
     1
290
     1
176
     1
290
     1
176
     1
290
     0
176
     1
290
     0
176
     1
290
     0
176
     1
290
     0
176
     1
290
     0
176
     1
290
     0
176
     1
 90
       50
176
     1
 40
0.0
176
     1
 40
1.0
176
     1
 90
        0
176
     1
 62
   178
420
        0
176
     1
 90
       50
176
     1
 90
        3
176
     1
 62
     5
420
      255
176
     1
290
     0
176
     1
 90
       50
176
     1
 90
       50
176
     1
 90
       50
176
     1
290
     0
176
     1
 90
       50
176
     1
 62
   256
176
     0
 40
1.0
176
     0
 90
        2
176
     1
  1
strokes_ogs.tif
176
     1
290
     0
176
     1
 40
1.0
176
     1
 40
1.0
176
     1
  0
VISUALSTYLE
  5
1002E
102
{ACAD_REACTORS
330
10024
102
}
330
10024
100
AcDbVisualStyle
  2
Conceptual
 70
     9
177
     3
291
     0
 70
    58
 90
        3
176
     1
 90
        2
176
     1
 90
        0
176
     1
 90
        0
176
     1
 40
0.6
176
     1
 40
30.0
176
     1
 62
     7
420
 16777215
176
     1
 90
        2
176
     1
 90
        2
176
     1
 62
     7
176
     1
 62
   257
176
     1
 90
        1
176
     1
 90
        1
176
     1
 40
179.0
176
     1
 90
        8
176
     1
 62
     7
176
     1
 40
1.0
176
     1
 90
        1
176
     1
 90
        6
176
     1
 90
        2
176
     1
 62
     7
176
     1
 90
        3
176
     1
 90
        0
176
     1
 90
        0
176
     1
290
     0
176
     1
 90
        1
176
     1
 40
0.0
176
     1
 90
        0
176
     1
290
     0
176
     1
290
     1
176
     1
290
     1
176
     1
290
     0
176
     1
290
     0
176
     1
290
     0
176
     1
290
     0
176
     1
290
     0
176
     1
290
     0
176
     1
 90
       50
176
     1
 40
0.0
176
     1
 40
1.0
176
     1
 90
        0
176
     1
 62
   178
420
        0
176
     1
 90
       50
176
     1
 90
        3
176
     1
 62
     5
420
      255
176
     1
290
     0
176
     1
 90
       50
176
     1
 90
       50
176
     1
 90
       50
176
     1
290
     0
176
     1
 90
       50
176
     1
 62
   256
176
     0
 40
1.0
176
     0
 90
        2
176
     1
  1
strokes_ogs.tif
176
     1
290
     0
176
     1
 40
1.0
176
     1
 40
1.0
176
     1
  0
VISUALSTYLE
  5
1002F
102
{ACAD_REACTORS
330
10024
102
}
330
10024
100
AcDbVisualStyle
  2
Dim
 70
    11
177
     3
291
     1
 70
    58
 90
        2
176
     1
 90
        2
176
     1
 90
        0
176
     1
 90
        0
176
     1
 40
0.6
176
     1
 40
30.0
176
     1
 62
     7
420
 16777215
176
     1
 90
        1
176
     1
 90
        4
176
     1
 62
     7
176
     1
 62
   257
176
     1
 90
        1
176
     1
 90
        1
176
     1
 40
1.0
176
     1
 90
        8
176
     1
 62
     7
176
     1
 40
1.0
176
     1
 90
        1
176
     1
 90
        6
176
     1
 90
        2
176
     1
 62
     7
176
     1
 90
        5
176
     1
 90
        0
176
     1
 90
        0
176
     1
290
     0
176
     1
 90
        1
176
     1
 40
-50.0
176
     1
 90
        0
176
     1
290
     0
176
     1
290
     1
176
     1
290
     1
176
     1
290
     0
176
     1
290
     0
176
     1
290
     0
176
     1
290
     0
176
     1
290
     0
176
     1
290
     0
176
     1
 90
       50
176
     1
 40
0.0
176
     1
 40
1.0
176
     1
 90
        0
176
     1
 62
   178
420
        0
176
     1
 90
       50
176
     1
 90
        3
176
     1
 62
     5
420
      255
176
     1
290
     0
176
     1
 90
       50
176
     1
 90
       50
176
     1
 90
       50
176
     1
290
     0
176
     1
 90
       50
176
     1
 62
   256
176
     0
 40
1.0
176
     0
 90
        2
176
     1
  1
strokes_ogs.tif
176
     1
290
     0
176
     1
 40
1.0
176
     1
 40
1.0
176
     1
  0
VISUALSTYLE
  5
10037
102
{ACAD_REACTORS
330
10024
102
}
330
10024
100
AcDbVisualStyle
  2
EdgeColorOff
 70
    22
177
     3
291
     1
 70
    58
 90
        2
176
     0
 90
        2
176
     0
 90
        0
176
     0
 90
        0
176
     0
 40
0.6
176
     0
 40
30.0
176
     0
 62
     7
420
 16777215
176
     0
 90
        1
176
     0
 90
        4
176
     0
 62
     7
176
     0
 62
   257
176
     0
 90
        1
176
     0
 90
        1
176
     0
 40
1.0
176
     0
 90
        8
176
     2
 62
     7
176
     0
 40
1.0
176
     0
 90
        1
176
     0
 90
        6
176
     0
 90
        2
176
     0
 62
     7
176
     0
 90
        5
176
     0
 90
        0
176
     0
 90
        0
176
     0
290
     0
176
     0
 90
        1
176
     0
 40
0.0
176
     0
 90
        0
176
     0
290
     0
176
     0
290
     1
176
     0
290
     1
176
     0
290
     0
176
     0
290
     0
176
     0
290
     0
176
     0
290
     0
176
     0
290
     0
176
     0
290
     0
176
     0
 90
       50
176
     0
 40
0.0
176
     0
 40
1.0
176
     0
 90
        0
176
     0
 62
   178
420
        0
176
     0
 90
       50
176
     0
 90
        3
176
     0
 62
     5
420
      255
176
     0
290
     0
176
     0
 90
       50
176
     0
 90
       50
176
     0
 90
       50
176
     0
290
     0
176
     0
 90
       50
176
     0
 62
   256
176
     0
 40
1.0
176
     0
 90
        2
176
     0
  1
strokes_ogs.tif
176
     0
290
     0
176
     0
 40
1.0
176
     0
 40
1.0
176
     0
  0
VISUALSTYLE
  5
10033
102
{ACAD_REACTORS
330
10024
102
}
330
10024
100
AcDbVisualStyle
  2
Facepattern
 70
    15
177
     3
291
     1
 70
    58
 90
        2
176
     1
 90
        2
176
     1
 90
        0
176
     1
 90
        0
176
     1
 40
0.6
176
     1
 40
30.0
176
     1
 62
     7
420
 16777215
176
     1
 90
        1
176
     1
 90
        4
176
     1
 62
     7
176
     1
 62
   257
176
     1
 90
        1
176
     1
 90
        1
176
     1
 40
1.0
176
     1
 90
        8
176
     1
 62
     7
176
     1
 40
1.0
176
     1
 90
        1
176
     1
 90
        6
176
     1
 90
        2
176
     1
 62
     7
176
     1
 90
        5
176
     1
 90
        0
176
     1
 90
        0
176
     1
290
     0
176
     1
 90
        1
176
     1
 40
0.0
176
     1
 90
        0
176
     1
290
     0
176
     1
290
     1
176
     1
290
     1
176
     1
290
     0
176
     1
290
     0
176
     1
290
     0
176
     1
290
     0
176
     1
290
     0
176
     1
290
     0
176
     1
 90
       50
176
     1
 40
0.0
176
     1
 40
1.0
176
     1
 90
        0
176
     1
 62
   178
420
        0
176
     1
 90
       50
176
     1
 90
        3
176
     1
 62
     5
420
      255
176
     1
290
     0
176
     1
 90
       50
176
     1
 90
       50
176
     1
 90
       50
176
     1
290
     0
176
     1
 90
       50
176
     1
 62
   256
176
     0
 40
1.0
176
     0
 90
        2
176
     1
  1
strokes_ogs.tif
176
     1
290
     0
176
     1
 40
1.0
176
     1
 40
1.0
176
     1
  0
VISUALSTYLE
  5
10025
102
{ACAD_REACTORS
330
10024
102
}
330
10024
100
AcDbVisualStyle
  2
Flat
 70
     0
177
     3
291
     1
 70
    58
 90
        2
176
     1
 90
        1
176
     1
 90
        1
176
     1
 90
        2
176
     1
 40
0.6
176
     1
 40
30.0
176
     1
 62
     7
420
 16777215
176
     1
 90
        0
176
     1
 90
        0
176
     1
 62
     7
176
     1
 62
   257
176
     1
 90
        1
176
     1
 90
        1
176
     1
 40
1.0
176
     1
 90
        8
176
     1
 62
     7
176
     1
 40
1.0
176
     1
 90
        1
176
     1
 90
        6
176
     1
 90
        2
176
     1
 62
     7
176
     1
 90
        5
176
     1
 90
        0
176
     1
 90
        0
176
     1
290
     0
176
     1
 90
       13
176
     1
 40
0.0
176
     1
 90
        0
176
     1
290
     0
176
     1
290
     1
176
     1
290
     1
176
     1
290
     0
176
     1
290
     0
176
     1
290
     0
176
     1
290
     0
176
     1
290
     0
176
     1
290
     0
176
     1
 90
       50
176
     1
 40
0.0
176
     1
 40
1.0
176
     1
 90
        0
176
     1
 62
   178
420
        0
176
     1
 90
       50
176
     1
 90
        3
176
     1
 62
     5
420
      255
176
     1
290
     0
176
     1
 90
       50
176
     1
 90
       50
176
     1
 90
       50
176
     1
290
     0
176
     1
 90
       50
176
     1
 62
   256
176
     0
 40
1.0
176
     0
 90
        2
176
     1
  1
strokes_ogs.tif
176
     1
290
     0
176
     1
 40
1.0
176
     1
 40
1.0
176
     1
  0
VISUALSTYLE
  5
10026
102
{ACAD_REACTORS
330
10024
102
}
330
10024
100
AcDbVisualStyle
  2
FlatWithEdges
 70
     1
177
     3
291
     1
 70
    58
 90
        2
176
     1
 90
        1
176
     1
 90
        1
176
     1
 90
        2
176
     1
 40
0.6
176
     1
 40
30.0
176
     1
 62
     7
420
 16777215
176
     1
 90
        1
176
     1
 90
        0
176
     1
 62
     7
176
     1
 62
   257
176
     1
 90
        1
176
     1
 90
        1
176
     1
 40
1.0
176
     1
 90
        0
176
     1
 62
   257
176
     1
 40
1.0
176
     1
 90
        1
176
     1
 90
        6
176
     1
 90
        2
176
     1
 62
     7
176
     1
 90
        5
176
     1
 90
        0
176
     1
 90
        0
176
     1
290
     0
176
     1
 90
       13
176
     1
 40
0.0
176
     1
 90
        0
176
     1
290
     0
176
     1
290
     1
176
     1
290
     1
176
     1
290
     0
176
     1
290
     0
176
     1
290
     0
176
     1
290
     0
176
     1
290
     0
176
     1
290
     0
176
     1
 90
       50
176
     1
 40
0.0
176
     1
 40
1.0
176
     1
 90
        0
176
     1
 62
   178
420
        0
176
     1
 90
       50
176
     1
 90
        3
176
     1
 62
     5
420
      255
176
     1
290
     0
176
     1
 90
       50
176
     1
 90
       50
176
     1
 90
       50
176
     1
290
     0
176
     1
 90
       50
176
     1
 62
   256
176
     0
 40
1.0
176
     0
 90
        2
176
     1
  1
strokes_ogs.tif
176
     1
290
     0
176
     1
 40
1.0
176
     1
 40
1.0
176
     1
  0
VISUALSTYLE
  5
10027
102
{ACAD_REACTORS
330
10024
102
}
330
10024
100
AcDbVisualStyle
  2
Gouraud
 70
     2
177
     3
291
     1
 70
    58
 90
        2
176
     1
 90
        2
176
     1
 90
        1
176
     1
 90
        2
176
     1
 40
0.6
176
     1
 40
30.0
176
     1
 62
     7
420
 16777215
176
     1
 90
        0
176
     1
 90
        0
176
     1
 62
     7
176
     1
 62
   257
176
     1
 90
        1
176
     1
 90
        1
176
     1
 40
1.0
176
     1
 90
        0
176
     1
 62
     7
176
     1
 40
1.0
176
     1
 90
        1
176
     1
 90
        6
176
     1
 90
        2
176
     1
 62
     7
176
     1
 90
        5
176
     1
 90
        0
176
     1
 90
        0
176
     1
290
     0
176
     1
 90
       13
176
     1
 40
0.0
176
     1
 90
        0
176
     1
290
     0
176
     1
290
     1
176
     1
290
     1
176
     1
290
     0
176
     1
290
     0
176
     1
290
     0
176
     1
290
     0
176
     1
290
     0
176
     1
290
     0
176
     1
 90
       50
176
     1
 40
0.0
176
     1
 40
1.0
176
     1
 90
        0
176
     1
 62
   178
420
        0
176
     1
 90
       50
176
     1
 90
        3
176
     1
 62
     5
420
      255
176
     1
290
     0
176
     1
 90
       50
176
     1
 90
       50
176
     1
 90
       50
176
     1
290
     0
176
     1
 90
       50
176
     1
 62
   256
176
     0
 40
1.0
176
     0
 90
        2
176
     1
  1
strokes_ogs.tif
176
     1
290
     0
176
     1
 40
1.0
176
     1
 40
1.0
176
     1
  0
VISUALSTYLE
  5
10028
102
{ACAD_REACTORS
330
10024
102
}
330
10024
100
AcDbVisualStyle
  2
GouraudWithEdges
 70
     3
177
     3
291
     1
 70
    58
 90
        2
176
     1
 90
        2
176
     1
 90
        1
176
     1
 90
        2
176
     1
 40
0.6
176
     1
 40
30.0
176
     1
 62
     7
420
 16777215
176
     1
 90
        1
176
     1
 90
        0
176
     1
 62
     7
176
     1
 62
   257
176
     1
 90
        1
176
     1
 90
        1
176
     1
 40
1.0
176
     1
 90
        0
176
     1
 62
   257
176
     1
 40
1.0
176
     1
 90
        1
176
     1
 90
        6
176
     1
 90
        2
176
     1
 62
     7
176
     1
 90
        5
176
     1
 90
        0
176
     1
 90
        0
176
     1
290
     0
176
     1
 90
       13
176
     1
 40
0.0
176
     1
 90
        0
176
     1
290
     0
176
     1
290
     1
176
     1
290
     1
176
     1
290
     0
176
     1
290
     0
176
     1
290
     0
176
     1
290
     0
176
     1
290
     0
176
     1
290
     0
176
     1
 90
       50
176
     1
 40
0.0
176
     1
 40
1.0
176
     1
 90
        0
176
     1
 62
   178
420
        0
176
     1
 90
       50
176
     1
 90
        3
176
     1
 62
     5
420
      255
176
     1
290
     0
176
     1
 90
       50
176
     1
 90
       50
176
     1
 90
       50
176
     1
290
     0
176
     1
 90
       50
176
     1
 62
   256
176
     0
 40
1.0
176
     0
 90
        2
176
     1
  1
strokes_ogs.tif
176
     1
290
     0
176
     1
 40
1.0
176
     1
 40
1.0
176
     1
  0
VISUALSTYLE
  5
1002B
102
{ACAD_REACTORS
330
10024
102
}
330
10024
100
AcDbVisualStyle
  2
Hidden
 70
     6
177
     3
291
     0
 70
    58
 90
        1
176
     1
 90
        2
176
     1
 90
        2
176
     1
 90
        0
176
     1
 40
0.6
176
     1
 40
30.0
176
     1
 62
     7
420
 16777215
176
     1
 90
        2
176
     1
 90
        2
176
     1
 62
     7
176
     1
 62
   257
176
     1
 90
        2
176
     1
 90
        1
176
     1
 40
40.0
176
     1
 90
        0
176
     1
 62
   257
176
     1
 40
1.0
176
     1
 90
        1
176
     1
 90
        6
176
     1
 90
        2
176
     1
 62
     7
176
     1
 90
        3
176
     1
 90
        0
176
     1
 90
        0
176
     1
290
     0
176
     1
 90
        1
176
     1
 40
0.0
176
     1
 90
        0
176
     1
290
     0
176
     1
290
     1
176
     1
290
     1
176
     1
290
     0
176
     1
290
     0
176
     1
290
     0
176
     1
290
     0
176
     1
290
     0
176
     1
290
     0
176
     1
 90
       50
176
     1
 40
0.0
176
     1
 40
1.0
176
     1
 90
        0
176
     1
 62
   178
420
        0
176
     1
 90
       50
176
     1
 90
        3
176
     1
 62
     5
420
      255
176
     1
290
     0
176
     1
 90
       50
176
     1
 90
       50
176
     1
 90
       50
176
     1
290
     0
176
     1
 90
       50
176
     1
 62
   256
176
     0
 40
1.0
176
     0
 90
        2
176
     1
  1
strokes_ogs.tif
176
     1
290
     0
176
     1
 40
1.0
176
     1
 40
1.0
176
     1
  0
VISUALSTYLE
  5
10035
102
{ACAD_REACTORS
330
10024
102
}
330
10024
100
AcDbVisualStyle
  2
JitterOff
 70
    20
177
     3
291
     1
 70
    58
 90
        2
176
     0
 90
        2
176
     0
 90
        0
176
     0
 90
        0
176
     0
 40
0.6
176
     0
 40
30.0
176
     0
 62
     7
420
 16777215
176
     0
 90
        1
176
     0
 90
        4
176
     0
 62
     7
176
     0
 62
   257
176
     0
 90
        1
176
     0
 90
        1
176
     0
 40
1.0
176
     0
 90
       10
176
     2
 62
     7
176
     0
 40
1.0
176
     0
 90
        1
176
     0
 90
        6
176
     0
 90
        2
176
     0
 62
     7
176
     0
 90
        5
176
     0
 90
        0
176
     0
 90
        0
176
     0
290
     0
176
     0
 90
        1
176
     0
 40
0.0
176
     0
 90
        0
176
     0
290
     0
176
     0
290
     1
176
     0
290
     1
176
     0
290
     0
176
     0
290
     0
176
     0
290
     0
176
     0
290
     0
176
     0
290
     0
176
     0
290
     0
176
     0
 90
       50
176
     0
 40
0.0
176
     0
 40
1.0
176
     0
 90
        0
176
     0
 62
   178
420
        0
176
     0
 90
       50
176
     0
 90
        3
176
     0
 62
     5
420
      255
176
     0
290
     0
176
     0
 90
       50
176
     0
 90
       50
176
     0
 90
       50
176
     0
290
     0
176
     0
 90
       50
176
     0
 62
   256
176
     0
 40
1.0
176
     0
 90
        2
176
     0
  1
strokes_ogs.tif
176
     0
290
     0
176
     0
 40
1.0
176
     0
 40
1.0
176
     0
  0
VISUALSTYLE
  5
10032
102
{ACAD_REACTORS
330
10024
102
}
330
10024
100
AcDbVisualStyle
  2
Linepattern
 70
    14
177
     3
291
     1
 70
    58
 90
        2
176
     1
 90
        2
176
     1
 90
        0
176
     1
 90
        0
176
     1
 40
0.6
176
     1
 40
30.0
176
     1
 62
     7
420
 16777215
176
     1
 90
        1
176
     1
 90
        4
176
     1
 62
     7
176
     1
 62
   257
176
     1
 90
        7
176
     1
 90
        7
176
     1
 40
1.0
176
     1
 90
        8
176
     1
 62
     7
176
     1
 40
1.0
176
     1
 90
        1
176
     1
 90
        6
176
     1
 90
        2
176
     1
 62
     7
176
     1
 90
        5
176
     1
 90
        0
176
     1
 90
        0
176
     1
290
     0
176
     1
 90
        1
176
     1
 40
0.0
176
     1
 90
        0
176
     1
290
     0
176
     1
290
     1
176
     1
290
     1
176
     1
290
     0
176
     1
290
     0
176
     1
290
     0
176
     1
290
     0
176
     1
290
     0
176
     1
290
     0
176
     1
 90
       50
176
     1
 40
0.0
176
     1
 40
1.0
176
     1
 90
        0
176
     1
 62
   178
420
        0
176
     1
 90
       50
176
     1
 90
        3
176
     1
 62
     5
420
      255
176
     1
290
     0
176
     1
 90
       50
176
     1
 90
       50
176
     1
 90
       50
176
     1
290
     0
176
     1
 90
       50
176
     1
 62
   256
176
     0
 40
1.0
176
     0
 90
        2
176
     1
  1
strokes_ogs.tif
176
     1
290
     0
176
     1
 40
1.0
176
     1
 40
1.0
176
     1
  0
VISUALSTYLE
  5
10036
102
{ACAD_REACTORS
330
10024
102
}
330
10024
100
AcDbVisualStyle
  2
OverhangOff
 70
    21
177
     3
291
     1
 70
    58
 90
        2
176
     0
 90
        2
176
     0
 90
        0
176
     0
 90
        0
176
     0
 40
0.6
176
     0
 40
30.0
176
     0
 62
     7
420
 16777215
176
     0
 90
        1
176
     0
 90
        4
176
     0
 62
     7
176
     0
 62
   257
176
     0
 90
        1
176
     0
 90
        1
176
     0
 40
1.0
176
     0
 90
        9
176
     2
 62
     7
176
     0
 40
1.0
176
     0
 90
        1
176
     0
 90
        6
176
     0
 90
        2
176
     0
 62
     7
176
     0
 90
        5
176
     0
 90
        0
176
     0
 90
        0
176
     0
290
     0
176
     0
 90
        1
176
     0
 40
0.0
176
     0
 90
        0
176
     0
290
     0
176
     0
290
     1
176
     0
290
     1
176
     0
290
     0
176
     0
290
     0
176
     0
290
     0
176
     0
290
     0
176
     0
290
     0
176
     0
290
     0
176
     0
 90
       50
176
     0
 40
0.0
176
     0
 40
1.0
176
     0
 90
        0
176
     0
 62
   178
420
        0
176
     0
 90
       50
176
     0
 90
        3
176
     0
 62
     5
420
      255
176
     0
290
     0
176
     0
 90
       50
176
     0
 90
       50
176
     0
 90
       50
176
     0
290
     0
176
     0
 90
       50
176
     0
 62
   256
176
     0
 40
1.0
176
     0
 90
        2
176
     0
  1
strokes_ogs.tif
176
     0
290
     0
176
     0
 40
1.0
176
     0
 40
1.0
176
     0
  0
VISUALSTYLE
  5
1002D
102
{ACAD_REACTORS
330
10024
102
}
330
10024
100
AcDbVisualStyle
  2
Realistic
 70
     8
177
     3
291
     0
 70
    58
 90
        2
176
     1
 90
        3
176
     1
 90
        0
176
     1
 90
        2
176
     1
 40
0.6
176
     1
 40
30.0
176
     1
 62
     7
420
 16777215
176
     1
 90
        0
176
     1
 90
        0
176
     1
 62
     7
176
     1
 62
   257
176
     1
 90
        1
176
     1
 90
        1
176
     1
 40
1.0
176
     1
 90
        8
176
     1
 62
   257
176
     1
 40
1.0
176
     1
 90
        1
176
     1
 90
        6
176
     1
 90
        2
176
     1
 62
     7
176
     1
 90
        3
176
     1
 90
        0
176
     1
 90
        0
176
     1
290
     0
176
     1
 90
       13
176
     1
 40
0.0
176
     1
 90
        0
176
     1
290
     0
176
     1
290
     1
176
     1
290
     1
176
     1
290
     0
176
     1
290
     0
176
     1
290
     0
176
     1
290
     0
176
     1
290
     0
176
     1
290
     0
176
     1
 90
       50
176
     1
 40
0.0
176
     1
 40
1.0
176
     1
 90
        0
176
     1
 62
   178
420
        0
176
     1
 90
       50
176
     1
 90
        3
176
     1
 62
     5
420
      255
176
     1
290
     0
176
     1
 90
       50
176
     1
 90
       50
176
     1
 90
       50
176
     1
290
     0
176
     1
 90
       50
176
     1
 62
   256
176
     0
 40
1.0
176
     0
 90
        2
176
     1
  1
strokes_ogs.tif
176
     1
290
     0
176
     1
 40
1.0
176
     1
 40
1.0
176
     1
  0
VISUALSTYLE
  5
1003C
102
{ACAD_REACTORS
330
10024
102
}
330
10024
100
AcDbVisualStyle
  2
Shaded
 70
    27
177
     3
291
     0
 70
    58
 90
        2
176
     1
 90
        2
176
     1
 90
        1
176
     1
 90
        2
176
     1
 40
0.6
176
     1
 40
30.0
176
     1
 62
     7
420
 16777215
176
     1
 90
        0
176
     1
 90
        4
176
     1
 62
     7
176
     1
 62
   257
176
     1
 90
        1
176
     1
 90
        1
176
     1
 40
1.0
176
     1
 90
        8
176
     1
 62
   257
176
     1
 40
1.0
176
     1
 90
        1
176
     1
 90
        6
176
     1
 90
        2
176
     1
 62
     8
420
  7895160
176
     1
 90
        3
176
     1
 90
        0
176
     1
 90
        0
176
     1
290
     0
176
     1
 90
        5
176
     1
 40
0.0
176
     1
 90
        0
176
     1
290
     0
176
     1
290
     1
176
     1
290
     1
176
     1
290
     0
176
     1
290
     0
176
     1
290
     0
176
     1
290
     0
176
     1
290
     0
176
     1
290
     0
176
     1
 90
       50
176
     1
 40
0.0
176
     1
 40
1.0
176
     1
 90
        0
176
     1
 62
   178
420
        0
176
     1
 90
       50
176
     1
 90
        3
176
     1
 62
     5
420
      255
176
     1
290
     0
176
     1
 90
       50
176
     1
 90
       50
176
     1
 90
       50
176
     1
290
     0
176
     1
 90
       50
176
     1
 62
   256
176
     0
 40
1.0
176
     0
 90
        2
176
     1
  1
strokes_ogs.tif
176
     1
290
     0
176
     1
 40
1.0
176
     1
 40
1.0
176
     1
  0
VISUALSTYLE
  5
1003B
102
{ACAD_REACTORS
330
10024
102
}
330
10024
100
AcDbVisualStyle
  2
Shaded with edges
 70
    26
177
     3
291
     0
 70
    58
 90
        2
176
     1
 90
        2
176
     1
 90
        1
176
     1
 90
        2
176
     1
 40
0.6
176
     1
 40
30.0
176
     1
 62
     7
420
 16777215
176
     1
 90
        1
176
     1
 90
       10
176
     1
 62
     7
176
     1
 62
   257
176
     1
 90
        2
176
     1
 90
        1
176
     1
 40
1.0
176
     1
 90
        8
176
     1
 62
   257
176
     1
 40
1.0
176
     1
 90
        1
176
     1
 90
        6
176
     1
 90
        2
176
     1
 62
     7
176
     1
 90
        3
176
     1
 90
        0
176
     1
 90
        0
176
     1
290
     0
176
     1
 90
        5
176
     1
 40
0.0
176
     1
 90
        0
176
     1
290
     0
176
     1
290
     1
176
     1
290
     1
176
     1
290
     0
176
     1
290
     0
176
     1
290
     0
176
     1
290
     0
176
     1
290
     0
176
     1
290
     0
176
     1
 90
       50
176
     1
 40
0.0
176
     1
 40
1.0
176
     1
 90
        0
176
     1
 62
   178
420
        0
176
     1
 90
       50
176
     1
 90
        3
176
     1
 62
     5
420
      255
176
     1
290
     0
176
     1
 90
       50
176
     1
 90
       50
176
     1
 90
       50
176
     1
290
     0
176
     1
 90
       50
176
     1
 62
   256
176
     0
 40
1.0
176
     0
 90
        2
176
     1
  1
strokes_ogs.tif
176
     1
290
     0
176
     1
 40
1.0
176
     1
 40
1.0
176
     1
  0
VISUALSTYLE
  5
10038
102
{ACAD_REACTORS
330
10024
102
}
330
10024
100
AcDbVisualStyle
  2
Shades of Gray
 70
    23
177
     3
291
     0
 70
    58
 90
        2
176
     1
 90
        2
176
     1
 90
        3
176
     1
 90
        0
176
     1
 40
0.6
176
     1
 40
30.0
176
     1
 62
     7
420
 16777215
176
     1
 90
        2
176
     1
 90
        2
176
     1
 62
     7
176
     1
 62
     7
176
     1
 90
        1
176
     1
 90
        1
176
     1
 40
40.0
176
     1
 90
        8
176
     1
 62
     7
176
     1
 40
1.0
176
     1
 90
        1
176
     1
 90
        6
176
     1
 90
        2
176
     1
 62
     7
176
     1
 90
        3
176
     1
 90
        0
176
     1
 90
        0
176
     1
290
     0
176
     1
 90
        1
176
     1
 40
0.0
176
     1
 90
        0
176
     1
290
     0
176
     1
290
     1
176
     1
290
     1
176
     1
290
     0
176
     1
290
     0
176
     1
290
     0
176
     1
290
     0
176
     1
290
     0
176
     1
290
     0
176
     1
 90
       50
176
     1
 40
0.0
176
     1
 40
1.0
176
     1
 90
        0
176
     1
 62
   178
420
        0
176
     1
 90
       50
176
     1
 90
        3
176
     1
 62
     5
420
      255
176
     1
290
     0
176
     1
 90
       50
176
     1
 90
       50
176
     1
 90
       50
176
     1
290
     0
176
     1
 90
       50
176
     1
 62
   256
176
     0
 40
1.0
176
     0
 90
        2
176
     1
  1
strokes_ogs.tif
176
     1
290
     0
176
     1
 40
1.0
176
     1
 40
1.0
176
     1
  0
VISUALSTYLE
  5
10039
102
{ACAD_REACTORS
330
10024
102
}
330
10024
100
AcDbVisualStyle
  2
Sketchy
 70
    24
177
     3
291
     0
 70
    58
 90
        1
176
     1
 90
        2
176
     1
 90
        2
176
     1
 90
        0
176
     1
 40
0.6
176
     1
 40
30.0
176
     1
 62
     7
420
 16777215
176
     1
 90
        2
176
     1
 90
        2
176
     1
 62
     7
176
     1
 62
     7
176
     1
 90
        1
176
     1
 90
        1
176
     1
 40
40.0
176
     1
 90
       11
176
     1
 62
     7
176
     1
 40
1.0
176
     1
 90
        1
176
     1
 90
        6
176
     1
 90
        2
176
     1
 62
     7
176
     1
 90
        6
176
     1
 90
        0
176
     1
 90
        0
176
     1
290
     0
176
     1
 90
        1
176
     1
 40
0.0
176
     1
 90
        0
176
     1
290
     0
176
     1
290
     1
176
     1
290
     1
176
     1
290
     0
176
     1
290
     0
176
     1
290
     0
176
     1
290
     0
176
     1
290
     0
176
     1
290
     0
176
     1
 90
       50
176
     1
 40
0.0
176
     1
 40
1.0
176
     1
 90
        0
176
     1
 62
   178
420
        0
176
     1
 90
       50
176
     1
 90
        3
176
     1
 62
     5
420
      255
176
     1
290
     0
176
     1
 90
       50
176
     1
 90
       50
176
     1
 90
       50
176
     1
290
     0
176
     1
 90
       50
176
     1
 62
   256
176
     0
 40
1.0
176
     0
 90
        2
176
     1
  1
strokes_ogs.tif
176
     1
290
     0
176
     1
 40
1.0
176
     1
 40
1.0
176
     1
  0
VISUALSTYLE
  5
10031
102
{ACAD_REACTORS
330
10024
102
}
330
10024
100
AcDbVisualStyle
  2
Thicken
 70
    13
177
     3
291
     1
 70
    58
 90
        2
176
     1
 90
        2
176
     1
 90
        0
176
     1
 90
        0
176
     1
 40
0.6
176
     1
 40
30.0
176
     1
 62
     7
420
 16777215
176
     1
 90
        1
176
     1
 90
        4
176
     1
 62
     7
176
     1
 62
   257
176
     1
 90
        1
176
     1
 90
        1
176
     1
 40
1.0
176
     1
 90
       12
176
     1
 62
     7
176
     1
 40
1.0
176
     1
 90
        1
176
     1
 90
        6
176
     1
 90
        2
176
     1
 62
     7
176
     1
 90
        5
176
     1
 90
        0
176
     1
 90
        0
176
     1
290
     0
176
     1
 90
        1
176
     1
 40
0.0
176
     1
 90
        0
176
     1
290
     0
176
     1
290
     1
176
     1
290
     1
176
     1
290
     0
176
     1
290
     0
176
     1
290
     0
176
     1
290
     0
176
     1
290
     0
176
     1
290
     0
176
     1
 90
       50
176
     1
 40
0.0
176
     1
 40
1.0
176
     1
 90
        0
176
     1
 62
   178
420
        0
176
     1
 90
       50
176
     1
 90
        3
176
     1
 62
     5
420
      255
176
     1
290
     0
176
     1
 90
       50
176
     1
 90
       50
176
     1
 90
       50
176
     1
290
     0
176
     1
 90
       50
176
     1
 62
   256
176
     0
 40
1.0
176
     0
 90
        2
176
     1
  1
strokes_ogs.tif
176
     1
290
     0
176
     1
 40
1.0
176
     1
 40
1.0
176
     1
  0
VISUALSTYLE
  5
1002A
102
{ACAD_REACTORS
330
10024
102
}
330
10024
100
AcDbVisualStyle
  2
Wireframe
 70
     5
177
     3
291
     0
 70
    58
 90
        0
176
     1
 90
        2
176
     1
 90
        0
176
     1
 90
        0
176
     1
 40
0.6
176
     1
 40
30.0
176
     1
 62
     7
420
 16777215
176
     1
 90
        1
176
     1
 90
        4
176
     1
 62
     7
176
     1
 62
   257
176
     1
 90
        1
176
     1
 90
        1
176
     1
 40
1.0
176
     1
 90
        0
176
     1
 62
   257
176
     1
 40
1.0
176
     1
 90
        1
176
     1
 90
        6
176
     1
 90
        2
176
     1
 62
     7
176
     1
 90
        3
176
     1
 90
        0
176
     1
 90
        0
176
     1
290
     0
176
     1
 90
        1
176
     1
 40
0.0
176
     1
 90
        0
176
     1
290
     0
176
     1
290
     1
176
     1
290
     1
176
     1
290
     0
176
     1
290
     0
176
     1
290
     0
176
     1
290
     0
176
     1
290
     0
176
     1
290
     0
176
     1
 90
       50
176
     1
 40
0.0
176
     1
 40
1.0
176
     1
 90
        0
176
     1
 62
   178
420
        0
176
     1
 90
       50
176
     1
 90
        3
176
     1
 62
     5
420
      255
176
     1
290
     0
176
     1
 90
       50
176
     1
 90
       50
176
     1
 90
       50
176
     1
290
     0
176
     1
 90
       50
176
     1
 62
   256
176
     0
 40
1.0
176
     0
 90
        2
176
     1
  1
strokes_ogs.tif
176
     1
290
     0
176
     1
 40
1.0
176
     1
 40
1.0
176
     1
  0
VISUALSTYLE
  5
1003A
102
{ACAD_REACTORS
330
10024
102
}
330
10024
100
AcDbVisualStyle
  2
X-Ray
 70
    25
177
     3
291
     0
 70
    58
 90
        2
176
     1
 90
        2
176
     1
 90
        1
176
     1
 90
        1
176
     1
 40
0.5
176
     1
 40
30.0
176
     1
 62
     7
420
 16777215
176
     1
 90
        1
176
     1
 90
        0
176
     1
 62
     7
176
     1
 62
   257
176
     1
 90
        1
176
     1
 90
        1
176
     1
 40
1.0
176
     1
 90
        8
176
     1
 62
     7
176
     1
 40
1.0
176
     1
 90
        1
176
     1
 90
        6
176
     1
 90
        2
176
     1
 62
     7
176
     1
 90
        3
176
     1
 90
        0
176
     1
 90
        0
176
     1
290
     0
176
     1
 90
       13
176
     1
 40
0.0
176
     1
 90
        0
176
     1
290
     0
176
     1
290
     1
176
     1
290
     1
176
     1
290
     0
176
     1
290
     0
176
     1
290
     0
176
     1
290
     0
176
     1
290
     0
176
     1
290
     0
176
     1
 90
       50
176
     1
 40
0.0
176
     1
 40
1.0
176
     1
 90
        0
176
     1
 62
   178
420
        0
176
     1
 90
       50
176
     1
 90
        3
176
     1
 62
     5
420
      255
176
     1
290
     0
176
     1
 90
       50
176
     1
 90
       50
176
     1
 90
       50
176
     1
290
     0
176
     1
 90
       50
176
     1
 62
   256
176
     0
 40
1.0
176
     0
 90
        2
176
     1
  1
strokes_ogs.tif
176
     1
290
     0
176
     1
 40
1.0
176
     1
 40
1.0
176
     1
  0
DICTIONARYVAR
  5
10076
102
{ACAD_REACTORS
330
10075
102
}
330
10075
100
DictionaryVariables
280
     0
  1
1:1
  0
DICTIONARYVAR
  5
10078
102
{ACAD_REACTORS
330
10075
102
}
330
10075
100
DictionaryVariables
280
     0
  1
Standard
  0
DICTIONARYVAR
  5
10077
102
{ACAD_REACTORS
330
10075
102
}
330
10075
100
DictionaryVariables
280
     0
  1
Standard
  0
DICTIONARYVAR
  5
10079
102
{ACAD_REACTORS
330
10075
102
}
330
10075
100
DictionaryVariables
280
     0
  1
0
  0
DICTIONARY
  5
100F2
330
10042
100
AcDbDictionary
280
     1
281
     1
  3
ACAD_ROUNDTRIP_2008_TABLESTYLE_CELLSTYLEMAP
360
100F3
  0
CELLSTYLEMAP
  5
100F3
102
{ACAD_REACTORS
330
100F2
102
}
330
100F2
100
AcDbCellStyleMap
 90
        3
300
CELLSTYLE
  1
TABLEFORMAT_BEGIN
 90
        5
170
     1
 91
        0
 92
    32768
 62
   257
 93
        1
300
CONTENTFORMAT
  1
CONTENTFORMAT_BEGIN
 90
        0
 91
        0
 92
        4
 93
        0
300

 40
0.0
140
1.0
 94
        5
 62
     0
340
11
144
6.0
309
CONTENTFORMAT_END
171
     1
301
MARGIN
  1
CELLMARGIN_BEGIN
 40
1.5
 40
1.5
 40
1.5
 40
1.5
 40
1.5
 40
1.5
309
CELLMARGIN_END
 94
        6
 95
        1
302
GRIDFORMAT
  1
GRIDFORMAT_BEGIN
 90
        0
 91
        1
 62
     0
 92
       -2
340
14
 93
        0
 40
0.045
309
GRIDFORMAT_END
 95
        2
302
GRIDFORMAT
  1
GRIDFORMAT_BEGIN
 90
        0
 91
        1
 62
     0
 92
       -2
340
14
 93
        0
 40
0.045
309
GRIDFORMAT_END
 95
        4
302
GRIDFORMAT
  1
GRIDFORMAT_BEGIN
 90
        0
 91
        1
 62
     0
 92
       -2
340
14
 93
        0
 40
0.045
309
GRIDFORMAT_END
 95
        8
302
GRIDFORMAT
  1
GRIDFORMAT_BEGIN
 90
        0
 91
        1
 62
     0
 92
       -2
340
14
 93
        0
 40
0.045
309
GRIDFORMAT_END
 95
       16
302
GRIDFORMAT
  1
GRIDFORMAT_BEGIN
 90
        0
 91
        1
 62
     0
 92
       -2
340
14
 93
        0
 40
0.045
309
GRIDFORMAT_END
 95
       32
302
GRIDFORMAT
  1
GRIDFORMAT_BEGIN
 90
        0
 91
        1
 62
     0
 92
       -2
340
14
 93
        0
 40
0.045
309
GRIDFORMAT_END
309
TABLEFORMAT_END
  1
CELLSTYLE_BEGIN
 90
        1
 91
        1
300
_TITLE
309
CELLSTYLE_END
300
CELLSTYLE
  1
TABLEFORMAT_BEGIN
 90
        5
170
     1
 91
        0
 92
        0
 62
   257
 93
        1
300
CONTENTFORMAT
  1
CONTENTFORMAT_BEGIN
 90
        0
 91
        0
 92
        4
 93
        0
300

 40
0.0
140
1.0
 94
        5
 62
     0
340
11
144
4.5
309
CONTENTFORMAT_END
171
     1
301
MARGIN
  1
CELLMARGIN_BEGIN
 40
1.5
 40
1.5
 40
1.5
 40
1.5
 40
1.5
 40
1.5
309
CELLMARGIN_END
 94
        6
 95
        1
302
GRIDFORMAT
  1
GRIDFORMAT_BEGIN
 90
        0
 91
        1
 62
     0
 92
       -2
340
14
 93
        0
 40
0.045
309
GRIDFORMAT_END
 95
        2
302
GRIDFORMAT
  1
GRIDFORMAT_BEGIN
 90
        0
 91
        1
 62
     0
 92
       -2
340
14
 93
        0
 40
0.045
309
GRIDFORMAT_END
 95
        4
302
GRIDFORMAT
  1
GRIDFORMAT_BEGIN
 90
        0
 91
        1
 62
     0
 92
       -2
340
14
 93
        0
 40
0.045
309
GRIDFORMAT_END
 95
        8
302
GRIDFORMAT
  1
GRIDFORMAT_BEGIN
 90
        0
 91
        1
 62
     0
 92
       -2
340
14
 93
        0
 40
0.045
309
GRIDFORMAT_END
 95
       16
302
GRIDFORMAT
  1
GRIDFORMAT_BEGIN
 90
        0
 91
        1
 62
     0
 92
       -2
340
14
 93
        0
 40
0.045
309
GRIDFORMAT_END
 95
       32
302
GRIDFORMAT
  1
GRIDFORMAT_BEGIN
 90
        0
 91
        1
 62
     0
 92
       -2
340
14
 93
        0
 40
0.045
309
GRIDFORMAT_END
309
TABLEFORMAT_END
  1
CELLSTYLE_BEGIN
 90
        2
 91
        1
300
_HEADER
309
CELLSTYLE_END
300
CELLSTYLE
  1
TABLEFORMAT_BEGIN
 90
        5
170
     1
 91
        0
 92
        0
 62
   257
 93
        1
300
CONTENTFORMAT
  1
CONTENTFORMAT_BEGIN
 90
        0
 91
        0
 92
        4
 93
        0
300

 40
0.0
140
1.0
 94
        2
 62
     0
340
11
144
4.5
309
CONTENTFORMAT_END
171
     1
301
MARGIN
  1
CELLMARGIN_BEGIN
 40
1.5
 40
1.5
 40
1.5
 40
1.5
 40
1.5
 40
1.5
309
CELLMARGIN_END
 94
        6
 95
        1
302
GRIDFORMAT
  1
GRIDFORMAT_BEGIN
 90
        0
 91
        1
 62
     0
 92
       -2
340
14
 93
        0
 40
0.045
309
GRIDFORMAT_END
 95
        2
302
GRIDFORMAT
  1
GRIDFORMAT_BEGIN
 90
        0
 91
        1
 62
     0
 92
       -2
340
14
 93
        0
 40
0.045
309
GRIDFORMAT_END
 95
        4
302
GRIDFORMAT
  1
GRIDFORMAT_BEGIN
 90
        0
 91
        1
 62
     0
 92
       -2
340
14
 93
        0
 40
0.045
309
GRIDFORMAT_END
 95
        8
302
GRIDFORMAT
  1
GRIDFORMAT_BEGIN
 90
        0
 91
        1
 62
     0
 92
       -2
340
14
 93
        0
 40
0.045
309
GRIDFORMAT_END
 95
       16
302
GRIDFORMAT
  1
GRIDFORMAT_BEGIN
 90
        0
 91
        1
 62
     0
 92
       -2
340
14
 93
        0
 40
0.045
309
GRIDFORMAT_END
 95
       32
302
GRIDFORMAT
  1
GRIDFORMAT_BEGIN
 90
        0
 91
        1
 62
     0
 92
       -2
340
14
 93
        0
 40
0.045
309
GRIDFORMAT_END
309
TABLEFORMAT_END
  1
CELLSTYLE_BEGIN
 90
        3
 91
        2
300
_DATA
309
CELLSTYLE_END
  0
ENDSEC
  0
EOF
