  0
SECTION
  2
HEADER
  9
$ACADVER
  1
AC1027
  9
$ACADMAINTVER
 70
     8
  9
$DWGCODEPAGE
  3
ANSI_1252
  9
$REQUIREDVERSIONS
160
                 0
  9
$INSBASE
 10
0.0
 20
0.0
 30
0.0
  9
$EXTMIN
 10
-3.801917102967025
 20
-3.559071924567021
 30
0.0
  9
$EXTMAX
 10
197.5238672624175
 20
552.5396374023562
 30
0.0
  9
$LIMMIN
 10
0.0
 20
0.0
  9
$LIMMAX
 10
12.0
 20
9.0
  9
$ORTHOMODE
 70
     0
  9
$REGENMODE
 70
     1
  9
$FILLMODE
 70
     1
  9
$QTEXTMODE
 70
     0
  9
$MIRRTEXT
 70
     0
  9
$LTSCALE
 40
1.0
  9
$ATTMODE
 70
     1
  9
$TEXTSIZE
 40
0.2
  9
$TRACEWID
 40
0.05
  9
$TEXTSTYLE
  7
Standard
  9
$CLAYER
  8
0
  9
$CELTYPE
  6
ByLayer
  9
$CECOLOR
 62
   256
  9
$CELTSCALE
 40
1.0
  9
$DISPSILH
 70
     0
  9
$DIMSCALE
 40
1.0
  9
$DIMASZ
 40
0.18
  9
$DIMEXO
 40
0.0625
  9
$DIMDLI
 40
0.38
  9
$DIMRND
 40
0.0
  9
$DIMDLE
 40
0.0
  9
$DIMEXE
 40
0.18
  9
$DIMTP
 40
0.0
  9
$DIMTM
 40
0.0
  9
$DIMTXT
 40
0.18
  9
$DIMCEN
 40
0.09
  9
$DIMTSZ
 40
0.0
  9
$DIMTOL
 70
     0
  9
$DIMLIM
 70
     0
  9
$DIMTIH
 70
     1
  9
$DIMTOH
 70
     1
  9
$DIMSE1
 70
     0
  9
$DIMSE2
 70
     0
  9
$DIMTAD
 70
     0
  9
$DIMZIN
 70
     0
  9
$DIMBLK
  1

  9
$DIMASO
 70
     1
  9
$DIMSHO
 70
     1
  9
$DIMPOST
  1

  9
$DIMAPOST
  1

  9
$DIMALT
 70
     0
  9
$DIMALTD
 70
     2
  9
$DIMALTF
 40
25.4
  9
$DIMLFAC
 40
1.0
  9
$DIMTOFL
 70
     0
  9
$DIMTVP
 40
0.0
  9
$DIMTIX
 70
     0
  9
$DIMSOXD
 70
     0
  9
$DIMSAH
 70
     0
  9
$DIMBLK1
  1

  9
$DIMBLK2
  1

  9
$DIMSTYLE
  2
Standard
  9
$DIMCLRD
 70
     0
  9
$DIMCLRE
 70
     0
  9
$DIMCLRT
 70
     0
  9
$DIMTFAC
 40
1.0
  9
$DIMGAP
 40
0.09
  9
$DIMJUST
 70
     0
  9
$DIMSD1
 70
     0
  9
$DIMSD2
 70
     0
  9
$DIMTOLJ
 70
     1
  9
$DIMTZIN
 70
     0
  9
$DIMALTZ
 70
     0
  9
$DIMALTTZ
 70
     0
  9
$DIMUPT
 70
     0
  9
$DIMDEC
 70
     4
  9
$DIMTDEC
 70
     4
  9
$DIMALTU
 70
     2
  9
$DIMALTTD
 70
     2
  9
$DIMTXSTY
  7
Standard
  9
$DIMAUNIT
 70
     0
  9
$DIMADEC
 70
     0
  9
$DIMALTRND
 40
0.0
  9
$DIMAZIN
 70
     0
  9
$DIMDSEP
 70
    46
  9
$DIMATFIT
 70
     3
  9
$DIMFRAC
 70
     0
  9
$DIMLDRBLK
  1

  9
$DIMLUNIT
 70
     2
  9
$DIMLWD
 70
    -2
  9
$DIMLWE
 70
    -2
  9
$DIMTMOVE
 70
     0
  9
$DIMFXL
 40
1.0
  9
$DIMFXLON
 70
     0
  9
$DIMJOGANG
 40
0.7853981633974483
  9
$DIMTFILL
 70
     0
  9
$DIMTFILLCLR
 70
     0
  9
$DIMARCSYM
 70
     0
  9
$DIMLTYPE
  6

  9
$DIMLTEX1
  6

  9
$DIMLTEX2
  6

  9
$DIMTXTDIRECTION
 70
     0
  9
$LUNITS
 70
     2
  9
$LUPREC
 70
     4
  9
$SKETCHINC
 40
0.1
  9
$FILLETRAD
 40
0.0
  9
$AUNITS
 70
     0
  9
$AUPREC
 70
     0
  9
$MENU
  1
.
  9
$ELEVATION
 40
0.0
  9
$PELEVATION
 40
0.0
  9
$THICKNESS
 40
0.0
  9
$LIMCHECK
 70
     0
  9
$CHAMFERA
 40
0.0
  9
$CHAMFERB
 40
0.0
  9
$CHAMFERC
 40
0.0
  9
$CHAMFERD
 40
0.0
  9
$SKPOLY
 70
     0
  9
$TDCREATE
 40
2452642.855050937
  9
$TDUCREATE
 40
2452643.063384271
  9
$TDUPDATE
 40
2457551.678784722
  9
$TDUUPDATE
 40
2457551.887118055
  9
$TDINDWG
 40
0.0
  9
$TDUSRTIMER
 40
2457551.880405093
  9
$USRTIMER
 70
     1
  9
$ANGBASE
 50
0.0
  9
$ANGDIR
 70
     0
  9
$PDMODE
 70
     0
  9
$PDSIZE
 40
0.0
  9
$PLINEWID
 40
0.0
  9
$SPLFRAME
 70
     0
  9
$SPLINETYPE
 70
     6
  9
$SPLINESEGS
 70
     8
  9
$HANDSEED
  5
103E
  9
$SURFTAB1
 70
     6
  9
$SURFTAB2
 70
     6
  9
$SURFTYPE
 70
     6
  9
$SURFU
 70
     6
  9
$SURFV
 70
     6
  9
$UCSBASE
  2

  9
$UCSNAME
  2

  9
$UCSORG
 10
0.0
 20
0.0
 30
0.0
  9
$UCSXDIR
 10
1.0
 20
0.0
 30
0.0
  9
$UCSYDIR
 10
0.0
 20
1.0
 30
0.0
  9
$UCSORTHOREF
  2

  9
$UCSORTHOVIEW
 70
     0
  9
$UCSORGTOP
 10
0.0
 20
0.0
 30
0.0
  9
$UCSORGBOTTOM
 10
0.0
 20
0.0
 30
0.0
  9
$UCSORGLEFT
 10
0.0
 20
0.0
 30
0.0
  9
$UCSORGRIGHT
 10
0.0
 20
0.0
 30
0.0
  9
$UCSORGFRONT
 10
0.0
 20
0.0
 30
0.0
  9
$UCSORGBACK
 10
0.0
 20
0.0
 30
0.0
  9
$PUCSBASE
  2

  9
$PUCSNAME
  2

  9
$PUCSORG
 10
0.0
 20
0.0
 30
0.0
  9
$PUCSXDIR
 10
1.0
 20
0.0
 30
0.0
  9
$PUCSYDIR
 10
0.0
 20
1.0
 30
0.0
  9
$PUCSORTHOREF
  2

  9
$PUCSORTHOVIEW
 70
     0
  9
$PUCSORGTOP
 10
0.0
 20
0.0
 30
0.0
  9
$PUCSORGBOTTOM
 10
0.0
 20
0.0
 30
0.0
  9
$PUCSORGLEFT
 10
0.0
 20
0.0
 30
0.0
  9
$PUCSORGRIGHT
 10
0.0
 20
0.0
 30
0.0
  9
$PUCSORGFRONT
 10
0.0
 20
0.0
 30
0.0
  9
$PUCSORGBACK
 10
0.0
 20
0.0
 30
0.0
  9
$USERI1
 70
     0
  9
$USERI2
 70
     0
  9
$USERI3
 70
     0
  9
$USERI4
 70
     0
  9
$USERI5
 70
     0
  9
$USERR1
 40
0.0
  9
$USERR2
 40
0.0
  9
$USERR3
 40
0.0
  9
$USERR4
 40
0.0
  9
$USERR5
 40
0.0
  9
$WORLDVIEW
 70
     1
  9
$SHADEDGE
 70
     3
  9
$SHADEDIF
 70
    70
  9
$TILEMODE
 70
     1
  9
$MAXACTVP
 70
    64
  9
$PINSBASE
 10
0.0
 20
0.0
 30
0.0
  9
$PLIMCHECK
 70
     0
  9
$PEXTMIN
 10
0.0
 20
0.0
 30
0.0
  9
$PEXTMAX
 10
0.0
 20
0.0
 30
0.0
  9
$PLIMMIN
 10
0.0
 20
0.0
  9
$PLIMMAX
 10
0.0
 20
0.0
  9
$UNITMODE
 70
     0
  9
$VISRETAIN
 70
     1
  9
$PLINEGEN
 70
     0
  9
$PSLTSCALE
 70
     1
  9
$TREEDEPTH
 70
  3020
  9
$CMLSTYLE
  2
Standard
  9
$CMLJUST
 70
     0
  9
$CMLSCALE
 40
1.0
  9
$PROXYGRAPHICS
 70
     1
  9
$MEASUREMENT
 70
     0
  9
$CELWEIGHT
370
    -1
  9
$ENDCAPS
280
     0
  9
$JOINSTYLE
280
     0
  9
$LWDISPLAY
290
     0
  9
$INSUNITS
 70
     1
  9
$HYPERLINKBASE
  1

  9
$STYLESHEET
  1

  9
$XEDIT
290
     1
  9
$CEPSNTYPE
380
     0
  9
$PSTYLEMODE
290
     1
  9
$FINGERPRINTGUID
  2
{FDEAD576-A652-11D2-9A35-0060089B3A3F}
  9
$VERSIONGUID
  2
{FBC2AE19-5C5C-49EC-81BC-71B1A3362A02}
  9
$EXTNAMES
290
     1
  9
$PSVPSCALE
 40
0.0
  9
$OLESTARTUP
290
     0
  9
$SORTENTS
280
   127
  9
$INDEXCTL
280
     0
  9
$HIDETEXT
280
     1
  9
$XCLIPFRAME
280
     0
  9
$HALOGAP
280
     0
  9
$OBSCOLOR
 70
   257
  9
$OBSLTYPE
280
     0
  9
$INTERSECTIONDISPLAY
280
     0
  9
$INTERSECTIONCOLOR
 70
   257
  9
$DIMASSOC
280
     2
  9
$PROJECTNAME
  1

  9
$CAMERADISPLAY
290
     0
  9
$LENSLENGTH
 40
50.0
  9
$CAMERAHEIGHT
 40
0.0
  9
$STEPSPERSEC
 40
2.0
  9
$STEPSIZE
 40
6.0
  9
$3DDWFPREC
 40
2.0
  9
$PSOLWIDTH
 40
0.25
  9
$PSOLHEIGHT
 40
4.0
  9
$LOFTANG1
 40
1.570796326794897
  9
$LOFTANG2
 40
1.570796326794897
  9
$LOFTMAG1
 40
0.0
  9
$LOFTMAG2
 40
0.0
  9
$LOFTPARAM
 70
     7
  9
$LOFTNORMALS
280
     1
  9
$LATITUDE
 40
37.795
  9
$LONGITUDE
 40
-122.394
  9
$NORTHDIRECTION
 40
0.0
  9
$TIMEZONE
 70
 -8000
  9
$LIGHTGLYPHDISPLAY
280
     1
  9
$TILEMODELIGHTSYNCH
280
     1
  9
$CMATERIAL
347
96
  9
$SOLIDHIST
280
     1
  9
$SHOWHIST
280
     1
  9
$DWFFRAME
280
     2
  9
$DGNFRAME
280
     0
  9
$REALWORLDSCALE
290
     1
  9
$INTERFERECOLOR
 62
     1
  9
$CSHADOW
280
     0
  9
$SHADOWPLANELOCATION
 40
0.0
  0
ENDSEC
  0
SECTION
  2
CLASSES
  0
CLASS
  1
ACDBDICTIONARYWDFLT
  2
AcDbDictionaryWithDefault
  3
ObjectDBX Classes
 90
        0
 91
        5
280
     0
281
     0
  0
CLASS
  1
ACDBPLACEHOLDER
  2
AcDbPlaceHolder
  3
ObjectDBX Classes
 90
        0
 91
        1
280
     0
281
     0
  0
CLASS
  1
LAYOUT
  2
AcDbLayout
  3
ObjectDBX Classes
 90
        0
 91
        1
280
     0
281
     0
  0
CLASS
  1
DICTIONARYVAR
  2
AcDbDictionaryVar
  3
ObjectDBX Classes
 90
        0
 91
        5
280
     0
281
     0
  0
CLASS
  1
TABLESTYLE
  2
AcDbTableStyle
  3
ObjectDBX Classes
 90
     4095
 91
        5
280
     0
281
     0
  0
CLASS
  1
MATERIAL
  2
AcDbMaterial
  3
ObjectDBX Classes
 90
     1153
 91
        5
280
     0
281
     0
  0
CLASS
  1
VISUALSTYLE
  2
AcDbVisualStyle
  3
ObjectDBX Classes
 90
     4095
 91
        5
280
     0
281
     0
  0
CLASS
  1
SCALE
  2
AcDbScale
  3
ObjectDBX Classes
 90
     1153
 91
        5
280
     0
281
     0
  0
CLASS
  1
CELLSTYLEMAP
  2
AcDbCellStyleMap
  3
ObjectDBX Classes
 90
     1152
 91
        5
280
     0
281
     0
  0
CLASS
  1
RASTERVARIABLES
  2
AcDbRasterVariables
  3
ISM
 90
        0
 91
        5
280
     0
281
     0
  0
CLASS
  1
SUN
  2
AcDbSun
  3
SCENEOE
 90
     1153
 91
        5
280
     0
281
     0
  0
CLASS
  1
MLEADERSTYLE
  2
AcDbMLeaderStyle
  3
ACDB_MLEADERSTYLE_CLASS
 90
     4095
 91
        5
280
     0
281
     0
  0
ENDSEC
  0
SECTION
  2
TABLES
  0
TABLE
  2
VPORT
  5
8
330
0
100
AcDbSymbolTable
 70
     1
  0
VPORT
  5
94
330
8
100
AcDbSymbolTableRecord
100
AcDbViewportTableRecord
  2
*Active
 70
     0
 10
0.0
 20
0.0
 11
1.0
 21
1.0
 12
210.9176362956197
 22
60.72659792430645
 13
0.0
 23
0.0
 14
0.5
 24
0.5
 15
0.5
 25
0.5
 16
0.0
 26
0.0
 36
1.0
 17
-27.66959356597988
 27
-19.53870295786203
 37
0.0
 40
312.8012135026175
 41
2.112980769230769
 42
50.0
 43
0.0
 44
0.0
 50
0.0
 51
0.0
 71
    16
 72
  1000
 73
     1
 74
     3
 75
     0
 76
     0
 77
     0
 78
     0
281
     0
 65
     1
110
0.0
120
0.0
130
0.0
111
1.0
121
0.0
131
0.0
112
0.0
122
1.0
132
0.0
 79
     0
146
0.0
348
9F
 60
     2
 61
     5
292
     1
282
     1
141
0.0
142
0.0
 63
   250
421
  3355443
361
ED
  0
ENDTAB
  0
TABLE
  2
LTYPE
  5
5
330
0
100
AcDbSymbolTable
 70
     1
  0
LTYPE
  5
14
330
5
100
AcDbSymbolTableRecord
100
AcDbLinetypeTableRecord
  2
ByBlock
 70
     0
  3

 72
    65
 73
     0
 40
0.0
  0
LTYPE
  5
15
330
5
100
AcDbSymbolTableRecord
100
AcDbLinetypeTableRecord
  2
ByLayer
 70
     0
  3

 72
    65
 73
     0
 40
0.0
  0
LTYPE
  5
16
330
5
100
AcDbSymbolTableRecord
100
AcDbLinetypeTableRecord
  2
Continuous
 70
     0
  3
Solid line
 72
    65
 73
     0
 40
0.0
  0
ENDTAB
  0
TABLE
  2
LAYER
  5
2
102
{ACAD_XDICTIONARY
360
191
102
}
330
0
100
AcDbSymbolTable
 70
     3
  0
LAYER
  5
10
330
2
100
AcDbSymbolTableRecord
100
AcDbLayerTableRecord
  2
0
 70
     0
 62
     7
  6
Continuous
370
    -3
390
F
347
98
348
0
  0
LAYER
  5
12A
330
2
100
AcDbSymbolTableRecord
100
AcDbLayerTableRecord
  2
1mm
 70
     0
 62
    10
  6
Continuous
370
    -3
390
F
347
98
348
0
1001
AcAecLayerStandard
1000

1000

  0
LAYER
  5
12D
330
2
100
AcDbSymbolTableRecord
100
AcDbLayerTableRecord
  2
5mm
 70
     0
 62
     5
  6
Continuous
370
    -3
390
F
347
98
348
0
1001
AcAecLayerStandard
1000

1000

  0
ENDTAB
  0
TABLE
  2
STYLE
  5
3
330
0
100
AcDbSymbolTable
 70
     2
  0
STYLE
  5
11
330
3
100
AcDbSymbolTableRecord
100
AcDbTextStyleTableRecord
  2
Standard
 70
     0
 40
0.0
 41
1.0
 50
0.0
 71
     0
 42
0.2
  3
arial.ttf
  4

1001
ACAD
1000
Arial
1071
        0
  0
STYLE
  5
125
330
3
100
AcDbSymbolTableRecord
100
AcDbTextStyleTableRecord
  2
Annotative
 70
     0
 40
0.0
 41
1.0
 50
0.0
 71
     0
 42
0.2
  3
arial.ttf
  4

1001
ACAD
1000
Arial
1071
        0
1001
AcadAnnotative
1000
AnnotativeData
1002
{
1070
     1
1070
     1
1002
}
  0
ENDTAB
  0
TABLE
  2
VIEW
  5
6
330
0
100
AcDbSymbolTable
 70
     0
  0
ENDTAB
  0
TABLE
  2
UCS
  5
7
330
0
100
AcDbSymbolTable
 70
     0
  0
ENDTAB
  0
TABLE
  2
APPID
  5
9
330
0
100
AcDbSymbolTable
 70
     3
  0
APPID
  5
12
330
9
100
AcDbSymbolTableRecord
100
AcDbRegAppTableRecord
  2
ACAD
 70
     0
  0
APPID
  5
126
330
9
100
AcDbSymbolTableRecord
100
AcDbRegAppTableRecord
  2
AcadAnnotative
 70
     0
  0
APPID
  5
12C
330
9
100
AcDbSymbolTableRecord
100
AcDbRegAppTableRecord
  2
AcAecLayerStandard
 70
     0
  0
ENDTAB
  0
TABLE
  2
DIMSTYLE
  5
A
330
0
100
AcDbSymbolTable
 70
     3
100
AcDbDimStyleTable
  0
DIMSTYLE
105
27
330
A
100
AcDbSymbolTableRecord
100
AcDbDimStyleTableRecord
  2
Standard
 70
     0
178
     0
340
11
  0
DIMSTYLE
105
127
330
A
100
AcDbSymbolTableRecord
100
AcDbDimStyleTableRecord
  2
Annotative
 70
     0
 40
0.0
178
     0
340
11
1001
AcadAnnotative
1000
AnnotativeData
1002
{
1070
     1
1070
     1
1002
}
  0
DIMSTYLE
105
12E
330
A
100
AcDbSymbolTableRecord
100
AcDbDimStyleTableRecord
  2
ISO-25
 70
     0
 41
2.5
 42
0.625
 43
3.75
 44
1.25
 73
     0
 74
     0
 77
     1
 78
     8
140
2.5
141
2.5
143
0.03937007874016
147
0.625
171
     3
172
     1
178
     0
271
     2
272
     2
274
     3
283
     0
284
     8
340
11
  0
ENDTAB
  0
TABLE
  2
BLOCK_RECORD
  5
1
330
0
100
AcDbSymbolTable
 70
     1
  0
BLOCK_RECORD
  5
1F
330
1
100
AcDbSymbolTableRecord
100
AcDbBlockTableRecord
  2
*Model_Space
340
22
 70
     0
280
     1
281
     0
  0
BLOCK_RECORD
  5
58
330
1
100
AcDbSymbolTableRecord
100
AcDbBlockTableRecord
  2
*Paper_Space
340
59
 70
     0
280
     1
281
     0
  0
BLOCK_RECORD
  5
5D
330
1
100
AcDbSymbolTableRecord
100
AcDbBlockTableRecord
  2
*Paper_Space0
340
5E
 70
     0
280
     1
281
     0
  0
ENDTAB
  0
ENDSEC
  0
SECTION
  2
BLOCKS
  0
BLOCK
  5
20
330
1F
100
AcDbEntity
  8
0
100
AcDbBlockBegin
  2
*Model_Space
 70
     0
 10
0.0
 20
0.0
 30
0.0
  3
*Model_Space
  1
*Model_Space
  0
ENDBLK
  5
21
330
1F
100
AcDbEntity
  8
0
100
AcDbBlockEnd
  0
BLOCK
  5
5A
330
58
100
AcDbEntity
 67
     1
  8
0
100
AcDbBlockBegin
  2
*Paper_Space
 70
     0
 10
0.0
 20
0.0
 30
0.0
  3
*Paper_Space
  1
*Paper_Space
  0
ENDBLK
  5
5B
330
58
100
AcDbEntity
 67
     1
  8
0
100
AcDbBlockEnd
  0
BLOCK
  5
5F
330
5D
100
AcDbEntity
  8
0
100
AcDbBlockBegin
  2
*Paper_Space0
 70
     0
 10
0.0
 20
0.0
 30
0.0
  3
*Paper_Space0
  1
*Paper_Space0
  0
ENDBLK
  5
60
330
5D
100
AcDbEntity
  8
0
100
AcDbBlockEnd
  0
ENDSEC
  0
SECTION
  2
ENTITIES
  0
LINE
  5
196
330
1F
100
AcDbEntity
  8
1mm
  6
ByBlock
100
AcDbLine
 10
40.17641333971522
 20
5.267108161087145
 30
0.0
 11
40.17641333971522
 21
10.92076743012806
 31
0.0
  0
LINE
  5
197
330
1F
100
AcDbEntity
  8
1mm
  6
ByBlock
100
AcDbLine
 10
40.17641333971522
 20
10.92076743012806
 30
0.0
 11
43.81389294741803
 21
5.282412636862878
 31
0.0
  0
LINE
  5
198
330
1F
100
AcDbEntity
  8
1mm
  6
ByBlock
100
AcDbLine
 10
43.81389294741803
 20
5.282412636862878
 30
0.0
 11
47.45749101935671
 21
10.92656981482742
 31
0.0
  0
LINE
  5
199
330
1F
100
AcDbEntity
  8
1mm
  6
ByBlock
100
AcDbLine
 10
47.45749101935671
 20
10.92656981482742
 30
0.0
 11
47.45749101935671
 21
5.258513734844263
 31
0.0
  0
LINE
  5
19A
330
1F
100
AcDbEntity
  8
1mm
  6
ByBlock
100
AcDbLine
 10
53.85253067092221
 20
5.26884616465037
 30
0.0
 11
57.40132999476713
 21
10.92664622952313
 31
0.0
  0
LINE
  5
19B
330
1F
100
AcDbEntity
  8
1mm
  6
ByBlock
100
AcDbLine
 10
57.40132999476713
 20
10.92664622952313
 30
0.0
 11
60.86901390549561
 21
5.26884616465037
 31
0.0
  0
LINE
  5
19C
330
1F
100
AcDbEntity
  8
1mm
  6
ByBlock
100
AcDbLine
 10
60.86901390549561
 20
5.26884616465037
 30
0.0
 11
59.63200385546967
 21
7.317010345840868
 31
0.0
  0
LINE
  5
19D
330
1F
100
AcDbEntity
  8
1mm
  6
ByBlock
100
AcDbLine
 10
59.63200385546967
 20
7.317010345840868
 30
0.0
 11
55.1503772807855
 21
7.31701034584087
 31
0.0
  0
LINE
  5
19E
330
1F
100
AcDbEntity
  8
1mm
  6
ByBlock
100
AcDbLine
 10
75.12349979345902
 20
10.92751531146612
 30
0.0
 11
68.01571163036199
 21
10.92751531146612
 31
0.0
  0
LINE
  5
19F
330
1F
100
AcDbEntity
  8
1mm
  6
ByBlock
100
AcDbLine
 10
68.01571163036199
 20
10.92751531146612
 30
0.0
 11
68.01571163036199
 21
5.262047710774255
 31
0.0
  0
LINE
  5
1A0
330
1F
100
AcDbEntity
  8
1mm
  6
ByBlock
100
AcDbLine
 10
68.01571163036199
 20
5.262047710774255
 30
0.0
 11
75.08612951705918
 21
5.262047710774255
 31
0.0
  0
LINE
  5
1A1
330
1F
100
AcDbEntity
  8
1mm
  6
ByBlock
100
AcDbLine
 10
75.08612951705918
 20
5.262047710774255
 30
0.0
 11
75.08612951705918
 21
8.126654748064503
 31
0.0
  0
LINE
  5
1A2
330
1F
100
AcDbEntity
  8
1mm
  6
ByBlock
100
AcDbLine
 10
75.08612951705918
 20
8.126654748064503
 30
0.0
 11
71.59492213652693
 21
8.126654748064505
 31
0.0
  0
LINE
  5
1A3
330
1F
100
AcDbEntity
  8
1mm
  6
ByBlock
100
AcDbLine
 10
89.80936306318222
 20
10.9351378932609
 30
0.0
 11
82.78781011528902
 21
10.93513789326091
 31
0.0
  0
LINE
  5
1A4
330
1F
100
AcDbEntity
  8
1mm
  6
ByBlock
100
AcDbLine
 10
82.78781011528902
 20
10.93513789326091
 30
0.0
 11
82.78781011528902
 21
8.146795567382746
 31
0.0
  0
LINE
  5
1A5
330
1F
100
AcDbEntity
  8
1mm
  6
ByBlock
100
AcDbLine
 10
82.78781011528902
 20
8.146795567382746
 30
0.0
 11
89.75866592998443
 21
8.146795567382746
 31
0.0
  0
LINE
  5
1A6
330
1F
100
AcDbEntity
  8
1mm
  6
ByBlock
100
AcDbLine
 10
89.75866592998443
 20
8.146795567382746
 30
0.0
 11
89.75866592998443
 21
5.25705897510902
 31
0.0
  0
LINE
  5
1A7
330
1F
100
AcDbEntity
  8
1mm
  6
ByBlock
100
AcDbLine
 10
89.75866592998443
 20
5.25705897510902
 30
0.0
 11
82.81315868188793
 21
5.257058975109021
 31
0.0
  0
LINE
  5
1A8
330
1F
100
AcDbEntity
  8
1mm
  6
ByBlock
100
AcDbLine
 10
96.06818160282825
 20
10.96137762040429
 30
0.0
 11
103.2164773837159
 21
10.96137762040429
 31
0.0
  0
LINE
  5
1A9
330
1F
100
AcDbEntity
  8
1mm
  6
ByBlock
100
AcDbLine
 10
103.2164773837159
 20
10.96137762040429
 30
0.0
 11
99.69302662646986
 21
10.96137762040429
 31
0.0
  0
LINE
  5
1AA
330
1F
100
AcDbEntity
  8
1mm
  6
ByBlock
100
AcDbLine
 10
99.69302662646986
 20
10.96137762040429
 30
0.0
 11
99.69302662646986
 21
5.257357612909264
 31
0.0
  0
LINE
  5
1AB
330
1F
100
AcDbEntity
  8
1mm
  6
ByBlock
100
AcDbLine
 10
110.2044965052302
 20
10.99178444417393
 30
0.0
 11
117.2195326408336
 21
10.99178444417393
 31
0.0
  0
LINE
  5
1AC
330
1F
100
AcDbEntity
  8
1mm
  6
ByBlock
100
AcDbLine
 10
117.2195326408336
 20
10.99178444417393
 30
0.0
 11
117.2195326408336
 21
5.400633669642425
 31
0.0
  0
LINE
  5
1AD
330
1F
100
AcDbEntity
  8
1mm
  6
ByBlock
100
AcDbLine
 10
117.2195326408336
 20
5.400633669642425
 30
0.0
 11
110.0894878278972
 21
5.400633669642426
 31
0.0
  0
LINE
  5
1AE
330
1F
100
AcDbEntity
  8
1mm
  6
ByBlock
100
AcDbLine
 10
110.0894878278972
 20
5.400633669642426
 30
0.0
 11
110.0894878278972
 21
10.96515100943127
 31
0.0
  0
LINE
  5
1AF
330
1F
100
AcDbEntity
  8
1mm
  6
ByBlock
100
AcDbLine
 10
132.0636960663252
 20
11.07008701296161
 30
0.0
 11
125.1878973763756
 21
11.07008701296161
 31
0.0
  0
LINE
  5
1B0
330
1F
100
AcDbEntity
  8
1mm
  6
ByBlock
100
AcDbLine
 10
125.1878973763756
 20
11.07008701296161
 30
0.0
 11
125.1878973763756
 21
5.398345236459454
 31
0.0
  0
LINE
  5
1B1
330
1F
100
AcDbEntity
  8
1mm
  6
ByBlock
100
AcDbLine
 10
125.1878973763756
 20
5.398345236459454
 30
0.0
 11
132.1270674828224
 21
5.398345236459454
 31
0.0
  0
LINE
  5
1B2
330
1F
100
AcDbEntity
  8
1mm
  6
ByBlock
100
AcDbLine
 10
138.7927255654887
 20
11.13741914298992
 30
0.0
 11
138.7927255654887
 21
5.408643091640251
 31
0.0
  0
LINE
  5
1B3
330
1F
100
AcDbEntity
  8
1mm
  6
ByBlock
100
AcDbLine
 10
138.7927255654887
 20
5.408643091640251
 30
0.0
 11
138.7927255654887
 21
7.8928026183317
 31
0.0
  0
LINE
  5
1B4
330
1F
100
AcDbEntity
  8
1mm
  6
ByBlock
100
AcDbLine
 10
138.7927255654887
 20
7.8928026183317
 30
0.0
 11
144.4201073504428
 21
11.28951054258327
 31
0.0
  0
LINE
  5
1B5
330
1F
100
AcDbEntity
  8
1mm
  6
ByBlock
100
AcDbLine
 10
144.4201073504428
 20
11.28951054258327
 30
0.0
 11
138.7861389939437
 21
7.8928026183317
 31
0.0
  0
LINE
  5
1B6
330
1F
100
AcDbEntity
  8
1mm
  6
ByBlock
100
AcDbLine
 10
138.7861389939437
 20
7.8928026183317
 30
0.0
 11
144.3996358480576
 21
7.8928026183317
 31
0.0
  0
LINE
  5
1B7
330
1F
100
AcDbEntity
  8
1mm
  6
ByBlock
100
AcDbLine
 10
144.3996358480576
 20
7.8928026183317
 30
0.0
 11
144.3996358480576
 21
5.456718929566045
 31
0.0
  0
LINE
  5
1B8
330
1F
100
AcDbEntity
  8
1mm
  6
ByBlock
100
AcDbLine
 10
35.93271695550528
 20
15.22341997247804
 30
0.0
 11
38.87948782262652
 21
15.22341997247804
 31
0.0
  0
LINE
  5
1B9
330
1F
100
AcDbEntity
  8
1mm
  6
ByBlock
100
AcDbLine
 10
38.87948782262652
 20
15.22341997247804
 30
0.0
 11
48.09327759937682
 21
36.63968723939669
 31
0.0
  0
LINE
  5
1BA
330
1F
100
AcDbEntity
  8
1mm
  6
ByBlock
100
AcDbLine
 10
48.09327759937682
 20
36.63968723939669
 30
0.0
 11
58.73600572228047
 21
15.19673693319507
 31
0.0
  0
LINE
  5
1BB
330
1F
100
AcDbEntity
  8
1mm
  6
ByBlock
100
AcDbLine
 10
58.73600572228047
 20
15.19673693319507
 30
0.0
 11
79.41966568861363
 21
15.19673693319507
 31
0.0
  0
LINE
  5
1BC
330
1F
100
AcDbEntity
  8
1mm
  6
ByBlock
100
AcDbLine
 10
79.41966568861363
 20
15.19673693319507
 30
0.0
 11
88.54611219001092
 21
36.59932321868326
 31
0.0
  0
LINE
  5
1BD
330
1F
100
AcDbEntity
  8
1mm
  6
ByBlock
100
AcDbLine
 10
88.54611219001092
 20
36.59932321868326
 30
0.0
 11
99.56516253883848
 21
15.23118794818872
 31
0.0
  0
LINE
  5
1BE
330
1F
100
AcDbEntity
  8
1mm
  6
ByBlock
100
AcDbLine
 10
99.56516253883848
 20
15.23118794818872
 30
0.0
 11
120.0384582299844
 21
15.23118794818872
 31
0.0
  0
LINE
  5
1BF
330
1F
100
AcDbEntity
  8
1mm
  6
ByBlock
100
AcDbLine
 10
120.0384582299844
 20
15.23118794818872
 30
0.0
 11
129.1331411281826
 21
36.7689133522008
 31
0.0
  0
LINE
  5
1C0
330
1F
100
AcDbEntity
  8
1mm
  6
ByBlock
100
AcDbLine
 10
129.1331411281826
 20
36.7689133522008
 30
0.0
 11
139.943699458716
 21
15.23816710046416
 31
0.0
  0
LINE
  5
1C1
330
1F
100
AcDbEntity
  8
1mm
  6
ByBlock
100
AcDbLine
 10
139.943699458716
 20
15.23816710046416
 30
0.0
 11
149.188254802273
 21
15.23816710046416
 31
0.0
  0
LINE
  5
1C2
330
1F
100
AcDbEntity
  8
1mm
  6
ByBlock
100
AcDbLine
 10
149.188254802273
 20
15.23816710046416
 30
0.0
 11
149.188254802273
 21
20.96118783666109
 31
0.0
  0
LINE
  5
1C3
330
1F
100
AcDbEntity
  8
1mm
  6
ByBlock
100
AcDbLine
 10
149.188254802273
 20
20.96118783666109
 30
0.0
 11
149.7427546966237
 21
20.96118783666109
 31
0.0
  0
LWPOLYLINE
  5
1C4
330
1F
100
AcDbEntity
  8
1mm
  6
ByBlock
100
AcDbPolyline
 90
        4
 70
     1
 43
0.0
 10
152.3603067230114
 20
25.6305751305934
 10
152.3603067230114
 20
17.07543390346724
 10
156.4002345247099
 20
17.07543390346724
 10
156.4002345247099
 20
25.6305751305934
  0
LINE
  5
1C5
330
1F
100
AcDbEntity
  8
1mm
  6
ByBlock
100
AcDbLine
 10
159.115254109993
 20
16.59664995024571
 30
0.0
 11
159.115254109993
 21
25.95383566741496
 31
0.0
  0
LINE
  5
1C6
330
1F
100
AcDbEntity
  8
1mm
  6
ByBlock
100
AcDbLine
 10
159.115254109993
 20
25.95383566741496
 30
0.0
 11
169.2795130502909
 21
36.12050381615096
 31
0.0
  0
LINE
  5
1C7
330
1F
100
AcDbEntity
  8
1mm
  6
ByBlock
100
AcDbLine
 10
169.2795130502909
 20
36.12050381615096
 30
0.0
 11
169.2795130502909
 21
6.476999803154025
 31
0.0
  0
LINE
  5
1C8
330
1F
100
AcDbEntity
  8
1mm
  6
ByBlock
100
AcDbLine
 10
169.2795130502909
 20
6.476999803154025
 30
0.0
 11
159.115254109993
 21
16.59664995024571
 31
0.0
  0
LWPOLYLINE
  5
1C9
330
1F
100
AcDbEntity
  8
1mm
  6
ByBlock
100
AcDbPolyline
 90
        4
 70
     1
 43
0.0
 10
8.721020842621833
 20
40.0782611428931
 10
8.721020842621833
 20
27.24653948058662
 10
28.97809019731477
 20
27.24653948058662
 10
28.97809019731477
 20
40.0782611428931
  0
ELLIPSE
  5
1CA
330
1F
100
AcDbEntity
  8
1mm
  6
ByBlock
100
AcDbEllipse
 10
169.4249363392562
 20
21.65518135995967
 30
0.0
 11
0.0
 21
-8.702739692307691
 31
0.0
210
0.0
220
0.0
230
1.0
 40
0.7557499999999971
 41
0.6318702898594788
 42
2.544879825426747
  0
ELLIPSE
  5
1CB
330
1F
100
AcDbEntity
  8
1mm
  6
ByBlock
100
AcDbEllipse
 10
168.6803686100254
 20
21.70062900057505
 30
0.0
 11
0.0
 21
-14.23381425230772
 31
0.0
210
0.0
220
0.0
230
1.0
 40
0.9293478260869537
 41
7.062055714832576
 42
8.647307254614091
  0
ELLIPSE
  5
1CC
330
1F
100
AcDbEntity
  8
1mm
  6
ByBlock
100
AcDbEllipse
 10
168.6706505507023
 20
21.36361540599045
 30
0.0
 11
2.141683294364152E-15
 21
20.60458232123077
 31
0.0
210
0.0
220
0.0
230
1.0
 40
0.9448537533935695
 41
3.902530234276453
 42
5.530492045545554
  0
CIRCLE
  5
1CD
330
1F
100
AcDbEntity
  8
1mm
  6
ByBlock
100
AcDbCircle
 10
21.81965920531776
 20
15.92192145768275
 30
0.0
 40
0.4950891913846142
  0
CIRCLE
  5
1CE
330
1F
100
AcDbEntity
  8
1mm
  6
ByBlock
100
AcDbCircle
 10
26.95620956593314
 20
19.65491774871571
 30
0.0
 40
0.6188614892307682
  0
CIRCLE
  5
1CF
330
1F
100
AcDbEntity
  8
1mm
  6
ByBlock
100
AcDbCircle
 10
29.86485856531776
 20
15.2411738195289
 30
0.0
 40
0.6188614892307723
  0
CIRCLE
  5
1D0
330
1F
100
AcDbEntity
  8
1mm
  6
ByBlock
100
AcDbCircle
 10
24.65042521817868
 20
12.24930955442039
 30
0.0
 40
0.6004059193950221
  0
LINE
  5
1D1
330
1F
100
AcDbEntity
  8
1mm
  6
ByBlock
100
AcDbLine
 10
7.946677069669973
 20
15.17313169121943
 30
0.0
 11
12.94707790265459
 21
15.17313169121943
 31
0.0
  0
LINE
  5
1D2
330
1F
100
AcDbEntity
  8
1mm
  6
ByBlock
100
AcDbLine
 10
12.94707790265459
 20
15.17313169121943
 30
0.0
 11
10.32310518831612
 21
15.17313169121943
 31
0.0
  0
LINE
  5
1D3
330
1F
100
AcDbEntity
  8
1mm
  6
ByBlock
100
AcDbLine
 10
10.32310518831612
 20
15.17313169121943
 30
0.0
 11
10.32310518831612
 21
17.50005089072712
 31
0.0
  0
LINE
  5
1D4
330
1F
100
AcDbEntity
  8
1mm
  6
ByBlock
100
AcDbLine
 10
10.32310518831612
 20
17.50005089072712
 30
0.0
 11
10.32310518831612
 21
12.99473924912712
 31
0.0
  0
LWPOLYLINE
  5
1D5
330
1F
100
AcDbEntity
  8
1mm
  6
ByBlock
100
AcDbPolyline
 90
        4
 70
     1
 43
0.0
 10
32.92075438132223
 20
5.166078176661926
 10
32.92075438132223
 20
43.60499667704839
 10
4.647000499186856
 20
43.60499667704839
 10
4.647000499186856
 20
5.166078176661926
  0
LWPOLYLINE
  5
1D6
330
1F
100
AcDbEntity
  8
1mm
  6
ByBlock
100
AcDbPolyline
 90
        4
 70
     1
 43
0.0
 10
1.373082897032983
 20
46.8757990081253
 10
1.373082897032983
 20
1.615928075432984
 10
192.3488672624175
 20
1.615928075432984
 10
192.3488672624175
 20
46.8757990081253
  0
CIRCLE
  5
1D7
330
1F
100
AcDbEntity
  8
5mm
  6
ByBlock
100
AcDbCircle
 10
18.89144246241759
 20
33.80888819850993
 30
0.0
 40
0.9799793282241858
  0
LWPOLYLINE
  5
1E1
330
1F
100
AcDbEntity
  8
5mm
  6
ByBlock
100
AcDbPolyline
 90
        4
 70
     1
 43
0.0
 10
-3.80191710296701
 20
52.0507990081253
 10
-3.80191710296701
 20
-3.559071924567018
 10
197.5238672624175
 20
-3.559071924567018
 10
197.5238672624175
 20
52.0507990081253
  0
LWPOLYLINE
  5
1E2
330
1F
100
AcDbEntity
  8
1mm
  6
ByBlock
100
AcDbPolyline
 90
        4
 70
     1
 43
0.0
 10
1.373082897032987
 20
46.8757990081253
 10
1.373082897032987
 20
1.615928075432997
 10
192.3488672624175
 20
1.615928075432983
 10
192.3488672624175
 20
46.8757990081253
  0
LINE
  5
1E3
330
1F
100
AcDbEntity
  8
1mm
  6
ByBlock
100
AcDbLine
 10
40.1764133397152
 20
60.87697909377946
 30
0.0
 11
40.1764133397152
 21
66.53063836282038
 31
0.0
  0
LINE
  5
1E4
330
1F
100
AcDbEntity
  8
1mm
  6
ByBlock
100
AcDbLine
 10
40.1764133397152
 20
66.53063836282038
 30
0.0
 11
43.81389294741802
 21
60.8922835695552
 31
0.0
  0
LINE
  5
1E5
330
1F
100
AcDbEntity
  8
1mm
  6
ByBlock
100
AcDbLine
 10
43.81389294741802
 20
60.8922835695552
 30
0.0
 11
47.4574910193567
 21
66.53644074751973
 31
0.0
  0
LINE
  5
1E6
330
1F
100
AcDbEntity
  8
1mm
  6
ByBlock
100
AcDbLine
 10
47.4574910193567
 20
66.53644074751973
 30
0.0
 11
47.4574910193567
 21
60.86838466753658
 31
0.0
  0
LINE
  5
1E7
330
1F
100
AcDbEntity
  8
1mm
  6
ByBlock
100
AcDbLine
 10
53.85253067092219
 20
60.87871709734269
 30
0.0
 11
57.40132999476712
 21
66.53651716221545
 31
0.0
  0
LINE
  5
1E8
330
1F
100
AcDbEntity
  8
1mm
  6
ByBlock
100
AcDbLine
 10
57.40132999476712
 20
66.53651716221545
 30
0.0
 11
60.8690139054956
 21
60.87871709734269
 31
0.0
  0
LINE
  5
1E9
330
1F
100
AcDbEntity
  8
1mm
  6
ByBlock
100
AcDbLine
 10
60.8690139054956
 20
60.87871709734269
 30
0.0
 11
59.63200385546966
 21
62.92688127853319
 31
0.0
  0
LINE
  5
1EA
330
1F
100
AcDbEntity
  8
1mm
  6
ByBlock
100
AcDbLine
 10
59.63200385546966
 20
62.92688127853319
 30
0.0
 11
55.15037728078548
 21
62.92688127853319
 31
0.0
  0
LINE
  5
1EB
330
1F
100
AcDbEntity
  8
1mm
  6
ByBlock
100
AcDbLine
 10
75.123499793459
 20
66.53738624415844
 30
0.0
 11
68.01571163036198
 21
66.53738624415844
 31
0.0
  0
LINE
  5
1EC
330
1F
100
AcDbEntity
  8
1mm
  6
ByBlock
100
AcDbLine
 10
68.01571163036198
 20
66.53738624415844
 30
0.0
 11
68.01571163036198
 21
60.87191864346657
 31
0.0
  0
LINE
  5
1ED
330
1F
100
AcDbEntity
  8
1mm
  6
ByBlock
100
AcDbLine
 10
68.01571163036198
 20
60.87191864346657
 30
0.0
 11
75.08612951705916
 21
60.87191864346657
 31
0.0
  0
LINE
  5
1EE
330
1F
100
AcDbEntity
  8
1mm
  6
ByBlock
100
AcDbLine
 10
75.08612951705916
 20
60.87191864346657
 30
0.0
 11
75.08612951705916
 21
63.73652568075682
 31
0.0
  0
LINE
  5
1EF
330
1F
100
AcDbEntity
  8
1mm
  6
ByBlock
100
AcDbLine
 10
75.08612951705916
 20
63.73652568075682
 30
0.0
 11
71.59492213652692
 21
63.73652568075682
 31
0.0
  0
LINE
  5
1F0
330
1F
100
AcDbEntity
  8
1mm
  6
ByBlock
100
AcDbLine
 10
89.8093630631822
 20
66.54500882595322
 30
0.0
 11
82.787810115289
 21
66.54500882595323
 31
0.0
  0
LINE
  5
1F1
330
1F
100
AcDbEntity
  8
1mm
  6
ByBlock
100
AcDbLine
 10
82.787810115289
 20
66.54500882595323
 30
0.0
 11
82.787810115289
 21
63.75666650007506
 31
0.0
  0
LINE
  5
1F2
330
1F
100
AcDbEntity
  8
1mm
  6
ByBlock
100
AcDbLine
 10
82.787810115289
 20
63.75666650007506
 30
0.0
 11
89.75866592998442
 21
63.75666650007506
 31
0.0
  0
LINE
  5
1F3
330
1F
100
AcDbEntity
  8
1mm
  6
ByBlock
100
AcDbLine
 10
89.75866592998442
 20
63.75666650007506
 30
0.0
 11
89.75866592998442
 21
60.86692990780134
 31
0.0
  0
LINE
  5
1F4
330
1F
100
AcDbEntity
  8
1mm
  6
ByBlock
100
AcDbLine
 10
89.75866592998442
 20
60.86692990780134
 30
0.0
 11
82.81315868188791
 21
60.86692990780134
 31
0.0
  0
LINE
  5
1F5
330
1F
100
AcDbEntity
  8
1mm
  6
ByBlock
100
AcDbLine
 10
96.06818160282823
 20
66.57124855309661
 30
0.0
 11
103.2164773837159
 21
66.57124855309661
 31
0.0
  0
LINE
  5
1F6
330
1F
100
AcDbEntity
  8
1mm
  6
ByBlock
100
AcDbLine
 10
103.2164773837159
 20
66.57124855309661
 30
0.0
 11
99.69302662646984
 21
66.57124855309661
 31
0.0
  0
LINE
  5
1F7
330
1F
100
AcDbEntity
  8
1mm
  6
ByBlock
100
AcDbLine
 10
99.69302662646984
 20
66.57124855309661
 30
0.0
 11
99.69302662646984
 21
60.86722854560158
 31
0.0
  0
LINE
  5
1F8
330
1F
100
AcDbEntity
  8
1mm
  6
ByBlock
100
AcDbLine
 10
110.2044965052302
 20
66.60165537686625
 30
0.0
 11
117.2195326408336
 21
66.60165537686625
 31
0.0
  0
LINE
  5
1F9
330
1F
100
AcDbEntity
  8
1mm
  6
ByBlock
100
AcDbLine
 10
117.2195326408336
 20
66.60165537686625
 30
0.0
 11
117.2195326408336
 21
61.01050460233474
 31
0.0
  0
LINE
  5
1FA
330
1F
100
AcDbEntity
  8
1mm
  6
ByBlock
100
AcDbLine
 10
117.2195326408336
 20
61.01050460233474
 30
0.0
 11
110.0894878278972
 21
61.01050460233474
 31
0.0
  0
LINE
  5
1FB
330
1F
100
AcDbEntity
  8
1mm
  6
ByBlock
100
AcDbLine
 10
110.0894878278972
 20
61.01050460233474
 30
0.0
 11
110.0894878278972
 21
66.57502194212358
 31
0.0
  0
LINE
  5
1FC
330
1F
100
AcDbEntity
  8
1mm
  6
ByBlock
100
AcDbLine
 10
132.0636960663252
 20
66.67995794565392
 30
0.0
 11
125.1878973763756
 21
66.67995794565392
 31
0.0
  0
LINE
  5
1FD
330
1F
100
AcDbEntity
  8
1mm
  6
ByBlock
100
AcDbLine
 10
125.1878973763756
 20
66.67995794565392
 30
0.0
 11
125.1878973763756
 21
61.00821616915177
 31
0.0
  0
LINE
  5
1FE
330
1F
100
AcDbEntity
  8
1mm
  6
ByBlock
100
AcDbLine
 10
125.1878973763756
 20
61.00821616915177
 30
0.0
 11
132.1270674828224
 21
61.00821616915177
 31
0.0
  0
LINE
  5
1FF
330
1F
100
AcDbEntity
  8
1mm
  6
ByBlock
100
AcDbLine
 10
138.7927255654887
 20
66.74729007568223
 30
0.0
 11
138.7927255654887
 21
61.01851402433257
 31
0.0
  0
LINE
  5
200
330
1F
100
AcDbEntity
  8
1mm
  6
ByBlock
100
AcDbLine
 10
138.7927255654887
 20
61.01851402433257
 30
0.0
 11
138.7927255654887
 21
63.50267355102402
 31
0.0
  0
LINE
  5
201
330
1F
100
AcDbEntity
  8
1mm
  6
ByBlock
100
AcDbLine
 10
138.7927255654887
 20
63.50267355102402
 30
0.0
 11
144.4201073504428
 21
66.89938147527559
 31
0.0
  0
LINE
  5
202
330
1F
100
AcDbEntity
  8
1mm
  6
ByBlock
100
AcDbLine
 10
144.4201073504428
 20
66.89938147527559
 30
0.0
 11
138.7861389939437
 21
63.50267355102402
 31
0.0
  0
LINE
  5
203
330
1F
100
AcDbEntity
  8
1mm
  6
ByBlock
100
AcDbLine
 10
138.7861389939437
 20
63.50267355102402
 30
0.0
 11
144.3996358480576
 21
63.50267355102402
 31
0.0
  0
LINE
  5
204
330
1F
100
AcDbEntity
  8
1mm
  6
ByBlock
100
AcDbLine
 10
144.3996358480576
 20
63.50267355102402
 30
0.0
 11
144.3996358480576
 21
61.06658986225836
 31
0.0
  0
LINE
  5
205
330
1F
100
AcDbEntity
  8
1mm
  6
ByBlock
100
AcDbLine
 10
35.93271695550526
 20
70.83329090517036
 30
0.0
 11
38.87948782262651
 21
70.83329090517036
 31
0.0
  0
LINE
  5
206
330
1F
100
AcDbEntity
  8
1mm
  6
ByBlock
100
AcDbLine
 10
38.87948782262651
 20
70.83329090517036
 30
0.0
 11
48.0932775993768
 21
92.24955817208901
 31
0.0
  0
LINE
  5
207
330
1F
100
AcDbEntity
  8
1mm
  6
ByBlock
100
AcDbLine
 10
48.0932775993768
 20
92.24955817208901
 30
0.0
 11
58.73600572228045
 21
70.80660786588739
 31
0.0
  0
LINE
  5
208
330
1F
100
AcDbEntity
  8
1mm
  6
ByBlock
100
AcDbLine
 10
58.73600572228045
 20
70.80660786588739
 30
0.0
 11
79.41966568861362
 21
70.80660786588739
 31
0.0
  0
LINE
  5
209
330
1F
100
AcDbEntity
  8
1mm
  6
ByBlock
100
AcDbLine
 10
79.41966568861362
 20
70.80660786588739
 30
0.0
 11
88.5461121900109
 21
92.20919415137558
 31
0.0
  0
LINE
  5
20A
330
1F
100
AcDbEntity
  8
1mm
  6
ByBlock
100
AcDbLine
 10
88.5461121900109
 20
92.20919415137558
 30
0.0
 11
99.56516253883846
 21
70.84105888088104
 31
0.0
  0
LINE
  5
20B
330
1F
100
AcDbEntity
  8
1mm
  6
ByBlock
100
AcDbLine
 10
99.56516253883846
 20
70.84105888088104
 30
0.0
 11
120.0384582299844
 21
70.84105888088104
 31
0.0
  0
LINE
  5
20C
330
1F
100
AcDbEntity
  8
1mm
  6
ByBlock
100
AcDbLine
 10
120.0384582299844
 20
70.84105888088104
 30
0.0
 11
129.1331411281826
 21
92.37878428489311
 31
0.0
  0
LINE
  5
20D
330
1F
100
AcDbEntity
  8
1mm
  6
ByBlock
100
AcDbLine
 10
129.1331411281826
 20
92.37878428489311
 30
0.0
 11
139.943699458716
 21
70.84803803315648
 31
0.0
  0
LINE
  5
20E
330
1F
100
AcDbEntity
  8
1mm
  6
ByBlock
100
AcDbLine
 10
139.943699458716
 20
70.84803803315648
 30
0.0
 11
149.188254802273
 21
70.84803803315648
 31
0.0
  0
LINE
  5
20F
330
1F
100
AcDbEntity
  8
1mm
  6
ByBlock
100
AcDbLine
 10
149.188254802273
 20
70.84803803315648
 30
0.0
 11
149.188254802273
 21
76.57105876935341
 31
0.0
  0
LINE
  5
210
330
1F
100
AcDbEntity
  8
1mm
  6
ByBlock
100
AcDbLine
 10
149.188254802273
 20
76.57105876935341
 30
0.0
 11
149.7427546966237
 21
76.57105876935341
 31
0.0
  0
LWPOLYLINE
  5
211
330
1F
100
AcDbEntity
  8
1mm
  6
ByBlock
100
AcDbPolyline
 90
        4
 70
     1
 43
0.0
 10
152.3603067230114
 20
81.24044606328572
 10
152.3603067230114
 20
72.68530483615956
 10
156.4002345247099
 20
72.68530483615956
 10
156.4002345247099
 20
81.24044606328572
  0
LINE
  5
212
330
1F
100
AcDbEntity
  8
1mm
  6
ByBlock
100
AcDbLine
 10
159.115254109993
 20
72.20652088293802
 30
0.0
 11
159.115254109993
 21
81.56370660010728
 31
0.0
  0
LINE
  5
213
330
1F
100
AcDbEntity
  8
1mm
  6
ByBlock
100
AcDbLine
 10
159.115254109993
 20
81.56370660010728
 30
0.0
 11
169.2795130502909
 21
91.73037474884327
 31
0.0
  0
LINE
  5
214
330
1F
100
AcDbEntity
  8
1mm
  6
ByBlock
100
AcDbLine
 10
169.2795130502909
 20
91.73037474884327
 30
0.0
 11
169.2795130502909
 21
62.08687073584634
 31
0.0
  0
LINE
  5
215
330
1F
100
AcDbEntity
  8
1mm
  6
ByBlock
100
AcDbLine
 10
169.2795130502909
 20
62.08687073584634
 30
0.0
 11
159.115254109993
 21
72.20652088293802
 31
0.0
  0
LWPOLYLINE
  5
216
330
1F
100
AcDbEntity
  8
1mm
  6
ByBlock
100
AcDbPolyline
 90
        4
 70
     1
 43
0.0
 10
8.721020842621819
 20
95.68813207558541
 10
8.721020842621819
 20
82.85641041327894
 10
28.97809019731476
 20
82.85641041327894
 10
28.97809019731476
 20
95.68813207558541
  0
ELLIPSE
  5
217
330
1F
100
AcDbEntity
  8
1mm
  6
ByBlock
100
AcDbEllipse
 10
169.4249363392562
 20
77.26505229265199
 30
0.0
 11
0.0
 21
-8.702739692307691
 31
0.0
210
0.0
220
0.0
230
1.0
 40
0.7557499999999971
 41
0.6318702898594788
 42
2.544879825426747
  0
ELLIPSE
  5
218
330
1F
100
AcDbEntity
  8
1mm
  6
ByBlock
100
AcDbEllipse
 10
168.6803686100254
 20
77.31049993326737
 30
0.0
 11
0.0
 21
-14.23381425230772
 31
0.0
210
0.0
220
0.0
230
1.0
 40
0.9293478260869537
 41
7.062055714832576
 42
8.647307254614091
  0
ELLIPSE
  5
219
330
1F
100
AcDbEntity
  8
1mm
  6
ByBlock
100
AcDbEllipse
 10
168.6706505507023
 20
76.97348633868276
 30
0.0
 11
2.141683294364152E-15
 21
20.60458232123077
 31
0.0
210
0.0
220
0.0
230
1.0
 40
0.9448537533935695
 41
3.902530234276453
 42
5.530492045545554
  0
CIRCLE
  5
21A
330
1F
100
AcDbEntity
  8
1mm
  6
ByBlock
100
AcDbCircle
 10
21.81965920531774
 20
71.53179239037507
 30
0.0
 40
0.4950891913846142
  0
CIRCLE
  5
21B
330
1F
100
AcDbEntity
  8
1mm
  6
ByBlock
100
AcDbCircle
 10
26.95620956593313
 20
75.26478868140804
 30
0.0
 40
0.6188614892307682
  0
CIRCLE
  5
21C
330
1F
100
AcDbEntity
  8
1mm
  6
ByBlock
100
AcDbCircle
 10
29.86485856531775
 20
70.85104475222121
 30
0.0
 40
0.6188614892307723
  0
CIRCLE
  5
21D
330
1F
100
AcDbEntity
  8
1mm
  6
ByBlock
100
AcDbCircle
 10
24.65042521817866
 20
67.8591804871127
 30
0.0
 40
0.6004059193950221
  0
LINE
  5
21E
330
1F
100
AcDbEntity
  8
1mm
  6
ByBlock
100
AcDbLine
 10
7.946677069669959
 20
70.78300262391174
 30
0.0
 11
12.94707790265458
 21
70.78300262391174
 31
0.0
  0
LINE
  5
21F
330
1F
100
AcDbEntity
  8
1mm
  6
ByBlock
100
AcDbLine
 10
12.94707790265458
 20
70.78300262391174
 30
0.0
 11
10.32310518831611
 21
70.78300262391174
 31
0.0
  0
LINE
  5
220
330
1F
100
AcDbEntity
  8
1mm
  6
ByBlock
100
AcDbLine
 10
10.32310518831611
 20
70.78300262391174
 30
0.0
 11
10.32310518831611
 21
73.10992182341944
 31
0.0
  0
LINE
  5
221
330
1F
100
AcDbEntity
  8
1mm
  6
ByBlock
100
AcDbLine
 10
10.32310518831611
 20
73.10992182341944
 30
0.0
 11
10.32310518831611
 21
68.60461018181944
 31
0.0
  0
LWPOLYLINE
  5
222
330
1F
100
AcDbEntity
  8
1mm
  6
ByBlock
100
AcDbPolyline
 90
        4
 70
     1
 43
0.0
 10
32.92075438132222
 20
60.77594910935424
 10
32.92075438132222
 20
99.21486760974071
 10
4.647000499186841
 20
99.21486760974071
 10
4.647000499186841
 20
60.77594910935424
  0
LWPOLYLINE
  5
223
330
1F
100
AcDbEntity
  8
1mm
  6
ByBlock
100
AcDbPolyline
 90
        4
 70
     1
 43
0.0
 10
1.373082897032969
 20
102.4856699408176
 10
1.373082897032969
 20
57.2257990081253
 10
192.3488672624175
 20
57.2257990081253
 10
192.3488672624175
 20
102.4856699408176
  0
CIRCLE
  5
224
330
1F
100
AcDbEntity
  8
5mm
  6
ByBlock
100
AcDbCircle
 10
18.89144246241758
 20
89.41875913120225
 30
0.0
 40
0.9799793282241858
  0
LWPOLYLINE
  5
225
330
1F
100
AcDbEntity
  8
5mm
  6
ByBlock
100
AcDbPolyline
 90
        4
 70
     1
 43
0.0
 10
-3.801917102967025
 20
107.6606699408176
 10
-3.801917102967025
 20
52.0507990081253
 10
197.5238672624175
 20
52.0507990081253
 10
197.5238672624175
 20
107.6606699408176
  0
LWPOLYLINE
  5
226
330
1F
100
AcDbEntity
  8
1mm
  6
ByBlock
100
AcDbPolyline
 90
        4
 70
     1
 43
0.0
 10
1.373082897032972
 20
102.4856699408176
 10
1.373082897032972
 20
57.22579900812531
 10
192.3488672624175
 20
57.2257990081253
 10
192.3488672624175
 20
102.4856699408176
  0
LINE
  5
227
330
1F
100
AcDbEntity
  8
1mm
  6
ByBlock
100
AcDbLine
 10
40.1764133397152
 20
60.87697909377946
 30
0.0
 11
40.1764133397152
 21
66.53063836282038
 31
0.0
  0
LINE
  5
228
330
1F
100
AcDbEntity
  8
1mm
  6
ByBlock
100
AcDbLine
 10
40.1764133397152
 20
66.53063836282038
 30
0.0
 11
43.81389294741802
 21
60.8922835695552
 31
0.0
  0
LINE
  5
229
330
1F
100
AcDbEntity
  8
1mm
  6
ByBlock
100
AcDbLine
 10
43.81389294741802
 20
60.8922835695552
 30
0.0
 11
47.4574910193567
 21
66.53644074751973
 31
0.0
  0
LINE
  5
22A
330
1F
100
AcDbEntity
  8
1mm
  6
ByBlock
100
AcDbLine
 10
47.4574910193567
 20
66.53644074751973
 30
0.0
 11
47.4574910193567
 21
60.86838466753658
 31
0.0
  0
LINE
  5
22B
330
1F
100
AcDbEntity
  8
1mm
  6
ByBlock
100
AcDbLine
 10
53.85253067092219
 20
60.87871709734269
 30
0.0
 11
57.40132999476712
 21
66.53651716221545
 31
0.0
  0
LINE
  5
22C
330
1F
100
AcDbEntity
  8
1mm
  6
ByBlock
100
AcDbLine
 10
57.40132999476712
 20
66.53651716221545
 30
0.0
 11
60.8690139054956
 21
60.87871709734269
 31
0.0
  0
LINE
  5
22D
330
1F
100
AcDbEntity
  8
1mm
  6
ByBlock
100
AcDbLine
 10
60.8690139054956
 20
60.87871709734269
 30
0.0
 11
59.63200385546966
 21
62.92688127853319
 31
0.0
  0
LINE
  5
22E
330
1F
100
AcDbEntity
  8
1mm
  6
ByBlock
100
AcDbLine
 10
59.63200385546966
 20
62.92688127853319
 30
0.0
 11
55.15037728078548
 21
62.92688127853319
 31
0.0
  0
LINE
  5
22F
330
1F
100
AcDbEntity
  8
1mm
  6
ByBlock
100
AcDbLine
 10
75.123499793459
 20
66.53738624415844
 30
0.0
 11
68.01571163036198
 21
66.53738624415844
 31
0.0
  0
LINE
  5
230
330
1F
100
AcDbEntity
  8
1mm
  6
ByBlock
100
AcDbLine
 10
68.01571163036198
 20
66.53738624415844
 30
0.0
 11
68.01571163036198
 21
60.87191864346657
 31
0.0
  0
LINE
  5
231
330
1F
100
AcDbEntity
  8
1mm
  6
ByBlock
100
AcDbLine
 10
68.01571163036198
 20
60.87191864346657
 30
0.0
 11
75.08612951705916
 21
60.87191864346657
 31
0.0
  0
LINE
  5
232
330
1F
100
AcDbEntity
  8
1mm
  6
ByBlock
100
AcDbLine
 10
75.08612951705916
 20
60.87191864346657
 30
0.0
 11
75.08612951705916
 21
63.73652568075682
 31
0.0
  0
LINE
  5
233
330
1F
100
AcDbEntity
  8
1mm
  6
ByBlock
100
AcDbLine
 10
75.08612951705916
 20
63.73652568075682
 30
0.0
 11
71.59492213652692
 21
63.73652568075682
 31
0.0
  0
LINE
  5
234
330
1F
100
AcDbEntity
  8
1mm
  6
ByBlock
100
AcDbLine
 10
89.8093630631822
 20
66.54500882595322
 30
0.0
 11
82.787810115289
 21
66.54500882595323
 31
0.0
  0
LINE
  5
235
330
1F
100
AcDbEntity
  8
1mm
  6
ByBlock
100
AcDbLine
 10
82.787810115289
 20
66.54500882595323
 30
0.0
 11
82.787810115289
 21
63.75666650007506
 31
0.0
  0
LINE
  5
236
330
1F
100
AcDbEntity
  8
1mm
  6
ByBlock
100
AcDbLine
 10
82.787810115289
 20
63.75666650007506
 30
0.0
 11
89.75866592998442
 21
63.75666650007506
 31
0.0
  0
LINE
  5
237
330
1F
100
AcDbEntity
  8
1mm
  6
ByBlock
100
AcDbLine
 10
89.75866592998442
 20
63.75666650007506
 30
0.0
 11
89.75866592998442
 21
60.86692990780134
 31
0.0
  0
LINE
  5
238
330
1F
100
AcDbEntity
  8
1mm
  6
ByBlock
100
AcDbLine
 10
89.75866592998442
 20
60.86692990780134
 30
0.0
 11
82.81315868188791
 21
60.86692990780134
 31
0.0
  0
LINE
  5
239
330
1F
100
AcDbEntity
  8
1mm
  6
ByBlock
100
AcDbLine
 10
96.06818160282823
 20
66.57124855309661
 30
0.0
 11
103.2164773837159
 21
66.57124855309661
 31
0.0
  0
LINE
  5
23A
330
1F
100
AcDbEntity
  8
1mm
  6
ByBlock
100
AcDbLine
 10
103.2164773837159
 20
66.57124855309661
 30
0.0
 11
99.69302662646984
 21
66.57124855309661
 31
0.0
  0
LINE
  5
23B
330
1F
100
AcDbEntity
  8
1mm
  6
ByBlock
100
AcDbLine
 10
99.69302662646984
 20
66.57124855309661
 30
0.0
 11
99.69302662646984
 21
60.86722854560158
 31
0.0
  0
LINE
  5
23C
330
1F
100
AcDbEntity
  8
1mm
  6
ByBlock
100
AcDbLine
 10
110.2044965052302
 20
66.60165537686625
 30
0.0
 11
117.2195326408336
 21
66.60165537686625
 31
0.0
  0
LINE
  5
23D
330
1F
100
AcDbEntity
  8
1mm
  6
ByBlock
100
AcDbLine
 10
117.2195326408336
 20
66.60165537686625
 30
0.0
 11
117.2195326408336
 21
61.01050460233474
 31
0.0
  0
LINE
  5
23E
330
1F
100
AcDbEntity
  8
1mm
  6
ByBlock
100
AcDbLine
 10
117.2195326408336
 20
61.01050460233474
 30
0.0
 11
110.0894878278972
 21
61.01050460233474
 31
0.0
  0
LINE
  5
23F
330
1F
100
AcDbEntity
  8
1mm
  6
ByBlock
100
AcDbLine
 10
110.0894878278972
 20
61.01050460233474
 30
0.0
 11
110.0894878278972
 21
66.57502194212358
 31
0.0
  0
LINE
  5
240
330
1F
100
AcDbEntity
  8
1mm
  6
ByBlock
100
AcDbLine
 10
132.0636960663252
 20
66.67995794565392
 30
0.0
 11
125.1878973763756
 21
66.67995794565392
 31
0.0
  0
LINE
  5
241
330
1F
100
AcDbEntity
  8
1mm
  6
ByBlock
100
AcDbLine
 10
125.1878973763756
 20
66.67995794565392
 30
0.0
 11
125.1878973763756
 21
61.00821616915177
 31
0.0
  0
LINE
  5
242
330
1F
100
AcDbEntity
  8
1mm
  6
ByBlock
100
AcDbLine
 10
125.1878973763756
 20
61.00821616915177
 30
0.0
 11
132.1270674828224
 21
61.00821616915177
 31
0.0
  0
LINE
  5
243
330
1F
100
AcDbEntity
  8
1mm
  6
ByBlock
100
AcDbLine
 10
138.7927255654887
 20
66.74729007568223
 30
0.0
 11
138.7927255654887
 21
61.01851402433257
 31
0.0
  0
LINE
  5
244
330
1F
100
AcDbEntity
  8
1mm
  6
ByBlock
100
AcDbLine
 10
138.7927255654887
 20
61.01851402433257
 30
0.0
 11
138.7927255654887
 21
63.50267355102402
 31
0.0
  0
LINE
  5
245
330
1F
100
AcDbEntity
  8
1mm
  6
ByBlock
100
AcDbLine
 10
138.7927255654887
 20
63.50267355102402
 30
0.0
 11
144.4201073504428
 21
66.89938147527559
 31
0.0
  0
LINE
  5
246
330
1F
100
AcDbEntity
  8
1mm
  6
ByBlock
100
AcDbLine
 10
144.4201073504428
 20
66.89938147527559
 30
0.0
 11
138.7861389939437
 21
63.50267355102402
 31
0.0
  0
LINE
  5
247
330
1F
100
AcDbEntity
  8
1mm
  6
ByBlock
100
AcDbLine
 10
138.7861389939437
 20
63.50267355102402
 30
0.0
 11
144.3996358480576
 21
63.50267355102402
 31
0.0
  0
LINE
  5
248
330
1F
100
AcDbEntity
  8
1mm
  6
ByBlock
100
AcDbLine
 10
144.3996358480576
 20
63.50267355102402
 30
0.0
 11
144.3996358480576
 21
61.06658986225836
 31
0.0
  0
LINE
  5
249
330
1F
100
AcDbEntity
  8
1mm
  6
ByBlock
100
AcDbLine
 10
35.93271695550526
 20
70.83329090517036
 30
0.0
 11
38.87948782262651
 21
70.83329090517036
 31
0.0
  0
LINE
  5
24A
330
1F
100
AcDbEntity
  8
1mm
  6
ByBlock
100
AcDbLine
 10
38.87948782262651
 20
70.83329090517036
 30
0.0
 11
48.0932775993768
 21
92.24955817208901
 31
0.0
  0
LINE
  5
24B
330
1F
100
AcDbEntity
  8
1mm
  6
ByBlock
100
AcDbLine
 10
48.0932775993768
 20
92.24955817208901
 30
0.0
 11
58.73600572228045
 21
70.80660786588739
 31
0.0
  0
LINE
  5
24C
330
1F
100
AcDbEntity
  8
1mm
  6
ByBlock
100
AcDbLine
 10
58.73600572228045
 20
70.80660786588739
 30
0.0
 11
79.41966568861362
 21
70.80660786588739
 31
0.0
  0
LINE
  5
24D
330
1F
100
AcDbEntity
  8
1mm
  6
ByBlock
100
AcDbLine
 10
79.41966568861362
 20
70.80660786588739
 30
0.0
 11
88.5461121900109
 21
92.20919415137558
 31
0.0
  0
LINE
  5
24E
330
1F
100
AcDbEntity
  8
1mm
  6
ByBlock
100
AcDbLine
 10
88.5461121900109
 20
92.20919415137558
 30
0.0
 11
99.56516253883846
 21
70.84105888088104
 31
0.0
  0
LINE
  5
24F
330
1F
100
AcDbEntity
  8
1mm
  6
ByBlock
100
AcDbLine
 10
99.56516253883846
 20
70.84105888088104
 30
0.0
 11
120.0384582299844
 21
70.84105888088104
 31
0.0
  0
LINE
  5
250
330
1F
100
AcDbEntity
  8
1mm
  6
ByBlock
100
AcDbLine
 10
120.0384582299844
 20
70.84105888088104
 30
0.0
 11
129.1331411281826
 21
92.37878428489311
 31
0.0
  0
LINE
  5
251
330
1F
100
AcDbEntity
  8
1mm
  6
ByBlock
100
AcDbLine
 10
129.1331411281826
 20
92.37878428489311
 30
0.0
 11
139.943699458716
 21
70.84803803315648
 31
0.0
  0
LINE
  5
252
330
1F
100
AcDbEntity
  8
1mm
  6
ByBlock
100
AcDbLine
 10
139.943699458716
 20
70.84803803315648
 30
0.0
 11
149.188254802273
 21
70.84803803315648
 31
0.0
  0
LINE
  5
253
330
1F
100
AcDbEntity
  8
1mm
  6
ByBlock
100
AcDbLine
 10
149.188254802273
 20
70.84803803315648
 30
0.0
 11
149.188254802273
 21
76.57105876935341
 31
0.0
  0
LINE
  5
254
330
1F
100
AcDbEntity
  8
1mm
  6
ByBlock
100
AcDbLine
 10
149.188254802273
 20
76.57105876935341
 30
0.0
 11
149.7427546966237
 21
76.57105876935341
 31
0.0
  0
LWPOLYLINE
  5
255
330
1F
100
AcDbEntity
  8
1mm
  6
ByBlock
100
AcDbPolyline
 90
        4
 70
     1
 43
0.0
 10
152.3603067230114
 20
81.24044606328572
 10
152.3603067230114
 20
72.68530483615956
 10
156.4002345247099
 20
72.68530483615956
 10
156.4002345247099
 20
81.24044606328572
  0
LINE
  5
256
330
1F
100
AcDbEntity
  8
1mm
  6
ByBlock
100
AcDbLine
 10
159.115254109993
 20
72.20652088293802
 30
0.0
 11
159.115254109993
 21
81.56370660010728
 31
0.0
  0
LINE
  5
257
330
1F
100
AcDbEntity
  8
1mm
  6
ByBlock
100
AcDbLine
 10
159.115254109993
 20
81.56370660010728
 30
0.0
 11
169.2795130502909
 21
91.73037474884327
 31
0.0
  0
LINE
  5
258
330
1F
100
AcDbEntity
  8
1mm
  6
ByBlock
100
AcDbLine
 10
169.2795130502909
 20
91.73037474884327
 30
0.0
 11
169.2795130502909
 21
62.08687073584634
 31
0.0
  0
LINE
  5
259
330
1F
100
AcDbEntity
  8
1mm
  6
ByBlock
100
AcDbLine
 10
169.2795130502909
 20
62.08687073584634
 30
0.0
 11
159.115254109993
 21
72.20652088293802
 31
0.0
  0
LWPOLYLINE
  5
25A
330
1F
100
AcDbEntity
  8
1mm
  6
ByBlock
100
AcDbPolyline
 90
        4
 70
     1
 43
0.0
 10
8.721020842621819
 20
95.68813207558541
 10
8.721020842621819
 20
82.85641041327894
 10
28.97809019731476
 20
82.85641041327894
 10
28.97809019731476
 20
95.68813207558541
  0
ELLIPSE
  5
25B
330
1F
100
AcDbEntity
  8
1mm
  6
ByBlock
100
AcDbEllipse
 10
169.4249363392562
 20
77.26505229265199
 30
0.0
 11
0.0
 21
-8.702739692307691
 31
0.0
210
0.0
220
0.0
230
1.0
 40
0.7557499999999971
 41
0.6318702898594788
 42
2.544879825426747
  0
ELLIPSE
  5
25C
330
1F
100
AcDbEntity
  8
1mm
  6
ByBlock
100
AcDbEllipse
 10
168.6803686100254
 20
77.31049993326737
 30
0.0
 11
0.0
 21
-14.23381425230772
 31
0.0
210
0.0
220
0.0
230
1.0
 40
0.9293478260869537
 41
7.062055714832576
 42
8.647307254614091
  0
ELLIPSE
  5
25D
330
1F
100
AcDbEntity
  8
1mm
  6
ByBlock
100
AcDbEllipse
 10
168.6706505507023
 20
76.97348633868276
 30
0.0
 11
2.141683294364152E-15
 21
20.60458232123077
 31
0.0
210
0.0
220
0.0
230
1.0
 40
0.9448537533935695
 41
3.902530234276453
 42
5.530492045545554
  0
CIRCLE
  5
25E
330
1F
100
AcDbEntity
  8
1mm
  6
ByBlock
100
AcDbCircle
 10
21.81965920531774
 20
71.53179239037507
 30
0.0
 40
0.4950891913846142
  0
CIRCLE
  5
25F
330
1F
100
AcDbEntity
  8
1mm
  6
ByBlock
100
AcDbCircle
 10
26.95620956593313
 20
75.26478868140804
 30
0.0
 40
0.6188614892307682
  0
CIRCLE
  5
260
330
1F
100
AcDbEntity
  8
1mm
  6
ByBlock
100
AcDbCircle
 10
29.86485856531775
 20
70.85104475222121
 30
0.0
 40
0.6188614892307723
  0
CIRCLE
  5
261
330
1F
100
AcDbEntity
  8
1mm
  6
ByBlock
100
AcDbCircle
 10
24.65042521817866
 20
67.8591804871127
 30
0.0
 40
0.6004059193950221
  0
LINE
  5
262
330
1F
100
AcDbEntity
  8
1mm
  6
ByBlock
100
AcDbLine
 10
7.946677069669959
 20
70.78300262391174
 30
0.0
 11
12.94707790265458
 21
70.78300262391174
 31
0.0
  0
LINE
  5
263
330
1F
100
AcDbEntity
  8
1mm
  6
ByBlock
100
AcDbLine
 10
12.94707790265458
 20
70.78300262391174
 30
0.0
 11
10.32310518831611
 21
70.78300262391174
 31
0.0
  0
LINE
  5
264
330
1F
100
AcDbEntity
  8
1mm
  6
ByBlock
100
AcDbLine
 10
10.32310518831611
 20
70.78300262391174
 30
0.0
 11
10.32310518831611
 21
73.10992182341944
 31
0.0
  0
LINE
  5
265
330
1F
100
AcDbEntity
  8
1mm
  6
ByBlock
100
AcDbLine
 10
10.32310518831611
 20
73.10992182341944
 30
0.0
 11
10.32310518831611
 21
68.60461018181944
 31
0.0
  0
LWPOLYLINE
  5
266
330
1F
100
AcDbEntity
  8
1mm
  6
ByBlock
100
AcDbPolyline
 90
        4
 70
     1
 43
0.0
 10
32.92075438132222
 20
60.77594910935424
 10
32.92075438132222
 20
99.21486760974071
 10
4.647000499186841
 20
99.21486760974071
 10
4.647000499186841
 20
60.77594910935424
  0
LWPOLYLINE
  5
267
330
1F
100
AcDbEntity
  8
1mm
  6
ByBlock
100
AcDbPolyline
 90
        4
 70
     1
 43
0.0
 10
1.373082897032969
 20
102.4856699408176
 10
1.373082897032969
 20
57.2257990081253
 10
192.3488672624175
 20
57.2257990081253
 10
192.3488672624175
 20
102.4856699408176
  0
CIRCLE
  5
268
330
1F
100
AcDbEntity
  8
5mm
  6
ByBlock
100
AcDbCircle
 10
18.89144246241758
 20
89.41875913120225
 30
0.0
 40
0.9799793282241858
  0
LWPOLYLINE
  5
269
330
1F
100
AcDbEntity
  8
5mm
  6
ByBlock
100
AcDbPolyline
 90
        4
 70
     1
 43
0.0
 10
-3.801917102967025
 20
107.6606699408176
 10
-3.801917102967025
 20
52.0507990081253
 10
197.5238672624175
 20
52.0507990081253
 10
197.5238672624175
 20
107.6606699408176
  0
LWPOLYLINE
  5
26A
330
1F
100
AcDbEntity
  8
1mm
  6
ByBlock
100
AcDbPolyline
 90
        4
 70
     1
 43
0.0
 10
1.373082897032972
 20
102.4856699408176
 10
1.373082897032972
 20
57.22579900812531
 10
192.3488672624175
 20
57.2257990081253
 10
192.3488672624175
 20
102.4856699408176
  0
LINE
  5
26B
330
1F
100
AcDbEntity
  8
1mm
  6
ByBlock
100
AcDbLine
 10
40.1764133397152
 20
116.4868500264718
 30
0.0
 11
40.1764133397152
 21
122.1405092955127
 31
0.0
  0
LINE
  5
26C
330
1F
100
AcDbEntity
  8
1mm
  6
ByBlock
100
AcDbLine
 10
40.1764133397152
 20
122.1405092955127
 30
0.0
 11
43.81389294741802
 21
116.5021545022475
 31
0.0
  0
LINE
  5
26D
330
1F
100
AcDbEntity
  8
1mm
  6
ByBlock
100
AcDbLine
 10
43.81389294741802
 20
116.5021545022475
 30
0.0
 11
47.4574910193567
 21
122.1463116802121
 31
0.0
  0
LINE
  5
26E
330
1F
100
AcDbEntity
  8
1mm
  6
ByBlock
100
AcDbLine
 10
47.4574910193567
 20
122.1463116802121
 30
0.0
 11
47.4574910193567
 21
116.4782556002289
 31
0.0
  0
LINE
  5
26F
330
1F
100
AcDbEntity
  8
1mm
  6
ByBlock
100
AcDbLine
 10
53.85253067092219
 20
116.488588030035
 30
0.0
 11
57.40132999476712
 21
122.1463880949078
 31
0.0
  0
LINE
  5
270
330
1F
100
AcDbEntity
  8
1mm
  6
ByBlock
100
AcDbLine
 10
57.40132999476712
 20
122.1463880949078
 30
0.0
 11
60.8690139054956
 21
116.488588030035
 31
0.0
  0
LINE
  5
271
330
1F
100
AcDbEntity
  8
1mm
  6
ByBlock
100
AcDbLine
 10
60.8690139054956
 20
116.488588030035
 30
0.0
 11
59.63200385546966
 21
118.5367522112255
 31
0.0
  0
LINE
  5
272
330
1F
100
AcDbEntity
  8
1mm
  6
ByBlock
100
AcDbLine
 10
59.63200385546966
 20
118.5367522112255
 30
0.0
 11
55.15037728078548
 21
118.5367522112255
 31
0.0
  0
LINE
  5
273
330
1F
100
AcDbEntity
  8
1mm
  6
ByBlock
100
AcDbLine
 10
75.123499793459
 20
122.1472571768508
 30
0.0
 11
68.01571163036198
 21
122.1472571768508
 31
0.0
  0
LINE
  5
274
330
1F
100
AcDbEntity
  8
1mm
  6
ByBlock
100
AcDbLine
 10
68.01571163036198
 20
122.1472571768508
 30
0.0
 11
68.01571163036198
 21
116.4817895761589
 31
0.0
  0
LINE
  5
275
330
1F
100
AcDbEntity
  8
1mm
  6
ByBlock
100
AcDbLine
 10
68.01571163036198
 20
116.4817895761589
 30
0.0
 11
75.08612951705916
 21
116.4817895761589
 31
0.0
  0
LINE
  5
276
330
1F
100
AcDbEntity
  8
1mm
  6
ByBlock
100
AcDbLine
 10
75.08612951705916
 20
116.4817895761589
 30
0.0
 11
75.08612951705916
 21
119.3463966134491
 31
0.0
  0
LINE
  5
277
330
1F
100
AcDbEntity
  8
1mm
  6
ByBlock
100
AcDbLine
 10
75.08612951705916
 20
119.3463966134491
 30
0.0
 11
71.59492213652692
 21
119.3463966134491
 31
0.0
  0
LINE
  5
278
330
1F
100
AcDbEntity
  8
1mm
  6
ByBlock
100
AcDbLine
 10
89.8093630631822
 20
122.1548797586455
 30
0.0
 11
82.787810115289
 21
122.1548797586455
 31
0.0
  0
LINE
  5
279
330
1F
100
AcDbEntity
  8
1mm
  6
ByBlock
100
AcDbLine
 10
82.787810115289
 20
122.1548797586455
 30
0.0
 11
82.787810115289
 21
119.3665374327674
 31
0.0
  0
LINE
  5
27A
330
1F
100
AcDbEntity
  8
1mm
  6
ByBlock
100
AcDbLine
 10
82.787810115289
 20
119.3665374327674
 30
0.0
 11
89.75866592998442
 21
119.3665374327674
 31
0.0
  0
LINE
  5
27B
330
1F
100
AcDbEntity
  8
1mm
  6
ByBlock
100
AcDbLine
 10
89.75866592998442
 20
119.3665374327674
 30
0.0
 11
89.75866592998442
 21
116.4768008404937
 31
0.0
  0
LINE
  5
27C
330
1F
100
AcDbEntity
  8
1mm
  6
ByBlock
100
AcDbLine
 10
89.75866592998442
 20
116.4768008404937
 30
0.0
 11
82.81315868188791
 21
116.4768008404937
 31
0.0
  0
LINE
  5
27D
330
1F
100
AcDbEntity
  8
1mm
  6
ByBlock
100
AcDbLine
 10
96.06818160282823
 20
122.1811194857889
 30
0.0
 11
103.2164773837159
 21
122.1811194857889
 31
0.0
  0
LINE
  5
27E
330
1F
100
AcDbEntity
  8
1mm
  6
ByBlock
100
AcDbLine
 10
103.2164773837159
 20
122.1811194857889
 30
0.0
 11
99.69302662646984
 21
122.1811194857889
 31
0.0
  0
LINE
  5
27F
330
1F
100
AcDbEntity
  8
1mm
  6
ByBlock
100
AcDbLine
 10
99.69302662646984
 20
122.1811194857889
 30
0.0
 11
99.69302662646984
 21
116.4770994782939
 31
0.0
  0
LINE
  5
280
330
1F
100
AcDbEntity
  8
1mm
  6
ByBlock
100
AcDbLine
 10
110.2044965052302
 20
122.2115263095586
 30
0.0
 11
117.2195326408336
 21
122.2115263095586
 31
0.0
  0
LINE
  5
281
330
1F
100
AcDbEntity
  8
1mm
  6
ByBlock
100
AcDbLine
 10
117.2195326408336
 20
122.2115263095586
 30
0.0
 11
117.2195326408336
 21
116.6203755350271
 31
0.0
  0
LINE
  5
282
330
1F
100
AcDbEntity
  8
1mm
  6
ByBlock
100
AcDbLine
 10
117.2195326408336
 20
116.6203755350271
 30
0.0
 11
110.0894878278972
 21
116.6203755350271
 31
0.0
  0
LINE
  5
283
330
1F
100
AcDbEntity
  8
1mm
  6
ByBlock
100
AcDbLine
 10
110.0894878278972
 20
116.6203755350271
 30
0.0
 11
110.0894878278972
 21
122.1848928748159
 31
0.0
  0
LINE
  5
284
330
1F
100
AcDbEntity
  8
1mm
  6
ByBlock
100
AcDbLine
 10
132.0636960663252
 20
122.2898288783462
 30
0.0
 11
125.1878973763756
 21
122.2898288783462
 31
0.0
  0
LINE
  5
285
330
1F
100
AcDbEntity
  8
1mm
  6
ByBlock
100
AcDbLine
 10
125.1878973763756
 20
122.2898288783462
 30
0.0
 11
125.1878973763756
 21
116.6180871018441
 31
0.0
  0
LINE
  5
286
330
1F
100
AcDbEntity
  8
1mm
  6
ByBlock
100
AcDbLine
 10
125.1878973763756
 20
116.6180871018441
 30
0.0
 11
132.1270674828224
 21
116.6180871018441
 31
0.0
  0
LINE
  5
287
330
1F
100
AcDbEntity
  8
1mm
  6
ByBlock
100
AcDbLine
 10
138.7927255654887
 20
122.3571610083746
 30
0.0
 11
138.7927255654887
 21
116.6283849570249
 31
0.0
  0
LINE
  5
288
330
1F
100
AcDbEntity
  8
1mm
  6
ByBlock
100
AcDbLine
 10
138.7927255654887
 20
116.6283849570249
 30
0.0
 11
138.7927255654887
 21
119.1125444837163
 31
0.0
  0
LINE
  5
289
330
1F
100
AcDbEntity
  8
1mm
  6
ByBlock
100
AcDbLine
 10
138.7927255654887
 20
119.1125444837163
 30
0.0
 11
144.4201073504428
 21
122.5092524079679
 31
0.0
  0
LINE
  5
28A
330
1F
100
AcDbEntity
  8
1mm
  6
ByBlock
100
AcDbLine
 10
144.4201073504428
 20
122.5092524079679
 30
0.0
 11
138.7861389939437
 21
119.1125444837163
 31
0.0
  0
LINE
  5
28B
330
1F
100
AcDbEntity
  8
1mm
  6
ByBlock
100
AcDbLine
 10
138.7861389939437
 20
119.1125444837163
 30
0.0
 11
144.3996358480576
 21
119.1125444837163
 31
0.0
  0
LINE
  5
28C
330
1F
100
AcDbEntity
  8
1mm
  6
ByBlock
100
AcDbLine
 10
144.3996358480576
 20
119.1125444837163
 30
0.0
 11
144.3996358480576
 21
116.6764607949507
 31
0.0
  0
LINE
  5
28D
330
1F
100
AcDbEntity
  8
1mm
  6
ByBlock
100
AcDbLine
 10
35.93271695550526
 20
126.4431618378627
 30
0.0
 11
38.87948782262651
 21
126.4431618378627
 31
0.0
  0
LINE
  5
28E
330
1F
100
AcDbEntity
  8
1mm
  6
ByBlock
100
AcDbLine
 10
38.87948782262651
 20
126.4431618378627
 30
0.0
 11
48.0932775993768
 21
147.8594291047813
 31
0.0
  0
LINE
  5
28F
330
1F
100
AcDbEntity
  8
1mm
  6
ByBlock
100
AcDbLine
 10
48.0932775993768
 20
147.8594291047813
 30
0.0
 11
58.73600572228045
 21
126.4164787985797
 31
0.0
  0
LINE
  5
290
330
1F
100
AcDbEntity
  8
1mm
  6
ByBlock
100
AcDbLine
 10
58.73600572228045
 20
126.4164787985797
 30
0.0
 11
79.41966568861362
 21
126.4164787985797
 31
0.0
  0
LINE
  5
291
330
1F
100
AcDbEntity
  8
1mm
  6
ByBlock
100
AcDbLine
 10
79.41966568861362
 20
126.4164787985797
 30
0.0
 11
88.5461121900109
 21
147.8190650840679
 31
0.0
  0
LINE
  5
292
330
1F
100
AcDbEntity
  8
1mm
  6
ByBlock
100
AcDbLine
 10
88.5461121900109
 20
147.8190650840679
 30
0.0
 11
99.56516253883846
 21
126.4509298135734
 31
0.0
  0
LINE
  5
293
330
1F
100
AcDbEntity
  8
1mm
  6
ByBlock
100
AcDbLine
 10
99.56516253883846
 20
126.4509298135734
 30
0.0
 11
120.0384582299844
 21
126.4509298135734
 31
0.0
  0
LINE
  5
294
330
1F
100
AcDbEntity
  8
1mm
  6
ByBlock
100
AcDbLine
 10
120.0384582299844
 20
126.4509298135734
 30
0.0
 11
129.1331411281826
 21
147.9886552175854
 31
0.0
  0
LINE
  5
295
330
1F
100
AcDbEntity
  8
1mm
  6
ByBlock
100
AcDbLine
 10
129.1331411281826
 20
147.9886552175854
 30
0.0
 11
139.943699458716
 21
126.4579089658488
 31
0.0
  0
LINE
  5
296
330
1F
100
AcDbEntity
  8
1mm
  6
ByBlock
100
AcDbLine
 10
139.943699458716
 20
126.4579089658488
 30
0.0
 11
149.188254802273
 21
126.4579089658488
 31
0.0
  0
LINE
  5
297
330
1F
100
AcDbEntity
  8
1mm
  6
ByBlock
100
AcDbLine
 10
149.188254802273
 20
126.4579089658488
 30
0.0
 11
149.188254802273
 21
132.1809297020457
 31
0.0
  0
LINE
  5
298
330
1F
100
AcDbEntity
  8
1mm
  6
ByBlock
100
AcDbLine
 10
149.188254802273
 20
132.1809297020457
 30
0.0
 11
149.7427546966237
 21
132.1809297020457
 31
0.0
  0
LWPOLYLINE
  5
299
330
1F
100
AcDbEntity
  8
1mm
  6
ByBlock
100
AcDbPolyline
 90
        4
 70
     1
 43
0.0
 10
152.3603067230114
 20
136.850316995978
 10
152.3603067230114
 20
128.2951757688519
 10
156.4002345247099
 20
128.2951757688519
 10
156.4002345247099
 20
136.850316995978
  0
LINE
  5
29A
330
1F
100
AcDbEntity
  8
1mm
  6
ByBlock
100
AcDbLine
 10
159.115254109993
 20
127.8163918156303
 30
0.0
 11
159.115254109993
 21
137.1735775327996
 31
0.0
  0
LINE
  5
29B
330
1F
100
AcDbEntity
  8
1mm
  6
ByBlock
100
AcDbLine
 10
159.115254109993
 20
137.1735775327996
 30
0.0
 11
169.2795130502909
 21
147.3402456815356
 31
0.0
  0
LINE
  5
29C
330
1F
100
AcDbEntity
  8
1mm
  6
ByBlock
100
AcDbLine
 10
169.2795130502909
 20
147.3402456815356
 30
0.0
 11
169.2795130502909
 21
117.6967416685387
 31
0.0
  0
LINE
  5
29D
330
1F
100
AcDbEntity
  8
1mm
  6
ByBlock
100
AcDbLine
 10
169.2795130502909
 20
117.6967416685387
 30
0.0
 11
159.115254109993
 21
127.8163918156303
 31
0.0
  0
LWPOLYLINE
  5
29E
330
1F
100
AcDbEntity
  8
1mm
  6
ByBlock
100
AcDbPolyline
 90
        4
 70
     1
 43
0.0
 10
8.721020842621819
 20
151.2980030082777
 10
8.721020842621819
 20
138.4662813459713
 10
28.97809019731476
 20
138.4662813459713
 10
28.97809019731476
 20
151.2980030082777
  0
ELLIPSE
  5
29F
330
1F
100
AcDbEntity
  8
1mm
  6
ByBlock
100
AcDbEllipse
 10
169.4249363392562
 20
132.8749232253443
 30
0.0
 11
0.0
 21
-8.702739692307691
 31
0.0
210
0.0
220
0.0
230
1.0
 40
0.7557499999999971
 41
0.6318702898594788
 42
2.544879825426747
  0
ELLIPSE
  5
2A0
330
1F
100
AcDbEntity
  8
1mm
  6
ByBlock
100
AcDbEllipse
 10
168.6803686100254
 20
132.9203708659597
 30
0.0
 11
0.0
 21
-14.23381425230772
 31
0.0
210
0.0
220
0.0
230
1.0
 40
0.9293478260869537
 41
7.062055714832576
 42
8.647307254614091
  0
ELLIPSE
  5
2A1
330
1F
100
AcDbEntity
  8
1mm
  6
ByBlock
100
AcDbEllipse
 10
168.6706505507023
 20
132.5833572713751
 30
0.0
 11
2.141683294364152E-15
 21
20.60458232123077
 31
0.0
210
0.0
220
0.0
230
1.0
 40
0.9448537533935695
 41
3.902530234276453
 42
5.530492045545554
  0
CIRCLE
  5
2A2
330
1F
100
AcDbEntity
  8
1mm
  6
ByBlock
100
AcDbCircle
 10
21.81965920531774
 20
127.1416633230674
 30
0.0
 40
0.4950891913846142
  0
CIRCLE
  5
2A3
330
1F
100
AcDbEntity
  8
1mm
  6
ByBlock
100
AcDbCircle
 10
26.95620956593313
 20
130.8746596141004
 30
0.0
 40
0.6188614892307682
  0
CIRCLE
  5
2A4
330
1F
100
AcDbEntity
  8
1mm
  6
ByBlock
100
AcDbCircle
 10
29.86485856531775
 20
126.4609156849135
 30
0.0
 40
0.6188614892307723
  0
CIRCLE
  5
2A5
330
1F
100
AcDbEntity
  8
1mm
  6
ByBlock
100
AcDbCircle
 10
24.65042521817866
 20
123.469051419805
 30
0.0
 40
0.6004059193950221
  0
LINE
  5
2A6
330
1F
100
AcDbEntity
  8
1mm
  6
ByBlock
100
AcDbLine
 10
7.946677069669959
 20
126.3928735566041
 30
0.0
 11
12.94707790265458
 21
126.3928735566041
 31
0.0
  0
LINE
  5
2A7
330
1F
100
AcDbEntity
  8
1mm
  6
ByBlock
100
AcDbLine
 10
12.94707790265458
 20
126.3928735566041
 30
0.0
 11
10.32310518831611
 21
126.3928735566041
 31
0.0
  0
LINE
  5
2A8
330
1F
100
AcDbEntity
  8
1mm
  6
ByBlock
100
AcDbLine
 10
10.32310518831611
 20
126.3928735566041
 30
0.0
 11
10.32310518831611
 21
128.7197927561118
 31
0.0
  0
LINE
  5
2A9
330
1F
100
AcDbEntity
  8
1mm
  6
ByBlock
100
AcDbLine
 10
10.32310518831611
 20
128.7197927561118
 30
0.0
 11
10.32310518831611
 21
124.2144811145118
 31
0.0
  0
LWPOLYLINE
  5
2AA
330
1F
100
AcDbEntity
  8
1mm
  6
ByBlock
100
AcDbPolyline
 90
        4
 70
     1
 43
0.0
 10
32.92075438132222
 20
116.3858200420466
 10
32.92075438132222
 20
154.824738542433
 10
4.647000499186841
 20
154.824738542433
 10
4.647000499186841
 20
116.3858200420466
  0
LWPOLYLINE
  5
2AB
330
1F
100
AcDbEntity
  8
1mm
  6
ByBlock
100
AcDbPolyline
 90
        4
 70
     1
 43
0.0
 10
1.373082897032969
 20
158.0955408735099
 10
1.373082897032969
 20
112.8356699408176
 10
192.3488672624175
 20
112.8356699408176
 10
192.3488672624175
 20
158.0955408735099
  0
CIRCLE
  5
2AC
330
1F
100
AcDbEntity
  8
5mm
  6
ByBlock
100
AcDbCircle
 10
18.89144246241758
 20
145.0286300638946
 30
0.0
 40
0.9799793282241858
  0
LWPOLYLINE
  5
2AD
330
1F
100
AcDbEntity
  8
5mm
  6
ByBlock
100
AcDbPolyline
 90
        4
 70
     1
 43
0.0
 10
-3.801917102967025
 20
163.2705408735099
 10
-3.801917102967025
 20
107.6606699408176
 10
197.5238672624175
 20
107.6606699408176
 10
197.5238672624175
 20
163.2705408735099
  0
LWPOLYLINE
  5
2AE
330
1F
100
AcDbEntity
  8
1mm
  6
ByBlock
100
AcDbPolyline
 90
        4
 70
     1
 43
0.0
 10
1.373082897032972
 20
158.0955408735099
 10
1.373082897032972
 20
112.8356699408176
 10
192.3488672624175
 20
112.8356699408176
 10
192.3488672624175
 20
158.0955408735099
  0
LINE
  5
2AF
330
1F
100
AcDbEntity
  8
1mm
  6
ByBlock
100
AcDbLine
 10
40.1764133397152
 20
172.0967209591641
 30
0.0
 11
40.1764133397152
 21
177.750380228205
 31
0.0
  0
LINE
  5
2B0
330
1F
100
AcDbEntity
  8
1mm
  6
ByBlock
100
AcDbLine
 10
40.1764133397152
 20
177.750380228205
 30
0.0
 11
43.81389294741802
 21
172.1120254349398
 31
0.0
  0
LINE
  5
2B1
330
1F
100
AcDbEntity
  8
1mm
  6
ByBlock
100
AcDbLine
 10
43.81389294741802
 20
172.1120254349398
 30
0.0
 11
47.4574910193567
 21
177.7561826129044
 31
0.0
  0
LINE
  5
2B2
330
1F
100
AcDbEntity
  8
1mm
  6
ByBlock
100
AcDbLine
 10
47.4574910193567
 20
177.7561826129044
 30
0.0
 11
47.4574910193567
 21
172.0881265329212
 31
0.0
  0
LINE
  5
2B3
330
1F
100
AcDbEntity
  8
1mm
  6
ByBlock
100
AcDbLine
 10
53.85253067092219
 20
172.0984589627273
 30
0.0
 11
57.40132999476712
 21
177.7562590276001
 31
0.0
  0
LINE
  5
2B4
330
1F
100
AcDbEntity
  8
1mm
  6
ByBlock
100
AcDbLine
 10
57.40132999476712
 20
177.7562590276001
 30
0.0
 11
60.8690139054956
 21
172.0984589627273
 31
0.0
  0
LINE
  5
2B5
330
1F
100
AcDbEntity
  8
1mm
  6
ByBlock
100
AcDbLine
 10
60.8690139054956
 20
172.0984589627273
 30
0.0
 11
59.63200385546966
 21
174.1466231439178
 31
0.0
  0
LINE
  5
2B6
330
1F
100
AcDbEntity
  8
1mm
  6
ByBlock
100
AcDbLine
 10
59.63200385546966
 20
174.1466231439178
 30
0.0
 11
55.15037728078548
 21
174.1466231439178
 31
0.0
  0
LINE
  5
2B7
330
1F
100
AcDbEntity
  8
1mm
  6
ByBlock
100
AcDbLine
 10
75.123499793459
 20
177.7571281095431
 30
0.0
 11
68.01571163036198
 21
177.7571281095431
 31
0.0
  0
LINE
  5
2B8
330
1F
100
AcDbEntity
  8
1mm
  6
ByBlock
100
AcDbLine
 10
68.01571163036198
 20
177.7571281095431
 30
0.0
 11
68.01571163036198
 21
172.0916605088512
 31
0.0
  0
LINE
  5
2B9
330
1F
100
AcDbEntity
  8
1mm
  6
ByBlock
100
AcDbLine
 10
68.01571163036198
 20
172.0916605088512
 30
0.0
 11
75.08612951705916
 21
172.0916605088512
 31
0.0
  0
LINE
  5
2BA
330
1F
100
AcDbEntity
  8
1mm
  6
ByBlock
100
AcDbLine
 10
75.08612951705916
 20
172.0916605088512
 30
0.0
 11
75.08612951705916
 21
174.9562675461414
 31
0.0
  0
LINE
  5
2BB
330
1F
100
AcDbEntity
  8
1mm
  6
ByBlock
100
AcDbLine
 10
75.08612951705916
 20
174.9562675461414
 30
0.0
 11
71.59492213652692
 21
174.9562675461414
 31
0.0
  0
LINE
  5
2BC
330
1F
100
AcDbEntity
  8
1mm
  6
ByBlock
100
AcDbLine
 10
89.8093630631822
 20
177.7647506913378
 30
0.0
 11
82.787810115289
 21
177.7647506913378
 31
0.0
  0
LINE
  5
2BD
330
1F
100
AcDbEntity
  8
1mm
  6
ByBlock
100
AcDbLine
 10
82.787810115289
 20
177.7647506913378
 30
0.0
 11
82.787810115289
 21
174.9764083654597
 31
0.0
  0
LINE
  5
2BE
330
1F
100
AcDbEntity
  8
1mm
  6
ByBlock
100
AcDbLine
 10
82.787810115289
 20
174.9764083654597
 30
0.0
 11
89.75866592998442
 21
174.9764083654597
 31
0.0
  0
LINE
  5
2BF
330
1F
100
AcDbEntity
  8
1mm
  6
ByBlock
100
AcDbLine
 10
89.75866592998442
 20
174.9764083654597
 30
0.0
 11
89.75866592998442
 21
172.086671773186
 31
0.0
  0
LINE
  5
2C0
330
1F
100
AcDbEntity
  8
1mm
  6
ByBlock
100
AcDbLine
 10
89.75866592998442
 20
172.086671773186
 30
0.0
 11
82.81315868188791
 21
172.086671773186
 31
0.0
  0
LINE
  5
2C1
330
1F
100
AcDbEntity
  8
1mm
  6
ByBlock
100
AcDbLine
 10
96.06818160282823
 20
177.7909904184812
 30
0.0
 11
103.2164773837159
 21
177.7909904184812
 31
0.0
  0
LINE
  5
2C2
330
1F
100
AcDbEntity
  8
1mm
  6
ByBlock
100
AcDbLine
 10
103.2164773837159
 20
177.7909904184812
 30
0.0
 11
99.69302662646984
 21
177.7909904184812
 31
0.0
  0
LINE
  5
2C3
330
1F
100
AcDbEntity
  8
1mm
  6
ByBlock
100
AcDbLine
 10
99.69302662646984
 20
177.7909904184812
 30
0.0
 11
99.69302662646984
 21
172.0869704109862
 31
0.0
  0
LINE
  5
2C4
330
1F
100
AcDbEntity
  8
1mm
  6
ByBlock
100
AcDbLine
 10
110.2044965052302
 20
177.8213972422509
 30
0.0
 11
117.2195326408336
 21
177.8213972422509
 31
0.0
  0
LINE
  5
2C5
330
1F
100
AcDbEntity
  8
1mm
  6
ByBlock
100
AcDbLine
 10
117.2195326408336
 20
177.8213972422509
 30
0.0
 11
117.2195326408336
 21
172.2302464677194
 31
0.0
  0
LINE
  5
2C6
330
1F
100
AcDbEntity
  8
1mm
  6
ByBlock
100
AcDbLine
 10
117.2195326408336
 20
172.2302464677194
 30
0.0
 11
110.0894878278972
 21
172.2302464677194
 31
0.0
  0
LINE
  5
2C7
330
1F
100
AcDbEntity
  8
1mm
  6
ByBlock
100
AcDbLine
 10
110.0894878278972
 20
172.2302464677194
 30
0.0
 11
110.0894878278972
 21
177.7947638075082
 31
0.0
  0
LINE
  5
2C8
330
1F
100
AcDbEntity
  8
1mm
  6
ByBlock
100
AcDbLine
 10
132.0636960663252
 20
177.8996998110385
 30
0.0
 11
125.1878973763756
 21
177.8996998110385
 31
0.0
  0
LINE
  5
2C9
330
1F
100
AcDbEntity
  8
1mm
  6
ByBlock
100
AcDbLine
 10
125.1878973763756
 20
177.8996998110385
 30
0.0
 11
125.1878973763756
 21
172.2279580345364
 31
0.0
  0
LINE
  5
2CA
330
1F
100
AcDbEntity
  8
1mm
  6
ByBlock
100
AcDbLine
 10
125.1878973763756
 20
172.2279580345364
 30
0.0
 11
132.1270674828224
 21
172.2279580345364
 31
0.0
  0
LINE
  5
2CB
330
1F
100
AcDbEntity
  8
1mm
  6
ByBlock
100
AcDbLine
 10
138.7927255654887
 20
177.9670319410669
 30
0.0
 11
138.7927255654887
 21
172.2382558897172
 31
0.0
  0
LINE
  5
2CC
330
1F
100
AcDbEntity
  8
1mm
  6
ByBlock
100
AcDbLine
 10
138.7927255654887
 20
172.2382558897172
 30
0.0
 11
138.7927255654887
 21
174.7224154164086
 31
0.0
  0
LINE
  5
2CD
330
1F
100
AcDbEntity
  8
1mm
  6
ByBlock
100
AcDbLine
 10
138.7927255654887
 20
174.7224154164086
 30
0.0
 11
144.4201073504428
 21
178.1191233406602
 31
0.0
  0
LINE
  5
2CE
330
1F
100
AcDbEntity
  8
1mm
  6
ByBlock
100
AcDbLine
 10
144.4201073504428
 20
178.1191233406602
 30
0.0
 11
138.7861389939437
 21
174.7224154164086
 31
0.0
  0
LINE
  5
2CF
330
1F
100
AcDbEntity
  8
1mm
  6
ByBlock
100
AcDbLine
 10
138.7861389939437
 20
174.7224154164086
 30
0.0
 11
144.3996358480576
 21
174.7224154164086
 31
0.0
  0
LINE
  5
2D0
330
1F
100
AcDbEntity
  8
1mm
  6
ByBlock
100
AcDbLine
 10
144.3996358480576
 20
174.7224154164086
 30
0.0
 11
144.3996358480576
 21
172.286331727643
 31
0.0
  0
LINE
  5
2D1
330
1F
100
AcDbEntity
  8
1mm
  6
ByBlock
100
AcDbLine
 10
35.93271695550526
 20
182.053032770555
 30
0.0
 11
38.87948782262651
 21
182.053032770555
 31
0.0
  0
LINE
  5
2D2
330
1F
100
AcDbEntity
  8
1mm
  6
ByBlock
100
AcDbLine
 10
38.87948782262651
 20
182.053032770555
 30
0.0
 11
48.0932775993768
 21
203.4693000374736
 31
0.0
  0
LINE
  5
2D3
330
1F
100
AcDbEntity
  8
1mm
  6
ByBlock
100
AcDbLine
 10
48.0932775993768
 20
203.4693000374736
 30
0.0
 11
58.73600572228045
 21
182.026349731272
 31
0.0
  0
LINE
  5
2D4
330
1F
100
AcDbEntity
  8
1mm
  6
ByBlock
100
AcDbLine
 10
58.73600572228045
 20
182.026349731272
 30
0.0
 11
79.41966568861362
 21
182.026349731272
 31
0.0
  0
LINE
  5
2D5
330
1F
100
AcDbEntity
  8
1mm
  6
ByBlock
100
AcDbLine
 10
79.41966568861362
 20
182.026349731272
 30
0.0
 11
88.5461121900109
 21
203.4289360167602
 31
0.0
  0
LINE
  5
2D6
330
1F
100
AcDbEntity
  8
1mm
  6
ByBlock
100
AcDbLine
 10
88.5461121900109
 20
203.4289360167602
 30
0.0
 11
99.56516253883846
 21
182.0608007462657
 31
0.0
  0
LINE
  5
2D7
330
1F
100
AcDbEntity
  8
1mm
  6
ByBlock
100
AcDbLine
 10
99.56516253883846
 20
182.0608007462657
 30
0.0
 11
120.0384582299844
 21
182.0608007462657
 31
0.0
  0
LINE
  5
2D8
330
1F
100
AcDbEntity
  8
1mm
  6
ByBlock
100
AcDbLine
 10
120.0384582299844
 20
182.0608007462657
 30
0.0
 11
129.1331411281826
 21
203.5985261502777
 31
0.0
  0
LINE
  5
2D9
330
1F
100
AcDbEntity
  8
1mm
  6
ByBlock
100
AcDbLine
 10
129.1331411281826
 20
203.5985261502777
 30
0.0
 11
139.943699458716
 21
182.0677798985411
 31
0.0
  0
LINE
  5
2DA
330
1F
100
AcDbEntity
  8
1mm
  6
ByBlock
100
AcDbLine
 10
139.943699458716
 20
182.0677798985411
 30
0.0
 11
149.188254802273
 21
182.0677798985411
 31
0.0
  0
LINE
  5
2DB
330
1F
100
AcDbEntity
  8
1mm
  6
ByBlock
100
AcDbLine
 10
149.188254802273
 20
182.0677798985411
 30
0.0
 11
149.188254802273
 21
187.790800634738
 31
0.0
  0
LINE
  5
2DC
330
1F
100
AcDbEntity
  8
1mm
  6
ByBlock
100
AcDbLine
 10
149.188254802273
 20
187.790800634738
 30
0.0
 11
149.7427546966237
 21
187.790800634738
 31
0.0
  0
LWPOLYLINE
  5
2DD
330
1F
100
AcDbEntity
  8
1mm
  6
ByBlock
100
AcDbPolyline
 90
        4
 70
     1
 43
0.0
 10
152.3603067230114
 20
192.4601879286703
 10
152.3603067230114
 20
183.9050467015442
 10
156.4002345247099
 20
183.9050467015442
 10
156.4002345247099
 20
192.4601879286703
  0
LINE
  5
2DE
330
1F
100
AcDbEntity
  8
1mm
  6
ByBlock
100
AcDbLine
 10
159.115254109993
 20
183.4262627483226
 30
0.0
 11
159.115254109993
 21
192.7834484654919
 31
0.0
  0
LINE
  5
2DF
330
1F
100
AcDbEntity
  8
1mm
  6
ByBlock
100
AcDbLine
 10
159.115254109993
 20
192.7834484654919
 30
0.0
 11
169.2795130502909
 21
202.9501166142279
 31
0.0
  0
LINE
  5
2E0
330
1F
100
AcDbEntity
  8
1mm
  6
ByBlock
100
AcDbLine
 10
169.2795130502909
 20
202.9501166142279
 30
0.0
 11
169.2795130502909
 21
173.306612601231
 31
0.0
  0
LINE
  5
2E1
330
1F
100
AcDbEntity
  8
1mm
  6
ByBlock
100
AcDbLine
 10
169.2795130502909
 20
173.306612601231
 30
0.0
 11
159.115254109993
 21
183.4262627483226
 31
0.0
  0
LWPOLYLINE
  5
2E2
330
1F
100
AcDbEntity
  8
1mm
  6
ByBlock
100
AcDbPolyline
 90
        4
 70
     1
 43
0.0
 10
8.721020842621819
 20
206.90787394097
 10
8.721020842621819
 20
194.0761522786636
 10
28.97809019731476
 20
194.0761522786636
 10
28.97809019731476
 20
206.90787394097
  0
ELLIPSE
  5
2E3
330
1F
100
AcDbEntity
  8
1mm
  6
ByBlock
100
AcDbEllipse
 10
169.4249363392562
 20
188.4847941580366
 30
0.0
 11
0.0
 21
-8.702739692307691
 31
0.0
210
0.0
220
0.0
230
1.0
 40
0.7557499999999971
 41
0.6318702898594788
 42
2.544879825426747
  0
ELLIPSE
  5
2E4
330
1F
100
AcDbEntity
  8
1mm
  6
ByBlock
100
AcDbEllipse
 10
168.6803686100254
 20
188.530241798652
 30
0.0
 11
0.0
 21
-14.23381425230772
 31
0.0
210
0.0
220
0.0
230
1.0
 40
0.9293478260869537
 41
7.062055714832576
 42
8.647307254614091
  0
ELLIPSE
  5
2E5
330
1F
100
AcDbEntity
  8
1mm
  6
ByBlock
100
AcDbEllipse
 10
168.6706505507023
 20
188.1932282040674
 30
0.0
 11
2.141683294364152E-15
 21
20.60458232123077
 31
0.0
210
0.0
220
0.0
230
1.0
 40
0.9448537533935695
 41
3.902530234276453
 42
5.530492045545554
  0
CIRCLE
  5
2E6
330
1F
100
AcDbEntity
  8
1mm
  6
ByBlock
100
AcDbCircle
 10
21.81965920531774
 20
182.7515342557597
 30
0.0
 40
0.4950891913846142
  0
CIRCLE
  5
2E7
330
1F
100
AcDbEntity
  8
1mm
  6
ByBlock
100
AcDbCircle
 10
26.95620956593313
 20
186.4845305467927
 30
0.0
 40
0.6188614892307682
  0
CIRCLE
  5
2E8
330
1F
100
AcDbEntity
  8
1mm
  6
ByBlock
100
AcDbCircle
 10
29.86485856531775
 20
182.0707866176058
 30
0.0
 40
0.6188614892307723
  0
CIRCLE
  5
2E9
330
1F
100
AcDbEntity
  8
1mm
  6
ByBlock
100
AcDbCircle
 10
24.65042521817866
 20
179.0789223524973
 30
0.0
 40
0.6004059193950221
  0
LINE
  5
2EA
330
1F
100
AcDbEntity
  8
1mm
  6
ByBlock
100
AcDbLine
 10
7.946677069669959
 20
182.0027444892964
 30
0.0
 11
12.94707790265458
 21
182.0027444892964
 31
0.0
  0
LINE
  5
2EB
330
1F
100
AcDbEntity
  8
1mm
  6
ByBlock
100
AcDbLine
 10
12.94707790265458
 20
182.0027444892964
 30
0.0
 11
10.32310518831611
 21
182.0027444892964
 31
0.0
  0
LINE
  5
2EC
330
1F
100
AcDbEntity
  8
1mm
  6
ByBlock
100
AcDbLine
 10
10.32310518831611
 20
182.0027444892964
 30
0.0
 11
10.32310518831611
 21
184.3296636888041
 31
0.0
  0
LINE
  5
2ED
330
1F
100
AcDbEntity
  8
1mm
  6
ByBlock
100
AcDbLine
 10
10.32310518831611
 20
184.3296636888041
 30
0.0
 11
10.32310518831611
 21
179.8243520472041
 31
0.0
  0
LWPOLYLINE
  5
2EE
330
1F
100
AcDbEntity
  8
1mm
  6
ByBlock
100
AcDbPolyline
 90
        4
 70
     1
 43
0.0
 10
32.92075438132222
 20
171.9956909747389
 10
32.92075438132222
 20
210.4346094751253
 10
4.647000499186841
 20
210.4346094751253
 10
4.647000499186841
 20
171.9956909747389
  0
LWPOLYLINE
  5
2EF
330
1F
100
AcDbEntity
  8
1mm
  6
ByBlock
100
AcDbPolyline
 90
        4
 70
     1
 43
0.0
 10
1.373082897032969
 20
213.7054118062022
 10
1.373082897032969
 20
168.4455408735099
 10
192.3488672624175
 20
168.4455408735099
 10
192.3488672624175
 20
213.7054118062022
  0
CIRCLE
  5
2F0
330
1F
100
AcDbEntity
  8
5mm
  6
ByBlock
100
AcDbCircle
 10
18.89144246241758
 20
200.6385009965869
 30
0.0
 40
0.9799793282241858
  0
LWPOLYLINE
  5
2F1
330
1F
100
AcDbEntity
  8
5mm
  6
ByBlock
100
AcDbPolyline
 90
        4
 70
     1
 43
0.0
 10
-3.801917102967025
 20
218.8804118062022
 10
-3.801917102967025
 20
163.2705408735099
 10
197.5238672624175
 20
163.2705408735099
 10
197.5238672624175
 20
218.8804118062022
  0
LWPOLYLINE
  5
2F2
330
1F
100
AcDbEntity
  8
1mm
  6
ByBlock
100
AcDbPolyline
 90
        4
 70
     1
 43
0.0
 10
1.373082897032972
 20
213.7054118062022
 10
1.373082897032972
 20
168.4455408735099
 10
192.3488672624175
 20
168.4455408735099
 10
192.3488672624175
 20
213.7054118062022
  0
LINE
  5
2F3
330
1F
100
AcDbEntity
  8
1mm
  6
ByBlock
100
AcDbLine
 10
40.1764133397152
 20
227.7065918918564
 30
0.0
 11
40.1764133397152
 21
233.3602511608973
 31
0.0
  0
LINE
  5
2F4
330
1F
100
AcDbEntity
  8
1mm
  6
ByBlock
100
AcDbLine
 10
40.1764133397152
 20
233.3602511608973
 30
0.0
 11
43.81389294741802
 21
227.7218963676321
 31
0.0
  0
LINE
  5
2F5
330
1F
100
AcDbEntity
  8
1mm
  6
ByBlock
100
AcDbLine
 10
43.81389294741802
 20
227.7218963676321
 30
0.0
 11
47.4574910193567
 21
233.3660535455967
 31
0.0
  0
LINE
  5
2F6
330
1F
100
AcDbEntity
  8
1mm
  6
ByBlock
100
AcDbLine
 10
47.4574910193567
 20
233.3660535455967
 30
0.0
 11
47.4574910193567
 21
227.6979974656135
 31
0.0
  0
LINE
  5
2F7
330
1F
100
AcDbEntity
  8
1mm
  6
ByBlock
100
AcDbLine
 10
53.85253067092219
 20
227.7083298954196
 30
0.0
 11
57.40132999476712
 21
233.3661299602924
 31
0.0
  0
LINE
  5
2F8
330
1F
100
AcDbEntity
  8
1mm
  6
ByBlock
100
AcDbLine
 10
57.40132999476712
 20
233.3661299602924
 30
0.0
 11
60.8690139054956
 21
227.7083298954196
 31
0.0
  0
LINE
  5
2F9
330
1F
100
AcDbEntity
  8
1mm
  6
ByBlock
100
AcDbLine
 10
60.8690139054956
 20
227.7083298954196
 30
0.0
 11
59.63200385546966
 21
229.7564940766101
 31
0.0
  0
LINE
  5
2FA
330
1F
100
AcDbEntity
  8
1mm
  6
ByBlock
100
AcDbLine
 10
59.63200385546966
 20
229.7564940766101
 30
0.0
 11
55.15037728078548
 21
229.7564940766101
 31
0.0
  0
LINE
  5
2FB
330
1F
100
AcDbEntity
  8
1mm
  6
ByBlock
100
AcDbLine
 10
75.123499793459
 20
233.3669990422354
 30
0.0
 11
68.01571163036198
 21
233.3669990422354
 31
0.0
  0
LINE
  5
2FC
330
1F
100
AcDbEntity
  8
1mm
  6
ByBlock
100
AcDbLine
 10
68.01571163036198
 20
233.3669990422354
 30
0.0
 11
68.01571163036198
 21
227.7015314415435
 31
0.0
  0
LINE
  5
2FD
330
1F
100
AcDbEntity
  8
1mm
  6
ByBlock
100
AcDbLine
 10
68.01571163036198
 20
227.7015314415435
 30
0.0
 11
75.08612951705916
 21
227.7015314415435
 31
0.0
  0
LINE
  5
2FE
330
1F
100
AcDbEntity
  8
1mm
  6
ByBlock
100
AcDbLine
 10
75.08612951705916
 20
227.7015314415435
 30
0.0
 11
75.08612951705916
 21
230.5661384788338
 31
0.0
  0
LINE
  5
2FF
330
1F
100
AcDbEntity
  8
1mm
  6
ByBlock
100
AcDbLine
 10
75.08612951705916
 20
230.5661384788338
 30
0.0
 11
71.59492213652692
 21
230.5661384788338
 31
0.0
  0
LINE
  5
300
330
1F
100
AcDbEntity
  8
1mm
  6
ByBlock
100
AcDbLine
 10
89.8093630631822
 20
233.3746216240301
 30
0.0
 11
82.787810115289
 21
233.3746216240301
 31
0.0
  0
LINE
  5
301
330
1F
100
AcDbEntity
  8
1mm
  6
ByBlock
100
AcDbLine
 10
82.787810115289
 20
233.3746216240301
 30
0.0
 11
82.787810115289
 21
230.586279298152
 31
0.0
  0
LINE
  5
302
330
1F
100
AcDbEntity
  8
1mm
  6
ByBlock
100
AcDbLine
 10
82.787810115289
 20
230.586279298152
 30
0.0
 11
89.75866592998442
 21
230.586279298152
 31
0.0
  0
LINE
  5
303
330
1F
100
AcDbEntity
  8
1mm
  6
ByBlock
100
AcDbLine
 10
89.75866592998442
 20
230.586279298152
 30
0.0
 11
89.75866592998442
 21
227.6965427058783
 31
0.0
  0
LINE
  5
304
330
1F
100
AcDbEntity
  8
1mm
  6
ByBlock
100
AcDbLine
 10
89.75866592998442
 20
227.6965427058783
 30
0.0
 11
82.81315868188791
 21
227.6965427058783
 31
0.0
  0
LINE
  5
305
330
1F
100
AcDbEntity
  8
1mm
  6
ByBlock
100
AcDbLine
 10
96.06818160282823
 20
233.4008613511735
 30
0.0
 11
103.2164773837159
 21
233.4008613511735
 31
0.0
  0
LINE
  5
306
330
1F
100
AcDbEntity
  8
1mm
  6
ByBlock
100
AcDbLine
 10
103.2164773837159
 20
233.4008613511735
 30
0.0
 11
99.69302662646984
 21
233.4008613511735
 31
0.0
  0
LINE
  5
307
330
1F
100
AcDbEntity
  8
1mm
  6
ByBlock
100
AcDbLine
 10
99.69302662646984
 20
233.4008613511735
 30
0.0
 11
99.69302662646984
 21
227.6968413436785
 31
0.0
  0
LINE
  5
308
330
1F
100
AcDbEntity
  8
1mm
  6
ByBlock
100
AcDbLine
 10
110.2044965052302
 20
233.4312681749432
 30
0.0
 11
117.2195326408336
 21
233.4312681749432
 31
0.0
  0
LINE
  5
309
330
1F
100
AcDbEntity
  8
1mm
  6
ByBlock
100
AcDbLine
 10
117.2195326408336
 20
233.4312681749432
 30
0.0
 11
117.2195326408336
 21
227.8401174004117
 31
0.0
  0
LINE
  5
30A
330
1F
100
AcDbEntity
  8
1mm
  6
ByBlock
100
AcDbLine
 10
117.2195326408336
 20
227.8401174004117
 30
0.0
 11
110.0894878278972
 21
227.8401174004117
 31
0.0
  0
LINE
  5
30B
330
1F
100
AcDbEntity
  8
1mm
  6
ByBlock
100
AcDbLine
 10
110.0894878278972
 20
227.8401174004117
 30
0.0
 11
110.0894878278972
 21
233.4046347402005
 31
0.0
  0
LINE
  5
30C
330
1F
100
AcDbEntity
  8
1mm
  6
ByBlock
100
AcDbLine
 10
132.0636960663252
 20
233.5095707437308
 30
0.0
 11
125.1878973763756
 21
233.5095707437308
 31
0.0
  0
LINE
  5
30D
330
1F
100
AcDbEntity
  8
1mm
  6
ByBlock
100
AcDbLine
 10
125.1878973763756
 20
233.5095707437308
 30
0.0
 11
125.1878973763756
 21
227.8378289672287
 31
0.0
  0
LINE
  5
30E
330
1F
100
AcDbEntity
  8
1mm
  6
ByBlock
100
AcDbLine
 10
125.1878973763756
 20
227.8378289672287
 30
0.0
 11
132.1270674828224
 21
227.8378289672287
 31
0.0
  0
LINE
  5
30F
330
1F
100
AcDbEntity
  8
1mm
  6
ByBlock
100
AcDbLine
 10
138.7927255654887
 20
233.5769028737592
 30
0.0
 11
138.7927255654887
 21
227.8481268224095
 31
0.0
  0
LINE
  5
310
330
1F
100
AcDbEntity
  8
1mm
  6
ByBlock
100
AcDbLine
 10
138.7927255654887
 20
227.8481268224095
 30
0.0
 11
138.7927255654887
 21
230.3322863491009
 31
0.0
  0
LINE
  5
311
330
1F
100
AcDbEntity
  8
1mm
  6
ByBlock
100
AcDbLine
 10
138.7927255654887
 20
230.3322863491009
 30
0.0
 11
144.4201073504428
 21
233.7289942733525
 31
0.0
  0
LINE
  5
312
330
1F
100
AcDbEntity
  8
1mm
  6
ByBlock
100
AcDbLine
 10
144.4201073504428
 20
233.7289942733525
 30
0.0
 11
138.7861389939437
 21
230.3322863491009
 31
0.0
  0
LINE
  5
313
330
1F
100
AcDbEntity
  8
1mm
  6
ByBlock
100
AcDbLine
 10
138.7861389939437
 20
230.3322863491009
 30
0.0
 11
144.3996358480576
 21
230.3322863491009
 31
0.0
  0
LINE
  5
314
330
1F
100
AcDbEntity
  8
1mm
  6
ByBlock
100
AcDbLine
 10
144.3996358480576
 20
230.3322863491009
 30
0.0
 11
144.3996358480576
 21
227.8962026603353
 31
0.0
  0
LINE
  5
315
330
1F
100
AcDbEntity
  8
1mm
  6
ByBlock
100
AcDbLine
 10
35.93271695550526
 20
237.6629037032473
 30
0.0
 11
38.87948782262651
 21
237.6629037032473
 31
0.0
  0
LINE
  5
316
330
1F
100
AcDbEntity
  8
1mm
  6
ByBlock
100
AcDbLine
 10
38.87948782262651
 20
237.6629037032473
 30
0.0
 11
48.0932775993768
 21
259.0791709701659
 31
0.0
  0
LINE
  5
317
330
1F
100
AcDbEntity
  8
1mm
  6
ByBlock
100
AcDbLine
 10
48.0932775993768
 20
259.0791709701659
 30
0.0
 11
58.73600572228045
 21
237.6362206639643
 31
0.0
  0
LINE
  5
318
330
1F
100
AcDbEntity
  8
1mm
  6
ByBlock
100
AcDbLine
 10
58.73600572228045
 20
237.6362206639643
 30
0.0
 11
79.41966568861362
 21
237.6362206639643
 31
0.0
  0
LINE
  5
319
330
1F
100
AcDbEntity
  8
1mm
  6
ByBlock
100
AcDbLine
 10
79.41966568861362
 20
237.6362206639643
 30
0.0
 11
88.5461121900109
 21
259.0388069494525
 31
0.0
  0
LINE
  5
31A
330
1F
100
AcDbEntity
  8
1mm
  6
ByBlock
100
AcDbLine
 10
88.5461121900109
 20
259.0388069494525
 30
0.0
 11
99.56516253883846
 21
237.670671678958
 31
0.0
  0
LINE
  5
31B
330
1F
100
AcDbEntity
  8
1mm
  6
ByBlock
100
AcDbLine
 10
99.56516253883846
 20
237.670671678958
 30
0.0
 11
120.0384582299844
 21
237.670671678958
 31
0.0
  0
LINE
  5
31C
330
1F
100
AcDbEntity
  8
1mm
  6
ByBlock
100
AcDbLine
 10
120.0384582299844
 20
237.670671678958
 30
0.0
 11
129.1331411281826
 21
259.20839708297
 31
0.0
  0
LINE
  5
31D
330
1F
100
AcDbEntity
  8
1mm
  6
ByBlock
100
AcDbLine
 10
129.1331411281826
 20
259.20839708297
 30
0.0
 11
139.943699458716
 21
237.6776508312334
 31
0.0
  0
LINE
  5
31E
330
1F
100
AcDbEntity
  8
1mm
  6
ByBlock
100
AcDbLine
 10
139.943699458716
 20
237.6776508312334
 30
0.0
 11
149.188254802273
 21
237.6776508312334
 31
0.0
  0
LINE
  5
31F
330
1F
100
AcDbEntity
  8
1mm
  6
ByBlock
100
AcDbLine
 10
149.188254802273
 20
237.6776508312334
 30
0.0
 11
149.188254802273
 21
243.4006715674303
 31
0.0
  0
LINE
  5
320
330
1F
100
AcDbEntity
  8
1mm
  6
ByBlock
100
AcDbLine
 10
149.188254802273
 20
243.4006715674303
 30
0.0
 11
149.7427546966237
 21
243.4006715674303
 31
0.0
  0
LWPOLYLINE
  5
321
330
1F
100
AcDbEntity
  8
1mm
  6
ByBlock
100
AcDbPolyline
 90
        4
 70
     1
 43
0.0
 10
152.3603067230114
 20
248.0700588613626
 10
152.3603067230114
 20
239.5149176342365
 10
156.4002345247099
 20
239.5149176342365
 10
156.4002345247099
 20
248.0700588613626
  0
LINE
  5
322
330
1F
100
AcDbEntity
  8
1mm
  6
ByBlock
100
AcDbLine
 10
159.115254109993
 20
239.0361336810149
 30
0.0
 11
159.115254109993
 21
248.3933193981842
 31
0.0
  0
LINE
  5
323
330
1F
100
AcDbEntity
  8
1mm
  6
ByBlock
100
AcDbLine
 10
159.115254109993
 20
248.3933193981842
 30
0.0
 11
169.2795130502909
 21
258.5599875469202
 31
0.0
  0
LINE
  5
324
330
1F
100
AcDbEntity
  8
1mm
  6
ByBlock
100
AcDbLine
 10
169.2795130502909
 20
258.5599875469202
 30
0.0
 11
169.2795130502909
 21
228.9164835339233
 31
0.0
  0
LINE
  5
325
330
1F
100
AcDbEntity
  8
1mm
  6
ByBlock
100
AcDbLine
 10
169.2795130502909
 20
228.9164835339233
 30
0.0
 11
159.115254109993
 21
239.0361336810149
 31
0.0
  0
LWPOLYLINE
  5
326
330
1F
100
AcDbEntity
  8
1mm
  6
ByBlock
100
AcDbPolyline
 90
        4
 70
     1
 43
0.0
 10
8.721020842621819
 20
262.5177448736623
 10
8.721020842621819
 20
249.6860232113559
 10
28.97809019731476
 20
249.6860232113559
 10
28.97809019731476
 20
262.5177448736623
  0
ELLIPSE
  5
327
330
1F
100
AcDbEntity
  8
1mm
  6
ByBlock
100
AcDbEllipse
 10
169.4249363392562
 20
244.0946650907289
 30
0.0
 11
0.0
 21
-8.702739692307691
 31
0.0
210
0.0
220
0.0
230
1.0
 40
0.7557499999999971
 41
0.6318702898594788
 42
2.544879825426747
  0
ELLIPSE
  5
328
330
1F
100
AcDbEntity
  8
1mm
  6
ByBlock
100
AcDbEllipse
 10
168.6803686100254
 20
244.1401127313443
 30
0.0
 11
0.0
 21
-14.23381425230772
 31
0.0
210
0.0
220
0.0
230
1.0
 40
0.9293478260869537
 41
7.062055714832576
 42
8.647307254614091
  0
ELLIPSE
  5
329
330
1F
100
AcDbEntity
  8
1mm
  6
ByBlock
100
AcDbEllipse
 10
168.6706505507023
 20
243.8030991367597
 30
0.0
 11
2.141683294364152E-15
 21
20.60458232123077
 31
0.0
210
0.0
220
0.0
230
1.0
 40
0.9448537533935695
 41
3.902530234276453
 42
5.530492045545554
  0
CIRCLE
  5
32A
330
1F
100
AcDbEntity
  8
1mm
  6
ByBlock
100
AcDbCircle
 10
21.81965920531774
 20
238.361405188452
 30
0.0
 40
0.4950891913846142
  0
CIRCLE
  5
32B
330
1F
100
AcDbEntity
  8
1mm
  6
ByBlock
100
AcDbCircle
 10
26.95620956593313
 20
242.094401479485
 30
0.0
 40
0.6188614892307682
  0
CIRCLE
  5
32C
330
1F
100
AcDbEntity
  8
1mm
  6
ByBlock
100
AcDbCircle
 10
29.86485856531775
 20
237.6806575502982
 30
0.0
 40
0.6188614892307723
  0
CIRCLE
  5
32D
330
1F
100
AcDbEntity
  8
1mm
  6
ByBlock
100
AcDbCircle
 10
24.65042521817866
 20
234.6887932851896
 30
0.0
 40
0.6004059193950221
  0
LINE
  5
32E
330
1F
100
AcDbEntity
  8
1mm
  6
ByBlock
100
AcDbLine
 10
7.946677069669959
 20
237.6126154219887
 30
0.0
 11
12.94707790265458
 21
237.6126154219887
 31
0.0
  0
LINE
  5
32F
330
1F
100
AcDbEntity
  8
1mm
  6
ByBlock
100
AcDbLine
 10
12.94707790265458
 20
237.6126154219887
 30
0.0
 11
10.32310518831611
 21
237.6126154219887
 31
0.0
  0
LINE
  5
330
330
1F
100
AcDbEntity
  8
1mm
  6
ByBlock
100
AcDbLine
 10
10.32310518831611
 20
237.6126154219887
 30
0.0
 11
10.32310518831611
 21
239.9395346214964
 31
0.0
  0
LINE
  5
331
330
1F
100
AcDbEntity
  8
1mm
  6
ByBlock
100
AcDbLine
 10
10.32310518831611
 20
239.9395346214964
 30
0.0
 11
10.32310518831611
 21
235.4342229798964
 31
0.0
  0
LWPOLYLINE
  5
332
330
1F
100
AcDbEntity
  8
1mm
  6
ByBlock
100
AcDbPolyline
 90
        4
 70
     1
 43
0.0
 10
32.92075438132222
 20
227.6055619074312
 10
32.92075438132222
 20
266.0444804078176
 10
4.647000499186841
 20
266.0444804078176
 10
4.647000499186841
 20
227.6055619074312
  0
LWPOLYLINE
  5
333
330
1F
100
AcDbEntity
  8
1mm
  6
ByBlock
100
AcDbPolyline
 90
        4
 70
     1
 43
0.0
 10
1.373082897032969
 20
269.3152827388946
 10
1.373082897032969
 20
224.0554118062022
 10
192.3488672624175
 20
224.0554118062022
 10
192.3488672624175
 20
269.3152827388946
  0
CIRCLE
  5
334
330
1F
100
AcDbEntity
  8
5mm
  6
ByBlock
100
AcDbCircle
 10
18.89144246241758
 20
256.2483719292792
 30
0.0
 40
0.9799793282241858
  0
LWPOLYLINE
  5
335
330
1F
100
AcDbEntity
  8
5mm
  6
ByBlock
100
AcDbPolyline
 90
        4
 70
     1
 43
0.0
 10
-3.801917102967025
 20
274.4902827388945
 10
-3.801917102967025
 20
218.8804118062022
 10
197.5238672624175
 20
218.8804118062022
 10
197.5238672624175
 20
274.4902827388945
  0
LWPOLYLINE
  5
336
330
1F
100
AcDbEntity
  8
1mm
  6
ByBlock
100
AcDbPolyline
 90
        4
 70
     1
 43
0.0
 10
1.373082897032972
 20
269.3152827388946
 10
1.373082897032972
 20
224.0554118062022
 10
192.3488672624175
 20
224.0554118062022
 10
192.3488672624175
 20
269.3152827388946
  0
LINE
  5
337
330
1F
100
AcDbEntity
  8
1mm
  6
ByBlock
100
AcDbLine
 10
40.1764133397152
 20
283.3164628245487
 30
0.0
 11
40.1764133397152
 21
288.9701220935896
 31
0.0
  0
LINE
  5
338
330
1F
100
AcDbEntity
  8
1mm
  6
ByBlock
100
AcDbLine
 10
40.1764133397152
 20
288.9701220935896
 30
0.0
 11
43.81389294741802
 21
283.3317673003244
 31
0.0
  0
LINE
  5
339
330
1F
100
AcDbEntity
  8
1mm
  6
ByBlock
100
AcDbLine
 10
43.81389294741802
 20
283.3317673003244
 30
0.0
 11
47.4574910193567
 21
288.975924478289
 31
0.0
  0
LINE
  5
33A
330
1F
100
AcDbEntity
  8
1mm
  6
ByBlock
100
AcDbLine
 10
47.4574910193567
 20
288.975924478289
 30
0.0
 11
47.4574910193567
 21
283.3078683983058
 31
0.0
  0
LINE
  5
33B
330
1F
100
AcDbEntity
  8
1mm
  6
ByBlock
100
AcDbLine
 10
53.85253067092219
 20
283.3182008281119
 30
0.0
 11
57.40132999476712
 21
288.9760008929846
 31
0.0
  0
LINE
  5
33C
330
1F
100
AcDbEntity
  8
1mm
  6
ByBlock
100
AcDbLine
 10
57.40132999476712
 20
288.9760008929846
 30
0.0
 11
60.8690139054956
 21
283.3182008281119
 31
0.0
  0
LINE
  5
33D
330
1F
100
AcDbEntity
  8
1mm
  6
ByBlock
100
AcDbLine
 10
60.8690139054956
 20
283.3182008281119
 30
0.0
 11
59.63200385546966
 21
285.3663650093024
 31
0.0
  0
LINE
  5
33E
330
1F
100
AcDbEntity
  8
1mm
  6
ByBlock
100
AcDbLine
 10
59.63200385546966
 20
285.3663650093024
 30
0.0
 11
55.15037728078548
 21
285.3663650093024
 31
0.0
  0
LINE
  5
33F
330
1F
100
AcDbEntity
  8
1mm
  6
ByBlock
100
AcDbLine
 10
75.123499793459
 20
288.9768699749276
 30
0.0
 11
68.01571163036198
 21
288.9768699749276
 31
0.0
  0
LINE
  5
340
330
1F
100
AcDbEntity
  8
1mm
  6
ByBlock
100
AcDbLine
 10
68.01571163036198
 20
288.9768699749276
 30
0.0
 11
68.01571163036198
 21
283.3114023742358
 31
0.0
  0
LINE
  5
341
330
1F
100
AcDbEntity
  8
1mm
  6
ByBlock
100
AcDbLine
 10
68.01571163036198
 20
283.3114023742358
 30
0.0
 11
75.08612951705916
 21
283.3114023742358
 31
0.0
  0
LINE
  5
342
330
1F
100
AcDbEntity
  8
1mm
  6
ByBlock
100
AcDbLine
 10
75.08612951705916
 20
283.3114023742358
 30
0.0
 11
75.08612951705916
 21
286.176009411526
 31
0.0
  0
LINE
  5
343
330
1F
100
AcDbEntity
  8
1mm
  6
ByBlock
100
AcDbLine
 10
75.08612951705916
 20
286.176009411526
 30
0.0
 11
71.59492213652692
 21
286.176009411526
 31
0.0
  0
LINE
  5
344
330
1F
100
AcDbEntity
  8
1mm
  6
ByBlock
100
AcDbLine
 10
89.8093630631822
 20
288.9844925567224
 30
0.0
 11
82.787810115289
 21
288.9844925567224
 31
0.0
  0
LINE
  5
345
330
1F
100
AcDbEntity
  8
1mm
  6
ByBlock
100
AcDbLine
 10
82.787810115289
 20
288.9844925567224
 30
0.0
 11
82.787810115289
 21
286.1961502308443
 31
0.0
  0
LINE
  5
346
330
1F
100
AcDbEntity
  8
1mm
  6
ByBlock
100
AcDbLine
 10
82.787810115289
 20
286.1961502308443
 30
0.0
 11
89.75866592998442
 21
286.1961502308443
 31
0.0
  0
LINE
  5
347
330
1F
100
AcDbEntity
  8
1mm
  6
ByBlock
100
AcDbLine
 10
89.75866592998442
 20
286.1961502308443
 30
0.0
 11
89.75866592998442
 21
283.3064136385706
 31
0.0
  0
LINE
  5
348
330
1F
100
AcDbEntity
  8
1mm
  6
ByBlock
100
AcDbLine
 10
89.75866592998442
 20
283.3064136385706
 30
0.0
 11
82.81315868188791
 21
283.3064136385706
 31
0.0
  0
LINE
  5
349
330
1F
100
AcDbEntity
  8
1mm
  6
ByBlock
100
AcDbLine
 10
96.06818160282823
 20
289.0107322838658
 30
0.0
 11
103.2164773837159
 21
289.0107322838658
 31
0.0
  0
LINE
  5
34A
330
1F
100
AcDbEntity
  8
1mm
  6
ByBlock
100
AcDbLine
 10
103.2164773837159
 20
289.0107322838658
 30
0.0
 11
99.69302662646984
 21
289.0107322838658
 31
0.0
  0
LINE
  5
34B
330
1F
100
AcDbEntity
  8
1mm
  6
ByBlock
100
AcDbLine
 10
99.69302662646984
 20
289.0107322838658
 30
0.0
 11
99.69302662646984
 21
283.3067122763708
 31
0.0
  0
LINE
  5
34C
330
1F
100
AcDbEntity
  8
1mm
  6
ByBlock
100
AcDbLine
 10
110.2044965052302
 20
289.0411391076354
 30
0.0
 11
117.2195326408336
 21
289.0411391076354
 31
0.0
  0
LINE
  5
34D
330
1F
100
AcDbEntity
  8
1mm
  6
ByBlock
100
AcDbLine
 10
117.2195326408336
 20
289.0411391076354
 30
0.0
 11
117.2195326408336
 21
283.449988333104
 31
0.0
  0
LINE
  5
34E
330
1F
100
AcDbEntity
  8
1mm
  6
ByBlock
100
AcDbLine
 10
117.2195326408336
 20
283.449988333104
 30
0.0
 11
110.0894878278972
 21
283.449988333104
 31
0.0
  0
LINE
  5
34F
330
1F
100
AcDbEntity
  8
1mm
  6
ByBlock
100
AcDbLine
 10
110.0894878278972
 20
283.449988333104
 30
0.0
 11
110.0894878278972
 21
289.0145056728928
 31
0.0
  0
LINE
  5
350
330
1F
100
AcDbEntity
  8
1mm
  6
ByBlock
100
AcDbLine
 10
132.0636960663252
 20
289.1194416764232
 30
0.0
 11
125.1878973763756
 21
289.1194416764232
 31
0.0
  0
LINE
  5
351
330
1F
100
AcDbEntity
  8
1mm
  6
ByBlock
100
AcDbLine
 10
125.1878973763756
 20
289.1194416764232
 30
0.0
 11
125.1878973763756
 21
283.447699899921
 31
0.0
  0
LINE
  5
352
330
1F
100
AcDbEntity
  8
1mm
  6
ByBlock
100
AcDbLine
 10
125.1878973763756
 20
283.447699899921
 30
0.0
 11
132.1270674828224
 21
283.447699899921
 31
0.0
  0
LINE
  5
353
330
1F
100
AcDbEntity
  8
1mm
  6
ByBlock
100
AcDbLine
 10
138.7927255654887
 20
289.1867738064515
 30
0.0
 11
138.7927255654887
 21
283.4579977551018
 31
0.0
  0
LINE
  5
354
330
1F
100
AcDbEntity
  8
1mm
  6
ByBlock
100
AcDbLine
 10
138.7927255654887
 20
283.4579977551018
 30
0.0
 11
138.7927255654887
 21
285.9421572817932
 31
0.0
  0
LINE
  5
355
330
1F
100
AcDbEntity
  8
1mm
  6
ByBlock
100
AcDbLine
 10
138.7927255654887
 20
285.9421572817932
 30
0.0
 11
144.4201073504428
 21
289.3388652060448
 31
0.0
  0
LINE
  5
356
330
1F
100
AcDbEntity
  8
1mm
  6
ByBlock
100
AcDbLine
 10
144.4201073504428
 20
289.3388652060448
 30
0.0
 11
138.7861389939437
 21
285.9421572817932
 31
0.0
  0
LINE
  5
357
330
1F
100
AcDbEntity
  8
1mm
  6
ByBlock
100
AcDbLine
 10
138.7861389939437
 20
285.9421572817932
 30
0.0
 11
144.3996358480576
 21
285.9421572817932
 31
0.0
  0
LINE
  5
358
330
1F
100
AcDbEntity
  8
1mm
  6
ByBlock
100
AcDbLine
 10
144.3996358480576
 20
285.9421572817932
 30
0.0
 11
144.3996358480576
 21
283.5060735930276
 31
0.0
  0
LINE
  5
359
330
1F
100
AcDbEntity
  8
1mm
  6
ByBlock
100
AcDbLine
 10
35.93271695550526
 20
293.2727746359396
 30
0.0
 11
38.87948782262651
 21
293.2727746359396
 31
0.0
  0
LINE
  5
35A
330
1F
100
AcDbEntity
  8
1mm
  6
ByBlock
100
AcDbLine
 10
38.87948782262651
 20
293.2727746359396
 30
0.0
 11
48.0932775993768
 21
314.6890419028582
 31
0.0
  0
LINE
  5
35B
330
1F
100
AcDbEntity
  8
1mm
  6
ByBlock
100
AcDbLine
 10
48.0932775993768
 20
314.6890419028582
 30
0.0
 11
58.73600572228045
 21
293.2460915966566
 31
0.0
  0
LINE
  5
35C
330
1F
100
AcDbEntity
  8
1mm
  6
ByBlock
100
AcDbLine
 10
58.73600572228045
 20
293.2460915966566
 30
0.0
 11
79.41966568861362
 21
293.2460915966566
 31
0.0
  0
LINE
  5
35D
330
1F
100
AcDbEntity
  8
1mm
  6
ByBlock
100
AcDbLine
 10
79.41966568861362
 20
293.2460915966566
 30
0.0
 11
88.5461121900109
 21
314.6486778821448
 31
0.0
  0
LINE
  5
35E
330
1F
100
AcDbEntity
  8
1mm
  6
ByBlock
100
AcDbLine
 10
88.5461121900109
 20
314.6486778821448
 30
0.0
 11
99.56516253883846
 21
293.2805426116503
 31
0.0
  0
LINE
  5
35F
330
1F
100
AcDbEntity
  8
1mm
  6
ByBlock
100
AcDbLine
 10
99.56516253883846
 20
293.2805426116503
 30
0.0
 11
120.0384582299844
 21
293.2805426116503
 31
0.0
  0
LINE
  5
360
330
1F
100
AcDbEntity
  8
1mm
  6
ByBlock
100
AcDbLine
 10
120.0384582299844
 20
293.2805426116503
 30
0.0
 11
129.1331411281826
 21
314.8182680156623
 31
0.0
  0
LINE
  5
361
330
1F
100
AcDbEntity
  8
1mm
  6
ByBlock
100
AcDbLine
 10
129.1331411281826
 20
314.8182680156623
 30
0.0
 11
139.943699458716
 21
293.2875217639257
 31
0.0
  0
LINE
  5
362
330
1F
100
AcDbEntity
  8
1mm
  6
ByBlock
100
AcDbLine
 10
139.943699458716
 20
293.2875217639257
 30
0.0
 11
149.188254802273
 21
293.2875217639257
 31
0.0
  0
LINE
  5
363
330
1F
100
AcDbEntity
  8
1mm
  6
ByBlock
100
AcDbLine
 10
149.188254802273
 20
293.2875217639257
 30
0.0
 11
149.188254802273
 21
299.0105425001227
 31
0.0
  0
LINE
  5
364
330
1F
100
AcDbEntity
  8
1mm
  6
ByBlock
100
AcDbLine
 10
149.188254802273
 20
299.0105425001227
 30
0.0
 11
149.7427546966237
 21
299.0105425001227
 31
0.0
  0
LWPOLYLINE
  5
365
330
1F
100
AcDbEntity
  8
1mm
  6
ByBlock
100
AcDbPolyline
 90
        4
 70
     1
 43
0.0
 10
152.3603067230114
 20
303.6799297940549
 10
152.3603067230114
 20
295.1247885669288
 10
156.4002345247099
 20
295.1247885669288
 10
156.4002345247099
 20
303.6799297940549
  0
LINE
  5
366
330
1F
100
AcDbEntity
  8
1mm
  6
ByBlock
100
AcDbLine
 10
159.115254109993
 20
294.6460046137072
 30
0.0
 11
159.115254109993
 21
304.0031903308765
 31
0.0
  0
LINE
  5
367
330
1F
100
AcDbEntity
  8
1mm
  6
ByBlock
100
AcDbLine
 10
159.115254109993
 20
304.0031903308765
 30
0.0
 11
169.2795130502909
 21
314.1698584796125
 31
0.0
  0
LINE
  5
368
330
1F
100
AcDbEntity
  8
1mm
  6
ByBlock
100
AcDbLine
 10
169.2795130502909
 20
314.1698584796125
 30
0.0
 11
169.2795130502909
 21
284.5263544666155
 31
0.0
  0
LINE
  5
369
330
1F
100
AcDbEntity
  8
1mm
  6
ByBlock
100
AcDbLine
 10
169.2795130502909
 20
284.5263544666155
 30
0.0
 11
159.115254109993
 21
294.6460046137072
 31
0.0
  0
LWPOLYLINE
  5
36A
330
1F
100
AcDbEntity
  8
1mm
  6
ByBlock
100
AcDbPolyline
 90
        4
 70
     1
 43
0.0
 10
8.721020842621819
 20
318.1276158063546
 10
8.721020842621819
 20
305.2958941440481
 10
28.97809019731476
 20
305.2958941440481
 10
28.97809019731476
 20
318.1276158063546
  0
ELLIPSE
  5
36B
330
1F
100
AcDbEntity
  8
1mm
  6
ByBlock
100
AcDbEllipse
 10
169.4249363392562
 20
299.7045360234212
 30
0.0
 11
0.0
 21
-8.702739692307691
 31
0.0
210
0.0
220
0.0
230
1.0
 40
0.7557499999999971
 41
0.6318702898594788
 42
2.544879825426747
  0
ELLIPSE
  5
36C
330
1F
100
AcDbEntity
  8
1mm
  6
ByBlock
100
AcDbEllipse
 10
168.6803686100254
 20
299.7499836640366
 30
0.0
 11
0.0
 21
-14.23381425230772
 31
0.0
210
0.0
220
0.0
230
1.0
 40
0.9293478260869537
 41
7.062055714832576
 42
8.647307254614091
  0
ELLIPSE
  5
36D
330
1F
100
AcDbEntity
  8
1mm
  6
ByBlock
100
AcDbEllipse
 10
168.6706505507023
 20
299.412970069452
 30
0.0
 11
2.141683294364152E-15
 21
20.60458232123077
 31
0.0
210
0.0
220
0.0
230
1.0
 40
0.9448537533935695
 41
3.902530234276453
 42
5.530492045545554
  0
CIRCLE
  5
36E
330
1F
100
AcDbEntity
  8
1mm
  6
ByBlock
100
AcDbCircle
 10
21.81965920531774
 20
293.9712761211443
 30
0.0
 40
0.4950891913846142
  0
CIRCLE
  5
36F
330
1F
100
AcDbEntity
  8
1mm
  6
ByBlock
100
AcDbCircle
 10
26.95620956593313
 20
297.7042724121773
 30
0.0
 40
0.6188614892307682
  0
CIRCLE
  5
370
330
1F
100
AcDbEntity
  8
1mm
  6
ByBlock
100
AcDbCircle
 10
29.86485856531775
 20
293.2905284829905
 30
0.0
 40
0.6188614892307723
  0
CIRCLE
  5
371
330
1F
100
AcDbEntity
  8
1mm
  6
ByBlock
100
AcDbCircle
 10
24.65042521817866
 20
290.2986642178819
 30
0.0
 40
0.6004059193950221
  0
LINE
  5
372
330
1F
100
AcDbEntity
  8
1mm
  6
ByBlock
100
AcDbLine
 10
7.946677069669959
 20
293.222486354681
 30
0.0
 11
12.94707790265458
 21
293.222486354681
 31
0.0
  0
LINE
  5
373
330
1F
100
AcDbEntity
  8
1mm
  6
ByBlock
100
AcDbLine
 10
12.94707790265458
 20
293.222486354681
 30
0.0
 11
10.32310518831611
 21
293.222486354681
 31
0.0
  0
LINE
  5
374
330
1F
100
AcDbEntity
  8
1mm
  6
ByBlock
100
AcDbLine
 10
10.32310518831611
 20
293.222486354681
 30
0.0
 11
10.32310518831611
 21
295.5494055541886
 31
0.0
  0
LINE
  5
375
330
1F
100
AcDbEntity
  8
1mm
  6
ByBlock
100
AcDbLine
 10
10.32310518831611
 20
295.5494055541886
 30
0.0
 11
10.32310518831611
 21
291.0440939125887
 31
0.0
  0
LWPOLYLINE
  5
376
330
1F
100
AcDbEntity
  8
1mm
  6
ByBlock
100
AcDbPolyline
 90
        4
 70
     1
 43
0.0
 10
32.92075438132222
 20
283.2154328401235
 10
32.92075438132222
 20
321.6543513405099
 10
4.647000499186841
 20
321.6543513405099
 10
4.647000499186841
 20
283.2154328401235
  0
LWPOLYLINE
  5
377
330
1F
100
AcDbEntity
  8
1mm
  6
ByBlock
100
AcDbPolyline
 90
        4
 70
     1
 43
0.0
 10
1.373082897032969
 20
324.9251536715868
 10
1.373082897032969
 20
279.6652827388945
 10
192.3488672624175
 20
279.6652827388945
 10
192.3488672624175
 20
324.9251536715868
  0
CIRCLE
  5
378
330
1F
100
AcDbEntity
  8
5mm
  6
ByBlock
100
AcDbCircle
 10
18.89144246241758
 20
311.8582428619715
 30
0.0
 40
0.9799793282241858
  0
LWPOLYLINE
  5
379
330
1F
100
AcDbEntity
  8
5mm
  6
ByBlock
100
AcDbPolyline
 90
        4
 70
     1
 43
0.0
 10
-3.801917102967025
 20
330.1001536715868
 10
-3.801917102967025
 20
274.4902827388945
 10
197.5238672624175
 20
274.4902827388945
 10
197.5238672624175
 20
330.1001536715868
  0
LWPOLYLINE
  5
37A
330
1F
100
AcDbEntity
  8
1mm
  6
ByBlock
100
AcDbPolyline
 90
        4
 70
     1
 43
0.0
 10
1.373082897032972
 20
324.9251536715868
 10
1.373082897032972
 20
279.6652827388945
 10
192.3488672624175
 20
279.6652827388945
 10
192.3488672624175
 20
324.9251536715868
  0
LINE
  5
37B
330
1F
100
AcDbEntity
  8
1mm
  6
ByBlock
100
AcDbLine
 10
40.1764133397152
 20
338.926333757241
 30
0.0
 11
40.1764133397152
 21
344.579993026282
 31
0.0
  0
LINE
  5
37C
330
1F
100
AcDbEntity
  8
1mm
  6
ByBlock
100
AcDbLine
 10
40.1764133397152
 20
344.579993026282
 30
0.0
 11
43.81389294741802
 21
338.9416382330168
 31
0.0
  0
LINE
  5
37D
330
1F
100
AcDbEntity
  8
1mm
  6
ByBlock
100
AcDbLine
 10
43.81389294741802
 20
338.9416382330168
 30
0.0
 11
47.4574910193567
 21
344.5857954109813
 31
0.0
  0
LINE
  5
37E
330
1F
100
AcDbEntity
  8
1mm
  6
ByBlock
100
AcDbLine
 10
47.4574910193567
 20
344.5857954109813
 30
0.0
 11
47.4574910193567
 21
338.9177393309981
 31
0.0
  0
LINE
  5
37F
330
1F
100
AcDbEntity
  8
1mm
  6
ByBlock
100
AcDbLine
 10
53.85253067092219
 20
338.9280717608042
 30
0.0
 11
57.40132999476712
 21
344.585871825677
 31
0.0
  0
LINE
  5
380
330
1F
100
AcDbEntity
  8
1mm
  6
ByBlock
100
AcDbLine
 10
57.40132999476712
 20
344.585871825677
 30
0.0
 11
60.8690139054956
 21
338.9280717608042
 31
0.0
  0
LINE
  5
381
330
1F
100
AcDbEntity
  8
1mm
  6
ByBlock
100
AcDbLine
 10
60.8690139054956
 20
338.9280717608042
 30
0.0
 11
59.63200385546966
 21
340.9762359419947
 31
0.0
  0
LINE
  5
382
330
1F
100
AcDbEntity
  8
1mm
  6
ByBlock
100
AcDbLine
 10
59.63200385546966
 20
340.9762359419947
 30
0.0
 11
55.15037728078548
 21
340.9762359419947
 31
0.0
  0
LINE
  5
383
330
1F
100
AcDbEntity
  8
1mm
  6
ByBlock
100
AcDbLine
 10
75.123499793459
 20
344.58674090762
 30
0.0
 11
68.01571163036198
 21
344.58674090762
 31
0.0
  0
LINE
  5
384
330
1F
100
AcDbEntity
  8
1mm
  6
ByBlock
100
AcDbLine
 10
68.01571163036198
 20
344.58674090762
 30
0.0
 11
68.01571163036198
 21
338.9212733069281
 31
0.0
  0
LINE
  5
385
330
1F
100
AcDbEntity
  8
1mm
  6
ByBlock
100
AcDbLine
 10
68.01571163036198
 20
338.9212733069281
 30
0.0
 11
75.08612951705916
 21
338.9212733069281
 31
0.0
  0
LINE
  5
386
330
1F
100
AcDbEntity
  8
1mm
  6
ByBlock
100
AcDbLine
 10
75.08612951705916
 20
338.9212733069281
 30
0.0
 11
75.08612951705916
 21
341.7858803442184
 31
0.0
  0
LINE
  5
387
330
1F
100
AcDbEntity
  8
1mm
  6
ByBlock
100
AcDbLine
 10
75.08612951705916
 20
341.7858803442184
 30
0.0
 11
71.59492213652692
 21
341.7858803442184
 31
0.0
  0
LINE
  5
388
330
1F
100
AcDbEntity
  8
1mm
  6
ByBlock
100
AcDbLine
 10
89.8093630631822
 20
344.5943634894148
 30
0.0
 11
82.787810115289
 21
344.5943634894148
 31
0.0
  0
LINE
  5
389
330
1F
100
AcDbEntity
  8
1mm
  6
ByBlock
100
AcDbLine
 10
82.787810115289
 20
344.5943634894148
 30
0.0
 11
82.787810115289
 21
341.8060211635366
 31
0.0
  0
LINE
  5
38A
330
1F
100
AcDbEntity
  8
1mm
  6
ByBlock
100
AcDbLine
 10
82.787810115289
 20
341.8060211635366
 30
0.0
 11
89.75866592998442
 21
341.8060211635366
 31
0.0
  0
LINE
  5
38B
330
1F
100
AcDbEntity
  8
1mm
  6
ByBlock
100
AcDbLine
 10
89.75866592998442
 20
341.8060211635366
 30
0.0
 11
89.75866592998442
 21
338.9162845712629
 31
0.0
  0
LINE
  5
38C
330
1F
100
AcDbEntity
  8
1mm
  6
ByBlock
100
AcDbLine
 10
89.75866592998442
 20
338.9162845712629
 30
0.0
 11
82.81315868188791
 21
338.9162845712629
 31
0.0
  0
LINE
  5
38D
330
1F
100
AcDbEntity
  8
1mm
  6
ByBlock
100
AcDbLine
 10
96.06818160282823
 20
344.6206032165582
 30
0.0
 11
103.2164773837159
 21
344.6206032165582
 31
0.0
  0
LINE
  5
38E
330
1F
100
AcDbEntity
  8
1mm
  6
ByBlock
100
AcDbLine
 10
103.2164773837159
 20
344.6206032165582
 30
0.0
 11
99.69302662646984
 21
344.6206032165582
 31
0.0
  0
LINE
  5
38F
330
1F
100
AcDbEntity
  8
1mm
  6
ByBlock
100
AcDbLine
 10
99.69302662646984
 20
344.6206032165582
 30
0.0
 11
99.69302662646984
 21
338.9165832090632
 31
0.0
  0
LINE
  5
390
330
1F
100
AcDbEntity
  8
1mm
  6
ByBlock
100
AcDbLine
 10
110.2044965052302
 20
344.6510100403278
 30
0.0
 11
117.2195326408336
 21
344.6510100403278
 31
0.0
  0
LINE
  5
391
330
1F
100
AcDbEntity
  8
1mm
  6
ByBlock
100
AcDbLine
 10
117.2195326408336
 20
344.6510100403278
 30
0.0
 11
117.2195326408336
 21
339.0598592657963
 31
0.0
  0
LINE
  5
392
330
1F
100
AcDbEntity
  8
1mm
  6
ByBlock
100
AcDbLine
 10
117.2195326408336
 20
339.0598592657963
 30
0.0
 11
110.0894878278972
 21
339.0598592657963
 31
0.0
  0
LINE
  5
393
330
1F
100
AcDbEntity
  8
1mm
  6
ByBlock
100
AcDbLine
 10
110.0894878278972
 20
339.0598592657963
 30
0.0
 11
110.0894878278972
 21
344.6243766055852
 31
0.0
  0
LINE
  5
394
330
1F
100
AcDbEntity
  8
1mm
  6
ByBlock
100
AcDbLine
 10
132.0636960663252
 20
344.7293126091155
 30
0.0
 11
125.1878973763756
 21
344.7293126091155
 31
0.0
  0
LINE
  5
395
330
1F
100
AcDbEntity
  8
1mm
  6
ByBlock
100
AcDbLine
 10
125.1878973763756
 20
344.7293126091155
 30
0.0
 11
125.1878973763756
 21
339.0575708326134
 31
0.0
  0
LINE
  5
396
330
1F
100
AcDbEntity
  8
1mm
  6
ByBlock
100
AcDbLine
 10
125.1878973763756
 20
339.0575708326134
 30
0.0
 11
132.1270674828224
 21
339.0575708326134
 31
0.0
  0
LINE
  5
397
330
1F
100
AcDbEntity
  8
1mm
  6
ByBlock
100
AcDbLine
 10
138.7927255654887
 20
344.7966447391438
 30
0.0
 11
138.7927255654887
 21
339.0678686877941
 31
0.0
  0
LINE
  5
398
330
1F
100
AcDbEntity
  8
1mm
  6
ByBlock
100
AcDbLine
 10
138.7927255654887
 20
339.0678686877941
 30
0.0
 11
138.7927255654887
 21
341.5520282144856
 31
0.0
  0
LINE
  5
399
330
1F
100
AcDbEntity
  8
1mm
  6
ByBlock
100
AcDbLine
 10
138.7927255654887
 20
341.5520282144856
 30
0.0
 11
144.4201073504428
 21
344.9487361387372
 31
0.0
  0
LINE
  5
39A
330
1F
100
AcDbEntity
  8
1mm
  6
ByBlock
100
AcDbLine
 10
144.4201073504428
 20
344.9487361387372
 30
0.0
 11
138.7861389939437
 21
341.5520282144856
 31
0.0
  0
LINE
  5
39B
330
1F
100
AcDbEntity
  8
1mm
  6
ByBlock
100
AcDbLine
 10
138.7861389939437
 20
341.5520282144856
 30
0.0
 11
144.3996358480576
 21
341.5520282144856
 31
0.0
  0
LINE
  5
39C
330
1F
100
AcDbEntity
  8
1mm
  6
ByBlock
100
AcDbLine
 10
144.3996358480576
 20
341.5520282144856
 30
0.0
 11
144.3996358480576
 21
339.1159445257199
 31
0.0
  0
LINE
  5
39D
330
1F
100
AcDbEntity
  8
1mm
  6
ByBlock
100
AcDbLine
 10
35.93271695550526
 20
348.8826455686319
 30
0.0
 11
38.87948782262651
 21
348.8826455686319
 31
0.0
  0
LINE
  5
39E
330
1F
100
AcDbEntity
  8
1mm
  6
ByBlock
100
AcDbLine
 10
38.87948782262651
 20
348.8826455686319
 30
0.0
 11
48.0932775993768
 21
370.2989128355506
 31
0.0
  0
LINE
  5
39F
330
1F
100
AcDbEntity
  8
1mm
  6
ByBlock
100
AcDbLine
 10
48.0932775993768
 20
370.2989128355506
 30
0.0
 11
58.73600572228045
 21
348.855962529349
 31
0.0
  0
LINE
  5
3A0
330
1F
100
AcDbEntity
  8
1mm
  6
ByBlock
100
AcDbLine
 10
58.73600572228045
 20
348.855962529349
 30
0.0
 11
79.41966568861362
 21
348.855962529349
 31
0.0
  0
LINE
  5
3A1
330
1F
100
AcDbEntity
  8
1mm
  6
ByBlock
100
AcDbLine
 10
79.41966568861362
 20
348.855962529349
 30
0.0
 11
88.5461121900109
 21
370.2585488148371
 31
0.0
  0
LINE
  5
3A2
330
1F
100
AcDbEntity
  8
1mm
  6
ByBlock
100
AcDbLine
 10
88.5461121900109
 20
370.2585488148371
 30
0.0
 11
99.56516253883846
 21
348.8904135443426
 31
0.0
  0
LINE
  5
3A3
330
1F
100
AcDbEntity
  8
1mm
  6
ByBlock
100
AcDbLine
 10
99.56516253883846
 20
348.8904135443426
 30
0.0
 11
120.0384582299844
 21
348.8904135443426
 31
0.0
  0
LINE
  5
3A4
330
1F
100
AcDbEntity
  8
1mm
  6
ByBlock
100
AcDbLine
 10
120.0384582299844
 20
348.8904135443426
 30
0.0
 11
129.1331411281826
 21
370.4281389483547
 31
0.0
  0
LINE
  5
3A5
330
1F
100
AcDbEntity
  8
1mm
  6
ByBlock
100
AcDbLine
 10
129.1331411281826
 20
370.4281389483547
 30
0.0
 11
139.943699458716
 21
348.8973926966181
 31
0.0
  0
LINE
  5
3A6
330
1F
100
AcDbEntity
  8
1mm
  6
ByBlock
100
AcDbLine
 10
139.943699458716
 20
348.8973926966181
 30
0.0
 11
149.188254802273
 21
348.8973926966181
 31
0.0
  0
LINE
  5
3A7
330
1F
100
AcDbEntity
  8
1mm
  6
ByBlock
100
AcDbLine
 10
149.188254802273
 20
348.8973926966181
 30
0.0
 11
149.188254802273
 21
354.620413432815
 31
0.0
  0
LINE
  5
3A8
330
1F
100
AcDbEntity
  8
1mm
  6
ByBlock
100
AcDbLine
 10
149.188254802273
 20
354.620413432815
 30
0.0
 11
149.7427546966237
 21
354.620413432815
 31
0.0
  0
LWPOLYLINE
  5
3A9
330
1F
100
AcDbEntity
  8
1mm
  6
ByBlock
100
AcDbPolyline
 90
        4
 70
     1
 43
0.0
 10
152.3603067230114
 20
359.2898007267473
 10
152.3603067230114
 20
350.7346594996211
 10
156.4002345247099
 20
350.7346594996211
 10
156.4002345247099
 20
359.2898007267473
  0
LINE
  5
3AA
330
1F
100
AcDbEntity
  8
1mm
  6
ByBlock
100
AcDbLine
 10
159.115254109993
 20
350.2558755463996
 30
0.0
 11
159.115254109993
 21
359.6130612635689
 31
0.0
  0
LINE
  5
3AB
330
1F
100
AcDbEntity
  8
1mm
  6
ByBlock
100
AcDbLine
 10
159.115254109993
 20
359.6130612635689
 30
0.0
 11
169.2795130502909
 21
369.7797294123048
 31
0.0
  0
LINE
  5
3AC
330
1F
100
AcDbEntity
  8
1mm
  6
ByBlock
100
AcDbLine
 10
169.2795130502909
 20
369.7797294123048
 30
0.0
 11
169.2795130502909
 21
340.1362253993079
 31
0.0
  0
LINE
  5
3AD
330
1F
100
AcDbEntity
  8
1mm
  6
ByBlock
100
AcDbLine
 10
169.2795130502909
 20
340.1362253993079
 30
0.0
 11
159.115254109993
 21
350.2558755463996
 31
0.0
  0
LWPOLYLINE
  5
3AE
330
1F
100
AcDbEntity
  8
1mm
  6
ByBlock
100
AcDbPolyline
 90
        4
 70
     1
 43
0.0
 10
8.721020842621819
 20
373.737486739047
 10
8.721020842621819
 20
360.9057650767405
 10
28.97809019731476
 20
360.9057650767405
 10
28.97809019731476
 20
373.737486739047
  0
ELLIPSE
  5
3AF
330
1F
100
AcDbEntity
  8
1mm
  6
ByBlock
100
AcDbEllipse
 10
169.4249363392562
 20
355.3144069561135
 30
0.0
 11
0.0
 21
-8.702739692307691
 31
0.0
210
0.0
220
0.0
230
1.0
 40
0.7557499999999971
 41
0.6318702898594788
 42
2.544879825426747
  0
ELLIPSE
  5
3B0
330
1F
100
AcDbEntity
  8
1mm
  6
ByBlock
100
AcDbEllipse
 10
168.6803686100254
 20
355.359854596729
 30
0.0
 11
0.0
 21
-14.23381425230772
 31
0.0
210
0.0
220
0.0
230
1.0
 40
0.9293478260869537
 41
7.062055714832576
 42
8.647307254614091
  0
ELLIPSE
  5
3B1
330
1F
100
AcDbEntity
  8
1mm
  6
ByBlock
100
AcDbEllipse
 10
168.6706505507023
 20
355.0228410021443
 30
0.0
 11
2.141683294364152E-15
 21
20.60458232123077
 31
0.0
210
0.0
220
0.0
230
1.0
 40
0.9448537533935695
 41
3.902530234276453
 42
5.530492045545554
  0
CIRCLE
  5
3B2
330
1F
100
AcDbEntity
  8
1mm
  6
ByBlock
100
AcDbCircle
 10
21.81965920531774
 20
349.5811470538366
 30
0.0
 40
0.4950891913846142
  0
CIRCLE
  5
3B3
330
1F
100
AcDbEntity
  8
1mm
  6
ByBlock
100
AcDbCircle
 10
26.95620956593313
 20
353.3141433448696
 30
0.0
 40
0.6188614892307682
  0
CIRCLE
  5
3B4
330
1F
100
AcDbEntity
  8
1mm
  6
ByBlock
100
AcDbCircle
 10
29.86485856531775
 20
348.9003994156828
 30
0.0
 40
0.6188614892307723
  0
CIRCLE
  5
3B5
330
1F
100
AcDbEntity
  8
1mm
  6
ByBlock
100
AcDbCircle
 10
24.65042521817866
 20
345.9085351505743
 30
0.0
 40
0.6004059193950221
  0
LINE
  5
3B6
330
1F
100
AcDbEntity
  8
1mm
  6
ByBlock
100
AcDbLine
 10
7.946677069669959
 20
348.8323572873733
 30
0.0
 11
12.94707790265458
 21
348.8323572873733
 31
0.0
  0
LINE
  5
3B7
330
1F
100
AcDbEntity
  8
1mm
  6
ByBlock
100
AcDbLine
 10
12.94707790265458
 20
348.8323572873733
 30
0.0
 11
10.32310518831611
 21
348.8323572873733
 31
0.0
  0
LINE
  5
3B8
330
1F
100
AcDbEntity
  8
1mm
  6
ByBlock
100
AcDbLine
 10
10.32310518831611
 20
348.8323572873733
 30
0.0
 11
10.32310518831611
 21
351.159276486881
 31
0.0
  0
LINE
  5
3B9
330
1F
100
AcDbEntity
  8
1mm
  6
ByBlock
100
AcDbLine
 10
10.32310518831611
 20
351.159276486881
 30
0.0
 11
10.32310518831611
 21
346.653964845281
 31
0.0
  0
LWPOLYLINE
  5
3BA
330
1F
100
AcDbEntity
  8
1mm
  6
ByBlock
100
AcDbPolyline
 90
        4
 70
     1
 43
0.0
 10
32.92075438132222
 20
338.8253037728158
 10
32.92075438132222
 20
377.2642222732023
 10
4.647000499186841
 20
377.2642222732023
 10
4.647000499186841
 20
338.8253037728158
  0
LWPOLYLINE
  5
3BB
330
1F
100
AcDbEntity
  8
1mm
  6
ByBlock
100
AcDbPolyline
 90
        4
 70
     1
 43
0.0
 10
1.373082897032969
 20
380.5350246042792
 10
1.373082897032969
 20
335.2751536715868
 10
192.3488672624175
 20
335.2751536715868
 10
192.3488672624175
 20
380.5350246042792
  0
CIRCLE
  5
3BC
330
1F
100
AcDbEntity
  8
5mm
  6
ByBlock
100
AcDbCircle
 10
18.89144246241758
 20
367.4681137946638
 30
0.0
 40
0.9799793282241858
  0
LWPOLYLINE
  5
3BD
330
1F
100
AcDbEntity
  8
5mm
  6
ByBlock
100
AcDbPolyline
 90
        4
 70
     1
 43
0.0
 10
-3.801917102967025
 20
385.7100246042792
 10
-3.801917102967025
 20
330.1001536715868
 10
197.5238672624175
 20
330.1001536715868
 10
197.5238672624175
 20
385.7100246042792
  0
LWPOLYLINE
  5
3BE
330
1F
100
AcDbEntity
  8
1mm
  6
ByBlock
100
AcDbPolyline
 90
        4
 70
     1
 43
0.0
 10
1.373082897032972
 20
380.5350246042792
 10
1.373082897032972
 20
335.2751536715868
 10
192.3488672624175
 20
335.2751536715868
 10
192.3488672624175
 20
380.5350246042792
  0
LINE
  5
3BF
330
1F
100
AcDbEntity
  8
1mm
  6
ByBlock
100
AcDbLine
 10
40.1764133397152
 20
394.5362046899334
 30
0.0
 11
40.1764133397152
 21
400.1898639589743
 31
0.0
  0
LINE
  5
3C0
330
1F
100
AcDbEntity
  8
1mm
  6
ByBlock
100
AcDbLine
 10
40.1764133397152
 20
400.1898639589743
 30
0.0
 11
43.81389294741802
 21
394.5515091657091
 31
0.0
  0
LINE
  5
3C1
330
1F
100
AcDbEntity
  8
1mm
  6
ByBlock
100
AcDbLine
 10
43.81389294741802
 20
394.5515091657091
 30
0.0
 11
47.4574910193567
 21
400.1956663436736
 31
0.0
  0
LINE
  5
3C2
330
1F
100
AcDbEntity
  8
1mm
  6
ByBlock
100
AcDbLine
 10
47.4574910193567
 20
400.1956663436736
 30
0.0
 11
47.4574910193567
 21
394.5276102636905
 31
0.0
  0
LINE
  5
3C3
330
1F
100
AcDbEntity
  8
1mm
  6
ByBlock
100
AcDbLine
 10
53.85253067092219
 20
394.5379426934966
 30
0.0
 11
57.40132999476712
 21
400.1957427583693
 31
0.0
  0
LINE
  5
3C4
330
1F
100
AcDbEntity
  8
1mm
  6
ByBlock
100
AcDbLine
 10
57.40132999476712
 20
400.1957427583693
 30
0.0
 11
60.8690139054956
 21
394.5379426934966
 31
0.0
  0
LINE
  5
3C5
330
1F
100
AcDbEntity
  8
1mm
  6
ByBlock
100
AcDbLine
 10
60.8690139054956
 20
394.5379426934966
 30
0.0
 11
59.63200385546966
 21
396.5861068746871
 31
0.0
  0
LINE
  5
3C6
330
1F
100
AcDbEntity
  8
1mm
  6
ByBlock
100
AcDbLine
 10
59.63200385546966
 20
396.5861068746871
 30
0.0
 11
55.15037728078548
 21
396.5861068746871
 31
0.0
  0
LINE
  5
3C7
330
1F
100
AcDbEntity
  8
1mm
  6
ByBlock
100
AcDbLine
 10
75.123499793459
 20
400.1966118403123
 30
0.0
 11
68.01571163036198
 21
400.1966118403123
 31
0.0
  0
LINE
  5
3C8
330
1F
100
AcDbEntity
  8
1mm
  6
ByBlock
100
AcDbLine
 10
68.01571163036198
 20
400.1966118403123
 30
0.0
 11
68.01571163036198
 21
394.5311442396205
 31
0.0
  0
LINE
  5
3C9
330
1F
100
AcDbEntity
  8
1mm
  6
ByBlock
100
AcDbLine
 10
68.01571163036198
 20
394.5311442396205
 30
0.0
 11
75.08612951705916
 21
394.5311442396205
 31
0.0
  0
LINE
  5
3CA
330
1F
100
AcDbEntity
  8
1mm
  6
ByBlock
100
AcDbLine
 10
75.08612951705916
 20
394.5311442396205
 30
0.0
 11
75.08612951705916
 21
397.3957512769107
 31
0.0
  0
LINE
  5
3CB
330
1F
100
AcDbEntity
  8
1mm
  6
ByBlock
100
AcDbLine
 10
75.08612951705916
 20
397.3957512769107
 30
0.0
 11
71.59492213652692
 21
397.3957512769107
 31
0.0
  0
LINE
  5
3CC
330
1F
100
AcDbEntity
  8
1mm
  6
ByBlock
100
AcDbLine
 10
89.8093630631822
 20
400.2042344221071
 30
0.0
 11
82.787810115289
 21
400.2042344221071
 31
0.0
  0
LINE
  5
3CD
330
1F
100
AcDbEntity
  8
1mm
  6
ByBlock
100
AcDbLine
 10
82.787810115289
 20
400.2042344221071
 30
0.0
 11
82.787810115289
 21
397.415892096229
 31
0.0
  0
LINE
  5
3CE
330
1F
100
AcDbEntity
  8
1mm
  6
ByBlock
100
AcDbLine
 10
82.787810115289
 20
397.415892096229
 30
0.0
 11
89.75866592998442
 21
397.415892096229
 31
0.0
  0
LINE
  5
3CF
330
1F
100
AcDbEntity
  8
1mm
  6
ByBlock
100
AcDbLine
 10
89.75866592998442
 20
397.415892096229
 30
0.0
 11
89.75866592998442
 21
394.5261555039552
 31
0.0
  0
LINE
  5
3D0
330
1F
100
AcDbEntity
  8
1mm
  6
ByBlock
100
AcDbLine
 10
89.75866592998442
 20
394.5261555039552
 30
0.0
 11
82.81315868188791
 21
394.5261555039552
 31
0.0
  0
LINE
  5
3D1
330
1F
100
AcDbEntity
  8
1mm
  6
ByBlock
100
AcDbLine
 10
96.06818160282823
 20
400.2304741492505
 30
0.0
 11
103.2164773837159
 21
400.2304741492505
 31
0.0
  0
LINE
  5
3D2
330
1F
100
AcDbEntity
  8
1mm
  6
ByBlock
100
AcDbLine
 10
103.2164773837159
 20
400.2304741492505
 30
0.0
 11
99.69302662646984
 21
400.2304741492505
 31
0.0
  0
LINE
  5
3D3
330
1F
100
AcDbEntity
  8
1mm
  6
ByBlock
100
AcDbLine
 10
99.69302662646984
 20
400.2304741492505
 30
0.0
 11
99.69302662646984
 21
394.5264541417555
 31
0.0
  0
LINE
  5
3D4
330
1F
100
AcDbEntity
  8
1mm
  6
ByBlock
100
AcDbLine
 10
110.2044965052302
 20
400.2608809730201
 30
0.0
 11
117.2195326408336
 21
400.2608809730201
 31
0.0
  0
LINE
  5
3D5
330
1F
100
AcDbEntity
  8
1mm
  6
ByBlock
100
AcDbLine
 10
117.2195326408336
 20
400.2608809730201
 30
0.0
 11
117.2195326408336
 21
394.6697301984887
 31
0.0
  0
LINE
  5
3D6
330
1F
100
AcDbEntity
  8
1mm
  6
ByBlock
100
AcDbLine
 10
117.2195326408336
 20
394.6697301984887
 30
0.0
 11
110.0894878278972
 21
394.6697301984887
 31
0.0
  0
LINE
  5
3D7
330
1F
100
AcDbEntity
  8
1mm
  6
ByBlock
100
AcDbLine
 10
110.0894878278972
 20
394.6697301984887
 30
0.0
 11
110.0894878278972
 21
400.2342475382775
 31
0.0
  0
LINE
  5
3D8
330
1F
100
AcDbEntity
  8
1mm
  6
ByBlock
100
AcDbLine
 10
132.0636960663252
 20
400.3391835418078
 30
0.0
 11
125.1878973763756
 21
400.3391835418078
 31
0.0
  0
LINE
  5
3D9
330
1F
100
AcDbEntity
  8
1mm
  6
ByBlock
100
AcDbLine
 10
125.1878973763756
 20
400.3391835418078
 30
0.0
 11
125.1878973763756
 21
394.6674417653057
 31
0.0
  0
LINE
  5
3DA
330
1F
100
AcDbEntity
  8
1mm
  6
ByBlock
100
AcDbLine
 10
125.1878973763756
 20
394.6674417653057
 30
0.0
 11
132.1270674828224
 21
394.6674417653057
 31
0.0
  0
LINE
  5
3DB
330
1F
100
AcDbEntity
  8
1mm
  6
ByBlock
100
AcDbLine
 10
138.7927255654887
 20
400.4065156718361
 30
0.0
 11
138.7927255654887
 21
394.6777396204865
 31
0.0
  0
LINE
  5
3DC
330
1F
100
AcDbEntity
  8
1mm
  6
ByBlock
100
AcDbLine
 10
138.7927255654887
 20
394.6777396204865
 30
0.0
 11
138.7927255654887
 21
397.1618991471779
 31
0.0
  0
LINE
  5
3DD
330
1F
100
AcDbEntity
  8
1mm
  6
ByBlock
100
AcDbLine
 10
138.7927255654887
 20
397.1618991471779
 30
0.0
 11
144.4201073504428
 21
400.5586070714295
 31
0.0
  0
LINE
  5
3DE
330
1F
100
AcDbEntity
  8
1mm
  6
ByBlock
100
AcDbLine
 10
144.4201073504428
 20
400.5586070714295
 30
0.0
 11
138.7861389939437
 21
397.1618991471779
 31
0.0
  0
LINE
  5
3DF
330
1F
100
AcDbEntity
  8
1mm
  6
ByBlock
100
AcDbLine
 10
138.7861389939437
 20
397.1618991471779
 30
0.0
 11
144.3996358480576
 21
397.1618991471779
 31
0.0
  0
LINE
  5
3E0
330
1F
100
AcDbEntity
  8
1mm
  6
ByBlock
100
AcDbLine
 10
144.3996358480576
 20
397.1618991471779
 30
0.0
 11
144.3996358480576
 21
394.7258154584122
 31
0.0
  0
LINE
  5
3E1
330
1F
100
AcDbEntity
  8
1mm
  6
ByBlock
100
AcDbLine
 10
35.93271695550526
 20
404.4925165013242
 30
0.0
 11
38.87948782262651
 21
404.4925165013242
 31
0.0
  0
LINE
  5
3E2
330
1F
100
AcDbEntity
  8
1mm
  6
ByBlock
100
AcDbLine
 10
38.87948782262651
 20
404.4925165013242
 30
0.0
 11
48.0932775993768
 21
425.9087837682429
 31
0.0
  0
LINE
  5
3E3
330
1F
100
AcDbEntity
  8
1mm
  6
ByBlock
100
AcDbLine
 10
48.0932775993768
 20
425.9087837682429
 30
0.0
 11
58.73600572228045
 21
404.4658334620412
 31
0.0
  0
LINE
  5
3E4
330
1F
100
AcDbEntity
  8
1mm
  6
ByBlock
100
AcDbLine
 10
58.73600572228045
 20
404.4658334620412
 30
0.0
 11
79.41966568861362
 21
404.4658334620412
 31
0.0
  0
LINE
  5
3E5
330
1F
100
AcDbEntity
  8
1mm
  6
ByBlock
100
AcDbLine
 10
79.41966568861362
 20
404.4658334620412
 30
0.0
 11
88.5461121900109
 21
425.8684197475295
 31
0.0
  0
LINE
  5
3E6
330
1F
100
AcDbEntity
  8
1mm
  6
ByBlock
100
AcDbLine
 10
88.5461121900109
 20
425.8684197475295
 30
0.0
 11
99.56516253883846
 21
404.5002844770349
 31
0.0
  0
LINE
  5
3E7
330
1F
100
AcDbEntity
  8
1mm
  6
ByBlock
100
AcDbLine
 10
99.56516253883846
 20
404.5002844770349
 30
0.0
 11
120.0384582299844
 21
404.5002844770349
 31
0.0
  0
LINE
  5
3E8
330
1F
100
AcDbEntity
  8
1mm
  6
ByBlock
100
AcDbLine
 10
120.0384582299844
 20
404.5002844770349
 30
0.0
 11
129.1331411281826
 21
426.038009881047
 31
0.0
  0
LINE
  5
3E9
330
1F
100
AcDbEntity
  8
1mm
  6
ByBlock
100
AcDbLine
 10
129.1331411281826
 20
426.038009881047
 30
0.0
 11
139.943699458716
 21
404.5072636293104
 31
0.0
  0
LINE
  5
3EA
330
1F
100
AcDbEntity
  8
1mm
  6
ByBlock
100
AcDbLine
 10
139.943699458716
 20
404.5072636293104
 30
0.0
 11
149.188254802273
 21
404.5072636293104
 31
0.0
  0
LINE
  5
3EB
330
1F
100
AcDbEntity
  8
1mm
  6
ByBlock
100
AcDbLine
 10
149.188254802273
 20
404.5072636293104
 30
0.0
 11
149.188254802273
 21
410.2302843655073
 31
0.0
  0
LINE
  5
3EC
330
1F
100
AcDbEntity
  8
1mm
  6
ByBlock
100
AcDbLine
 10
149.188254802273
 20
410.2302843655073
 30
0.0
 11
149.7427546966237
 21
410.2302843655073
 31
0.0
  0
LWPOLYLINE
  5
3ED
330
1F
100
AcDbEntity
  8
1mm
  6
ByBlock
100
AcDbPolyline
 90
        4
 70
     1
 43
0.0
 10
152.3603067230114
 20
414.8996716594396
 10
152.3603067230114
 20
406.3445304323134
 10
156.4002345247099
 20
406.3445304323134
 10
156.4002345247099
 20
414.8996716594396
  0
LINE
  5
3EE
330
1F
100
AcDbEntity
  8
1mm
  6
ByBlock
100
AcDbLine
 10
159.115254109993
 20
405.8657464790919
 30
0.0
 11
159.115254109993
 21
415.2229321962612
 31
0.0
  0
LINE
  5
3EF
330
1F
100
AcDbEntity
  8
1mm
  6
ByBlock
100
AcDbLine
 10
159.115254109993
 20
415.2229321962612
 30
0.0
 11
169.2795130502909
 21
425.3896003449972
 31
0.0
  0
LINE
  5
3F0
330
1F
100
AcDbEntity
  8
1mm
  6
ByBlock
100
AcDbLine
 10
169.2795130502909
 20
425.3896003449972
 30
0.0
 11
169.2795130502909
 21
395.7460963320002
 31
0.0
  0
LINE
  5
3F1
330
1F
100
AcDbEntity
  8
1mm
  6
ByBlock
100
AcDbLine
 10
169.2795130502909
 20
395.7460963320002
 30
0.0
 11
159.115254109993
 21
405.8657464790919
 31
0.0
  0
LWPOLYLINE
  5
3F2
330
1F
100
AcDbEntity
  8
1mm
  6
ByBlock
100
AcDbPolyline
 90
        4
 70
     1
 43
0.0
 10
8.721020842621819
 20
429.3473576717393
 10
8.721020842621819
 20
416.5156360094328
 10
28.97809019731476
 20
416.5156360094328
 10
28.97809019731476
 20
429.3473576717393
  0
ELLIPSE
  5
3F3
330
1F
100
AcDbEntity
  8
1mm
  6
ByBlock
100
AcDbEllipse
 10
169.4249363392562
 20
410.9242778888059
 30
0.0
 11
0.0
 21
-8.702739692307691
 31
0.0
210
0.0
220
0.0
230
1.0
 40
0.7557499999999971
 41
0.6318702898594788
 42
2.544879825426747
  0
ELLIPSE
  5
3F4
330
1F
100
AcDbEntity
  8
1mm
  6
ByBlock
100
AcDbEllipse
 10
168.6803686100254
 20
410.9697255294212
 30
0.0
 11
0.0
 21
-14.23381425230772
 31
0.0
210
0.0
220
0.0
230
1.0
 40
0.9293478260869537
 41
7.062055714832576
 42
8.647307254614091
  0
ELLIPSE
  5
3F5
330
1F
100
AcDbEntity
  8
1mm
  6
ByBlock
100
AcDbEllipse
 10
168.6706505507023
 20
410.6327119348367
 30
0.0
 11
2.141683294364152E-15
 21
20.60458232123077
 31
0.0
210
0.0
220
0.0
230
1.0
 40
0.9448537533935695
 41
3.902530234276453
 42
5.530492045545554
  0
CIRCLE
  5
3F6
330
1F
100
AcDbEntity
  8
1mm
  6
ByBlock
100
AcDbCircle
 10
21.81965920531774
 20
405.1910179865289
 30
0.0
 40
0.4950891913846142
  0
CIRCLE
  5
3F7
330
1F
100
AcDbEntity
  8
1mm
  6
ByBlock
100
AcDbCircle
 10
26.95620956593313
 20
408.9240142775619
 30
0.0
 40
0.6188614892307682
  0
CIRCLE
  5
3F8
330
1F
100
AcDbEntity
  8
1mm
  6
ByBlock
100
AcDbCircle
 10
29.86485856531775
 20
404.5102703483751
 30
0.0
 40
0.6188614892307723
  0
CIRCLE
  5
3F9
330
1F
100
AcDbEntity
  8
1mm
  6
ByBlock
100
AcDbCircle
 10
24.65042521817866
 20
401.5184060832666
 30
0.0
 40
0.6004059193950221
  0
LINE
  5
3FA
330
1F
100
AcDbEntity
  8
1mm
  6
ByBlock
100
AcDbLine
 10
7.946677069669959
 20
404.4422282200657
 30
0.0
 11
12.94707790265458
 21
404.4422282200657
 31
0.0
  0
LINE
  5
3FB
330
1F
100
AcDbEntity
  8
1mm
  6
ByBlock
100
AcDbLine
 10
12.94707790265458
 20
404.4422282200657
 30
0.0
 11
10.32310518831611
 21
404.4422282200657
 31
0.0
  0
LINE
  5
3FC
330
1F
100
AcDbEntity
  8
1mm
  6
ByBlock
100
AcDbLine
 10
10.32310518831611
 20
404.4422282200657
 30
0.0
 11
10.32310518831611
 21
406.7691474195733
 31
0.0
  0
LINE
  5
3FD
330
1F
100
AcDbEntity
  8
1mm
  6
ByBlock
100
AcDbLine
 10
10.32310518831611
 20
406.7691474195733
 30
0.0
 11
10.32310518831611
 21
402.2638357779733
 31
0.0
  0
LWPOLYLINE
  5
3FE
330
1F
100
AcDbEntity
  8
1mm
  6
ByBlock
100
AcDbPolyline
 90
        4
 70
     1
 43
0.0
 10
32.92075438132222
 20
394.4351747055081
 10
32.92075438132222
 20
432.8740932058946
 10
4.647000499186841
 20
432.8740932058946
 10
4.647000499186841
 20
394.4351747055081
  0
LWPOLYLINE
  5
3FF
330
1F
100
AcDbEntity
  8
1mm
  6
ByBlock
100
AcDbPolyline
 90
        4
 70
     1
 43
0.0
 10
1.373082897032969
 20
436.1448955369715
 10
1.373082897032969
 20
390.8850246042792
 10
192.3488672624175
 20
390.8850246042792
 10
192.3488672624175
 20
436.1448955369715
  0
CIRCLE
  5
400
330
1F
100
AcDbEntity
  8
5mm
  6
ByBlock
100
AcDbCircle
 10
18.89144246241758
 20
423.0779847273561
 30
0.0
 40
0.9799793282241858
  0
LWPOLYLINE
  5
401
330
1F
100
AcDbEntity
  8
5mm
  6
ByBlock
100
AcDbPolyline
 90
        4
 70
     1
 43
0.0
 10
-3.801917102967025
 20
441.3198955369715
 10
-3.801917102967025
 20
385.7100246042792
 10
197.5238672624175
 20
385.7100246042792
 10
197.5238672624175
 20
441.3198955369715
  0
LWPOLYLINE
  5
402
330
1F
100
AcDbEntity
  8
1mm
  6
ByBlock
100
AcDbPolyline
 90
        4
 70
     1
 43
0.0
 10
1.373082897032972
 20
436.1448955369715
 10
1.373082897032972
 20
390.8850246042792
 10
192.3488672624175
 20
390.8850246042792
 10
192.3488672624175
 20
436.1448955369715
  0
LINE
  5
403
330
1F
100
AcDbEntity
  8
1mm
  6
ByBlock
100
AcDbLine
 10
40.1764133397152
 20
450.1460756226257
 30
0.0
 11
40.1764133397152
 21
455.7997348916666
 31
0.0
  0
LINE
  5
404
330
1F
100
AcDbEntity
  8
1mm
  6
ByBlock
100
AcDbLine
 10
40.1764133397152
 20
455.7997348916666
 30
0.0
 11
43.81389294741802
 21
450.1613800984014
 31
0.0
  0
LINE
  5
405
330
1F
100
AcDbEntity
  8
1mm
  6
ByBlock
100
AcDbLine
 10
43.81389294741802
 20
450.1613800984014
 30
0.0
 11
47.4574910193567
 21
455.805537276366
 31
0.0
  0
LINE
  5
406
330
1F
100
AcDbEntity
  8
1mm
  6
ByBlock
100
AcDbLine
 10
47.4574910193567
 20
455.805537276366
 30
0.0
 11
47.4574910193567
 21
450.1374811963828
 31
0.0
  0
LINE
  5
407
330
1F
100
AcDbEntity
  8
1mm
  6
ByBlock
100
AcDbLine
 10
53.85253067092219
 20
450.1478136261889
 30
0.0
 11
57.40132999476712
 21
455.8056136910617
 31
0.0
  0
LINE
  5
408
330
1F
100
AcDbEntity
  8
1mm
  6
ByBlock
100
AcDbLine
 10
57.40132999476712
 20
455.8056136910617
 30
0.0
 11
60.8690139054956
 21
450.1478136261889
 31
0.0
  0
LINE
  5
409
330
1F
100
AcDbEntity
  8
1mm
  6
ByBlock
100
AcDbLine
 10
60.8690139054956
 20
450.1478136261889
 30
0.0
 11
59.63200385546966
 21
452.1959778073794
 31
0.0
  0
LINE
  5
40A
330
1F
100
AcDbEntity
  8
1mm
  6
ByBlock
100
AcDbLine
 10
59.63200385546966
 20
452.1959778073794
 30
0.0
 11
55.15037728078548
 21
452.1959778073794
 31
0.0
  0
LINE
  5
40B
330
1F
100
AcDbEntity
  8
1mm
  6
ByBlock
100
AcDbLine
 10
75.123499793459
 20
455.8064827730046
 30
0.0
 11
68.01571163036198
 21
455.8064827730046
 31
0.0
  0
LINE
  5
40C
330
1F
100
AcDbEntity
  8
1mm
  6
ByBlock
100
AcDbLine
 10
68.01571163036198
 20
455.8064827730046
 30
0.0
 11
68.01571163036198
 21
450.1410151723128
 31
0.0
  0
LINE
  5
40D
330
1F
100
AcDbEntity
  8
1mm
  6
ByBlock
100
AcDbLine
 10
68.01571163036198
 20
450.1410151723128
 30
0.0
 11
75.08612951705916
 21
450.1410151723128
 31
0.0
  0
LINE
  5
40E
330
1F
100
AcDbEntity
  8
1mm
  6
ByBlock
100
AcDbLine
 10
75.08612951705916
 20
450.1410151723128
 30
0.0
 11
75.08612951705916
 21
453.005622209603
 31
0.0
  0
LINE
  5
40F
330
1F
100
AcDbEntity
  8
1mm
  6
ByBlock
100
AcDbLine
 10
75.08612951705916
 20
453.005622209603
 30
0.0
 11
71.59492213652692
 21
453.005622209603
 31
0.0
  0
LINE
  5
410
330
1F
100
AcDbEntity
  8
1mm
  6
ByBlock
100
AcDbLine
 10
89.8093630631822
 20
455.8141053547994
 30
0.0
 11
82.787810115289
 21
455.8141053547994
 31
0.0
  0
LINE
  5
411
330
1F
100
AcDbEntity
  8
1mm
  6
ByBlock
100
AcDbLine
 10
82.787810115289
 20
455.8141053547994
 30
0.0
 11
82.787810115289
 21
453.0257630289213
 31
0.0
  0
LINE
  5
412
330
1F
100
AcDbEntity
  8
1mm
  6
ByBlock
100
AcDbLine
 10
82.787810115289
 20
453.0257630289213
 30
0.0
 11
89.75866592998442
 21
453.0257630289213
 31
0.0
  0
LINE
  5
413
330
1F
100
AcDbEntity
  8
1mm
  6
ByBlock
100
AcDbLine
 10
89.75866592998442
 20
453.0257630289213
 30
0.0
 11
89.75866592998442
 21
450.1360264366476
 31
0.0
  0
LINE
  5
414
330
1F
100
AcDbEntity
  8
1mm
  6
ByBlock
100
AcDbLine
 10
89.75866592998442
 20
450.1360264366476
 30
0.0
 11
82.81315868188791
 21
450.1360264366476
 31
0.0
  0
LINE
  5
415
330
1F
100
AcDbEntity
  8
1mm
  6
ByBlock
100
AcDbLine
 10
96.06818160282823
 20
455.8403450819428
 30
0.0
 11
103.2164773837159
 21
455.8403450819428
 31
0.0
  0
LINE
  5
416
330
1F
100
AcDbEntity
  8
1mm
  6
ByBlock
100
AcDbLine
 10
103.2164773837159
 20
455.8403450819428
 30
0.0
 11
99.69302662646984
 21
455.8403450819428
 31
0.0
  0
LINE
  5
417
330
1F
100
AcDbEntity
  8
1mm
  6
ByBlock
100
AcDbLine
 10
99.69302662646984
 20
455.8403450819428
 30
0.0
 11
99.69302662646984
 21
450.1363250744478
 31
0.0
  0
LINE
  5
418
330
1F
100
AcDbEntity
  8
1mm
  6
ByBlock
100
AcDbLine
 10
110.2044965052302
 20
455.8707519057125
 30
0.0
 11
117.2195326408336
 21
455.8707519057125
 31
0.0
  0
LINE
  5
419
330
1F
100
AcDbEntity
  8
1mm
  6
ByBlock
100
AcDbLine
 10
117.2195326408336
 20
455.8707519057125
 30
0.0
 11
117.2195326408336
 21
450.279601131181
 31
0.0
  0
LINE
  5
41A
330
1F
100
AcDbEntity
  8
1mm
  6
ByBlock
100
AcDbLine
 10
117.2195326408336
 20
450.279601131181
 30
0.0
 11
110.0894878278972
 21
450.279601131181
 31
0.0
  0
LINE
  5
41B
330
1F
100
AcDbEntity
  8
1mm
  6
ByBlock
100
AcDbLine
 10
110.0894878278972
 20
450.279601131181
 30
0.0
 11
110.0894878278972
 21
455.8441184709698
 31
0.0
  0
LINE
  5
41C
330
1F
100
AcDbEntity
  8
1mm
  6
ByBlock
100
AcDbLine
 10
132.0636960663252
 20
455.9490544745001
 30
0.0
 11
125.1878973763756
 21
455.9490544745001
 31
0.0
  0
LINE
  5
41D
330
1F
100
AcDbEntity
  8
1mm
  6
ByBlock
100
AcDbLine
 10
125.1878973763756
 20
455.9490544745001
 30
0.0
 11
125.1878973763756
 21
450.277312697998
 31
0.0
  0
LINE
  5
41E
330
1F
100
AcDbEntity
  8
1mm
  6
ByBlock
100
AcDbLine
 10
125.1878973763756
 20
450.277312697998
 30
0.0
 11
132.1270674828224
 21
450.277312697998
 31
0.0
  0
LINE
  5
41F
330
1F
100
AcDbEntity
  8
1mm
  6
ByBlock
100
AcDbLine
 10
138.7927255654887
 20
456.0163866045285
 30
0.0
 11
138.7927255654887
 21
450.2876105531788
 31
0.0
  0
LINE
  5
420
330
1F
100
AcDbEntity
  8
1mm
  6
ByBlock
100
AcDbLine
 10
138.7927255654887
 20
450.2876105531788
 30
0.0
 11
138.7927255654887
 21
452.7717700798702
 31
0.0
  0
LINE
  5
421
330
1F
100
AcDbEntity
  8
1mm
  6
ByBlock
100
AcDbLine
 10
138.7927255654887
 20
452.7717700798702
 30
0.0
 11
144.4201073504428
 21
456.1684780041218
 31
0.0
  0
LINE
  5
422
330
1F
100
AcDbEntity
  8
1mm
  6
ByBlock
100
AcDbLine
 10
144.4201073504428
 20
456.1684780041218
 30
0.0
 11
138.7861389939437
 21
452.7717700798702
 31
0.0
  0
LINE
  5
423
330
1F
100
AcDbEntity
  8
1mm
  6
ByBlock
100
AcDbLine
 10
138.7861389939437
 20
452.7717700798702
 30
0.0
 11
144.3996358480576
 21
452.7717700798702
 31
0.0
  0
LINE
  5
424
330
1F
100
AcDbEntity
  8
1mm
  6
ByBlock
100
AcDbLine
 10
144.3996358480576
 20
452.7717700798702
 30
0.0
 11
144.3996358480576
 21
450.3356863911046
 31
0.0
  0
LINE
  5
425
330
1F
100
AcDbEntity
  8
1mm
  6
ByBlock
100
AcDbLine
 10
35.93271695550526
 20
460.1023874340166
 30
0.0
 11
38.87948782262651
 21
460.1023874340166
 31
0.0
  0
LINE
  5
426
330
1F
100
AcDbEntity
  8
1mm
  6
ByBlock
100
AcDbLine
 10
38.87948782262651
 20
460.1023874340166
 30
0.0
 11
48.0932775993768
 21
481.5186547009353
 31
0.0
  0
LINE
  5
427
330
1F
100
AcDbEntity
  8
1mm
  6
ByBlock
100
AcDbLine
 10
48.0932775993768
 20
481.5186547009353
 30
0.0
 11
58.73600572228045
 21
460.0757043947336
 31
0.0
  0
LINE
  5
428
330
1F
100
AcDbEntity
  8
1mm
  6
ByBlock
100
AcDbLine
 10
58.73600572228045
 20
460.0757043947336
 30
0.0
 11
79.41966568861362
 21
460.0757043947336
 31
0.0
  0
LINE
  5
429
330
1F
100
AcDbEntity
  8
1mm
  6
ByBlock
100
AcDbLine
 10
79.41966568861362
 20
460.0757043947336
 30
0.0
 11
88.5461121900109
 21
481.4782906802218
 31
0.0
  0
LINE
  5
42A
330
1F
100
AcDbEntity
  8
1mm
  6
ByBlock
100
AcDbLine
 10
88.5461121900109
 20
481.4782906802218
 30
0.0
 11
99.56516253883846
 21
460.1101554097273
 31
0.0
  0
LINE
  5
42B
330
1F
100
AcDbEntity
  8
1mm
  6
ByBlock
100
AcDbLine
 10
99.56516253883846
 20
460.1101554097273
 30
0.0
 11
120.0384582299844
 21
460.1101554097273
 31
0.0
  0
LINE
  5
42C
330
1F
100
AcDbEntity
  8
1mm
  6
ByBlock
100
AcDbLine
 10
120.0384582299844
 20
460.1101554097273
 30
0.0
 11
129.1331411281826
 21
481.6478808137393
 31
0.0
  0
LINE
  5
42D
330
1F
100
AcDbEntity
  8
1mm
  6
ByBlock
100
AcDbLine
 10
129.1331411281826
 20
481.6478808137393
 30
0.0
 11
139.943699458716
 21
460.1171345620027
 31
0.0
  0
LINE
  5
42E
330
1F
100
AcDbEntity
  8
1mm
  6
ByBlock
100
AcDbLine
 10
139.943699458716
 20
460.1171345620027
 30
0.0
 11
149.188254802273
 21
460.1171345620027
 31
0.0
  0
LINE
  5
42F
330
1F
100
AcDbEntity
  8
1mm
  6
ByBlock
100
AcDbLine
 10
149.188254802273
 20
460.1171345620027
 30
0.0
 11
149.188254802273
 21
465.8401552981996
 31
0.0
  0
LINE
  5
430
330
1F
100
AcDbEntity
  8
1mm
  6
ByBlock
100
AcDbLine
 10
149.188254802273
 20
465.8401552981996
 30
0.0
 11
149.7427546966237
 21
465.8401552981996
 31
0.0
  0
LWPOLYLINE
  5
431
330
1F
100
AcDbEntity
  8
1mm
  6
ByBlock
100
AcDbPolyline
 90
        4
 70
     1
 43
0.0
 10
152.3603067230114
 20
470.5095425921319
 10
152.3603067230114
 20
461.9544013650058
 10
156.4002345247099
 20
461.9544013650058
 10
156.4002345247099
 20
470.5095425921319
  0
LINE
  5
432
330
1F
100
AcDbEntity
  8
1mm
  6
ByBlock
100
AcDbLine
 10
159.115254109993
 20
461.4756174117842
 30
0.0
 11
159.115254109993
 21
470.8328031289535
 31
0.0
  0
LINE
  5
433
330
1F
100
AcDbEntity
  8
1mm
  6
ByBlock
100
AcDbLine
 10
159.115254109993
 20
470.8328031289535
 30
0.0
 11
169.2795130502909
 21
480.9994712776895
 31
0.0
  0
LINE
  5
434
330
1F
100
AcDbEntity
  8
1mm
  6
ByBlock
100
AcDbLine
 10
169.2795130502909
 20
480.9994712776895
 30
0.0
 11
169.2795130502909
 21
451.3559672646925
 31
0.0
  0
LINE
  5
435
330
1F
100
AcDbEntity
  8
1mm
  6
ByBlock
100
AcDbLine
 10
169.2795130502909
 20
451.3559672646925
 30
0.0
 11
159.115254109993
 21
461.4756174117842
 31
0.0
  0
LWPOLYLINE
  5
436
330
1F
100
AcDbEntity
  8
1mm
  6
ByBlock
100
AcDbPolyline
 90
        4
 70
     1
 43
0.0
 10
8.721020842621819
 20
484.9572286044316
 10
8.721020842621819
 20
472.1255069421252
 10
28.97809019731476
 20
472.1255069421252
 10
28.97809019731476
 20
484.9572286044316
  0
ELLIPSE
  5
437
330
1F
100
AcDbEntity
  8
1mm
  6
ByBlock
100
AcDbEllipse
 10
169.4249363392562
 20
466.5341488214982
 30
0.0
 11
0.0
 21
-8.702739692307691
 31
0.0
210
0.0
220
0.0
230
1.0
 40
0.7557499999999971
 41
0.6318702898594788
 42
2.544879825426747
  0
ELLIPSE
  5
438
330
1F
100
AcDbEntity
  8
1mm
  6
ByBlock
100
AcDbEllipse
 10
168.6803686100254
 20
466.5795964621136
 30
0.0
 11
0.0
 21
-14.23381425230772
 31
0.0
210
0.0
220
0.0
230
1.0
 40
0.9293478260869537
 41
7.062055714832576
 42
8.647307254614091
  0
ELLIPSE
  5
439
330
1F
100
AcDbEntity
  8
1mm
  6
ByBlock
100
AcDbEllipse
 10
168.6706505507023
 20
466.242582867529
 30
0.0
 11
2.141683294364152E-15
 21
20.60458232123077
 31
0.0
210
0.0
220
0.0
230
1.0
 40
0.9448537533935695
 41
3.902530234276453
 42
5.530492045545554
  0
CIRCLE
  5
43A
330
1F
100
AcDbEntity
  8
1mm
  6
ByBlock
100
AcDbCircle
 10
21.81965920531774
 20
460.8008889192213
 30
0.0
 40
0.4950891913846142
  0
CIRCLE
  5
43B
330
1F
100
AcDbEntity
  8
1mm
  6
ByBlock
100
AcDbCircle
 10
26.95620956593313
 20
464.5338852102543
 30
0.0
 40
0.6188614892307682
  0
CIRCLE
  5
43C
330
1F
100
AcDbEntity
  8
1mm
  6
ByBlock
100
AcDbCircle
 10
29.86485856531775
 20
460.1201412810674
 30
0.0
 40
0.6188614892307723
  0
CIRCLE
  5
43D
330
1F
100
AcDbEntity
  8
1mm
  6
ByBlock
100
AcDbCircle
 10
24.65042521817866
 20
457.1282770159589
 30
0.0
 40
0.6004059193950221
  0
LINE
  5
43E
330
1F
100
AcDbEntity
  8
1mm
  6
ByBlock
100
AcDbLine
 10
7.946677069669959
 20
460.052099152758
 30
0.0
 11
12.94707790265458
 21
460.052099152758
 31
0.0
  0
LINE
  5
43F
330
1F
100
AcDbEntity
  8
1mm
  6
ByBlock
100
AcDbLine
 10
12.94707790265458
 20
460.052099152758
 30
0.0
 11
10.32310518831611
 21
460.052099152758
 31
0.0
  0
LINE
  5
440
330
1F
100
AcDbEntity
  8
1mm
  6
ByBlock
100
AcDbLine
 10
10.32310518831611
 20
460.052099152758
 30
0.0
 11
10.32310518831611
 21
462.3790183522656
 31
0.0
  0
LINE
  5
441
330
1F
100
AcDbEntity
  8
1mm
  6
ByBlock
100
AcDbLine
 10
10.32310518831611
 20
462.3790183522656
 30
0.0
 11
10.32310518831611
 21
457.8737067106657
 31
0.0
  0
LWPOLYLINE
  5
442
330
1F
100
AcDbEntity
  8
1mm
  6
ByBlock
100
AcDbPolyline
 90
        4
 70
     1
 43
0.0
 10
32.92075438132222
 20
450.0450456382005
 10
32.92075438132222
 20
488.4839641385869
 10
4.647000499186841
 20
488.4839641385869
 10
4.647000499186841
 20
450.0450456382005
  0
LWPOLYLINE
  5
443
330
1F
100
AcDbEntity
  8
1mm
  6
ByBlock
100
AcDbPolyline
 90
        4
 70
     1
 43
0.0
 10
1.373082897032969
 20
491.7547664696638
 10
1.373082897032969
 20
446.4948955369715
 10
192.3488672624175
 20
446.4948955369715
 10
192.3488672624175
 20
491.7547664696638
  0
CIRCLE
  5
444
330
1F
100
AcDbEntity
  8
5mm
  6
ByBlock
100
AcDbCircle
 10
18.89144246241758
 20
478.6878556600485
 30
0.0
 40
0.9799793282241858
  0
LWPOLYLINE
  5
445
330
1F
100
AcDbEntity
  8
5mm
  6
ByBlock
100
AcDbPolyline
 90
        4
 70
     1
 43
0.0
 10
-3.801917102967025
 20
496.9297664696638
 10
-3.801917102967025
 20
441.3198955369715
 10
197.5238672624175
 20
441.3198955369715
 10
197.5238672624175
 20
496.9297664696638
  0
LWPOLYLINE
  5
446
330
1F
100
AcDbEntity
  8
1mm
  6
ByBlock
100
AcDbPolyline
 90
        4
 70
     1
 43
0.0
 10
1.373082897032972
 20
491.7547664696638
 10
1.373082897032972
 20
446.4948955369715
 10
192.3488672624175
 20
446.4948955369715
 10
192.3488672624175
 20
491.7547664696638
  0
LINE
  5
447
330
1F
100
AcDbEntity
  8
1mm
  6
ByBlock
100
AcDbLine
 10
40.1764133397152
 20
505.755946555318
 30
0.0
 11
40.1764133397152
 21
511.4096058243589
 31
0.0
  0
LINE
  5
448
330
1F
100
AcDbEntity
  8
1mm
  6
ByBlock
100
AcDbLine
 10
40.1764133397152
 20
511.4096058243589
 30
0.0
 11
43.81389294741802
 21
505.7712510310938
 31
0.0
  0
LINE
  5
449
330
1F
100
AcDbEntity
  8
1mm
  6
ByBlock
100
AcDbLine
 10
43.81389294741802
 20
505.7712510310938
 30
0.0
 11
47.4574910193567
 21
511.4154082090583
 31
0.0
  0
LINE
  5
44A
330
1F
100
AcDbEntity
  8
1mm
  6
ByBlock
100
AcDbLine
 10
47.4574910193567
 20
511.4154082090583
 30
0.0
 11
47.4574910193567
 21
505.7473521290751
 31
0.0
  0
LINE
  5
44B
330
1F
100
AcDbEntity
  8
1mm
  6
ByBlock
100
AcDbLine
 10
53.85253067092219
 20
505.7576845588812
 30
0.0
 11
57.40132999476712
 21
511.415484623754
 31
0.0
  0
LINE
  5
44C
330
1F
100
AcDbEntity
  8
1mm
  6
ByBlock
100
AcDbLine
 10
57.40132999476712
 20
511.415484623754
 30
0.0
 11
60.8690139054956
 21
505.7576845588812
 31
0.0
  0
LINE
  5
44D
330
1F
100
AcDbEntity
  8
1mm
  6
ByBlock
100
AcDbLine
 10
60.8690139054956
 20
505.7576845588812
 30
0.0
 11
59.63200385546966
 21
507.8058487400717
 31
0.0
  0
LINE
  5
44E
330
1F
100
AcDbEntity
  8
1mm
  6
ByBlock
100
AcDbLine
 10
59.63200385546966
 20
507.8058487400717
 30
0.0
 11
55.15037728078548
 21
507.8058487400717
 31
0.0
  0
LINE
  5
44F
330
1F
100
AcDbEntity
  8
1mm
  6
ByBlock
100
AcDbLine
 10
75.123499793459
 20
511.416353705697
 30
0.0
 11
68.01571163036198
 21
511.416353705697
 31
0.0
  0
LINE
  5
450
330
1F
100
AcDbEntity
  8
1mm
  6
ByBlock
100
AcDbLine
 10
68.01571163036198
 20
511.416353705697
 30
0.0
 11
68.01571163036198
 21
505.7508861050051
 31
0.0
  0
LINE
  5
451
330
1F
100
AcDbEntity
  8
1mm
  6
ByBlock
100
AcDbLine
 10
68.01571163036198
 20
505.7508861050051
 30
0.0
 11
75.08612951705916
 21
505.7508861050051
 31
0.0
  0
LINE
  5
452
330
1F
100
AcDbEntity
  8
1mm
  6
ByBlock
100
AcDbLine
 10
75.08612951705916
 20
505.7508861050051
 30
0.0
 11
75.08612951705916
 21
508.6154931422953
 31
0.0
  0
LINE
  5
453
330
1F
100
AcDbEntity
  8
1mm
  6
ByBlock
100
AcDbLine
 10
75.08612951705916
 20
508.6154931422953
 30
0.0
 11
71.59492213652692
 21
508.6154931422953
 31
0.0
  0
LINE
  5
454
330
1F
100
AcDbEntity
  8
1mm
  6
ByBlock
100
AcDbLine
 10
89.8093630631822
 20
511.4239762874918
 30
0.0
 11
82.787810115289
 21
511.4239762874918
 31
0.0
  0
LINE
  5
455
330
1F
100
AcDbEntity
  8
1mm
  6
ByBlock
100
AcDbLine
 10
82.787810115289
 20
511.4239762874918
 30
0.0
 11
82.787810115289
 21
508.6356339616136
 31
0.0
  0
LINE
  5
456
330
1F
100
AcDbEntity
  8
1mm
  6
ByBlock
100
AcDbLine
 10
82.787810115289
 20
508.6356339616136
 30
0.0
 11
89.75866592998442
 21
508.6356339616136
 31
0.0
  0
LINE
  5
457
330
1F
100
AcDbEntity
  8
1mm
  6
ByBlock
100
AcDbLine
 10
89.75866592998442
 20
508.6356339616136
 30
0.0
 11
89.75866592998442
 21
505.7458973693399
 31
0.0
  0
LINE
  5
458
330
1F
100
AcDbEntity
  8
1mm
  6
ByBlock
100
AcDbLine
 10
89.75866592998442
 20
505.7458973693399
 30
0.0
 11
82.81315868188791
 21
505.7458973693399
 31
0.0
  0
LINE
  5
459
330
1F
100
AcDbEntity
  8
1mm
  6
ByBlock
100
AcDbLine
 10
96.06818160282823
 20
511.4502160146351
 30
0.0
 11
103.2164773837159
 21
511.4502160146351
 31
0.0
  0
LINE
  5
45A
330
1F
100
AcDbEntity
  8
1mm
  6
ByBlock
100
AcDbLine
 10
103.2164773837159
 20
511.4502160146351
 30
0.0
 11
99.69302662646984
 21
511.4502160146351
 31
0.0
  0
LINE
  5
45B
330
1F
100
AcDbEntity
  8
1mm
  6
ByBlock
100
AcDbLine
 10
99.69302662646984
 20
511.4502160146351
 30
0.0
 11
99.69302662646984
 21
505.7461960071402
 31
0.0
  0
LINE
  5
45C
330
1F
100
AcDbEntity
  8
1mm
  6
ByBlock
100
AcDbLine
 10
110.2044965052302
 20
511.4806228384048
 30
0.0
 11
117.2195326408336
 21
511.4806228384048
 31
0.0
  0
LINE
  5
45D
330
1F
100
AcDbEntity
  8
1mm
  6
ByBlock
100
AcDbLine
 10
117.2195326408336
 20
511.4806228384048
 30
0.0
 11
117.2195326408336
 21
505.8894720638733
 31
0.0
  0
LINE
  5
45E
330
1F
100
AcDbEntity
  8
1mm
  6
ByBlock
100
AcDbLine
 10
117.2195326408336
 20
505.8894720638733
 30
0.0
 11
110.0894878278972
 21
505.8894720638733
 31
0.0
  0
LINE
  5
45F
330
1F
100
AcDbEntity
  8
1mm
  6
ByBlock
100
AcDbLine
 10
110.0894878278972
 20
505.8894720638733
 30
0.0
 11
110.0894878278972
 21
511.4539894036621
 31
0.0
  0
LINE
  5
460
330
1F
100
AcDbEntity
  8
1mm
  6
ByBlock
100
AcDbLine
 10
132.0636960663252
 20
511.5589254071925
 30
0.0
 11
125.1878973763756
 21
511.5589254071925
 31
0.0
  0
LINE
  5
461
330
1F
100
AcDbEntity
  8
1mm
  6
ByBlock
100
AcDbLine
 10
125.1878973763756
 20
511.5589254071925
 30
0.0
 11
125.1878973763756
 21
505.8871836306903
 31
0.0
  0
LINE
  5
462
330
1F
100
AcDbEntity
  8
1mm
  6
ByBlock
100
AcDbLine
 10
125.1878973763756
 20
505.8871836306903
 30
0.0
 11
132.1270674828224
 21
505.8871836306903
 31
0.0
  0
LINE
  5
463
330
1F
100
AcDbEntity
  8
1mm
  6
ByBlock
100
AcDbLine
 10
138.7927255654887
 20
511.6262575372208
 30
0.0
 11
138.7927255654887
 21
505.8974814858711
 31
0.0
  0
LINE
  5
464
330
1F
100
AcDbEntity
  8
1mm
  6
ByBlock
100
AcDbLine
 10
138.7927255654887
 20
505.8974814858711
 30
0.0
 11
138.7927255654887
 21
508.3816410125626
 31
0.0
  0
LINE
  5
465
330
1F
100
AcDbEntity
  8
1mm
  6
ByBlock
100
AcDbLine
 10
138.7927255654887
 20
508.3816410125626
 30
0.0
 11
144.4201073504428
 21
511.7783489368142
 31
0.0
  0
LINE
  5
466
330
1F
100
AcDbEntity
  8
1mm
  6
ByBlock
100
AcDbLine
 10
144.4201073504428
 20
511.7783489368142
 30
0.0
 11
138.7861389939437
 21
508.3816410125626
 31
0.0
  0
LINE
  5
467
330
1F
100
AcDbEntity
  8
1mm
  6
ByBlock
100
AcDbLine
 10
138.7861389939437
 20
508.3816410125626
 30
0.0
 11
144.3996358480576
 21
508.3816410125626
 31
0.0
  0
LINE
  5
468
330
1F
100
AcDbEntity
  8
1mm
  6
ByBlock
100
AcDbLine
 10
144.3996358480576
 20
508.3816410125626
 30
0.0
 11
144.3996358480576
 21
505.9455573237969
 31
0.0
  0
LINE
  5
469
330
1F
100
AcDbEntity
  8
1mm
  6
ByBlock
100
AcDbLine
 10
35.93271695550526
 20
515.7122583667089
 30
0.0
 11
38.87948782262651
 21
515.7122583667089
 31
0.0
  0
LINE
  5
46A
330
1F
100
AcDbEntity
  8
1mm
  6
ByBlock
100
AcDbLine
 10
38.87948782262651
 20
515.7122583667089
 30
0.0
 11
48.0932775993768
 21
537.1285256336275
 31
0.0
  0
LINE
  5
46B
330
1F
100
AcDbEntity
  8
1mm
  6
ByBlock
100
AcDbLine
 10
48.0932775993768
 20
537.1285256336275
 30
0.0
 11
58.73600572228045
 21
515.6855753274259
 31
0.0
  0
LINE
  5
46C
330
1F
100
AcDbEntity
  8
1mm
  6
ByBlock
100
AcDbLine
 10
58.73600572228045
 20
515.6855753274259
 30
0.0
 11
79.41966568861362
 21
515.6855753274259
 31
0.0
  0
LINE
  5
46D
330
1F
100
AcDbEntity
  8
1mm
  6
ByBlock
100
AcDbLine
 10
79.41966568861362
 20
515.6855753274259
 30
0.0
 11
88.5461121900109
 21
537.0881616129142
 31
0.0
  0
LINE
  5
46E
330
1F
100
AcDbEntity
  8
1mm
  6
ByBlock
100
AcDbLine
 10
88.5461121900109
 20
537.0881616129142
 30
0.0
 11
99.56516253883846
 21
515.7200263424196
 31
0.0
  0
LINE
  5
46F
330
1F
100
AcDbEntity
  8
1mm
  6
ByBlock
100
AcDbLine
 10
99.56516253883846
 20
515.7200263424196
 30
0.0
 11
120.0384582299844
 21
515.7200263424196
 31
0.0
  0
LINE
  5
470
330
1F
100
AcDbEntity
  8
1mm
  6
ByBlock
100
AcDbLine
 10
120.0384582299844
 20
515.7200263424196
 30
0.0
 11
129.1331411281826
 21
537.2577517464317
 31
0.0
  0
LINE
  5
471
330
1F
100
AcDbEntity
  8
1mm
  6
ByBlock
100
AcDbLine
 10
129.1331411281826
 20
537.2577517464317
 30
0.0
 11
139.943699458716
 21
515.727005494695
 31
0.0
  0
LINE
  5
472
330
1F
100
AcDbEntity
  8
1mm
  6
ByBlock
100
AcDbLine
 10
139.943699458716
 20
515.727005494695
 30
0.0
 11
149.188254802273
 21
515.727005494695
 31
0.0
  0
LINE
  5
473
330
1F
100
AcDbEntity
  8
1mm
  6
ByBlock
100
AcDbLine
 10
149.188254802273
 20
515.727005494695
 30
0.0
 11
149.188254802273
 21
521.4500262308919
 31
0.0
  0
LINE
  5
474
330
1F
100
AcDbEntity
  8
1mm
  6
ByBlock
100
AcDbLine
 10
149.188254802273
 20
521.4500262308919
 30
0.0
 11
149.7427546966237
 21
521.4500262308919
 31
0.0
  0
LWPOLYLINE
  5
475
330
1F
100
AcDbEntity
  8
1mm
  6
ByBlock
100
AcDbPolyline
 90
        4
 70
     1
 43
0.0
 10
152.3603067230114
 20
526.1194135248243
 10
152.3603067230114
 20
517.5642722976982
 10
156.4002345247099
 20
517.5642722976982
 10
156.4002345247099
 20
526.1194135248243
  0
LINE
  5
476
330
1F
100
AcDbEntity
  8
1mm
  6
ByBlock
100
AcDbLine
 10
159.115254109993
 20
517.0854883444766
 30
0.0
 11
159.115254109993
 21
526.4426740616458
 31
0.0
  0
LINE
  5
477
330
1F
100
AcDbEntity
  8
1mm
  6
ByBlock
100
AcDbLine
 10
159.115254109993
 20
526.4426740616458
 30
0.0
 11
169.2795130502909
 21
536.6093422103818
 31
0.0
  0
LINE
  5
478
330
1F
100
AcDbEntity
  8
1mm
  6
ByBlock
100
AcDbLine
 10
169.2795130502909
 20
536.6093422103818
 30
0.0
 11
169.2795130502909
 21
506.9658381973849
 31
0.0
  0
LINE
  5
479
330
1F
100
AcDbEntity
  8
1mm
  6
ByBlock
100
AcDbLine
 10
169.2795130502909
 20
506.9658381973849
 30
0.0
 11
159.115254109993
 21
517.0854883444766
 31
0.0
  0
LWPOLYLINE
  5
47A
330
1F
100
AcDbEntity
  8
1mm
  6
ByBlock
100
AcDbPolyline
 90
        4
 70
     1
 43
0.0
 10
8.721020842621819
 20
540.567099537124
 10
8.721020842621819
 20
527.7353778748175
 10
28.97809019731476
 20
527.7353778748175
 10
28.97809019731476
 20
540.567099537124
  0
ELLIPSE
  5
47B
330
1F
100
AcDbEntity
  8
1mm
  6
ByBlock
100
AcDbEllipse
 10
169.4249363392562
 20
522.1440197541906
 30
0.0
 11
0.0
 21
-8.702739692307691
 31
0.0
210
0.0
220
0.0
230
1.0
 40
0.7557499999999971
 41
0.6318702898594788
 42
2.544879825426747
  0
ELLIPSE
  5
47C
330
1F
100
AcDbEntity
  8
1mm
  6
ByBlock
100
AcDbEllipse
 10
168.6803686100254
 20
522.1894673948059
 30
0.0
 11
0.0
 21
-14.23381425230772
 31
0.0
210
0.0
220
0.0
230
1.0
 40
0.9293478260869537
 41
7.062055714832576
 42
8.647307254614091
  0
ELLIPSE
  5
47D
330
1F
100
AcDbEntity
  8
1mm
  6
ByBlock
100
AcDbEllipse
 10
168.6706505507023
 20
521.8524538002213
 30
0.0
 11
2.141683294364152E-15
 21
20.60458232123077
 31
0.0
210
0.0
220
0.0
230
1.0
 40
0.9448537533935695
 41
3.902530234276453
 42
5.530492045545554
  0
CIRCLE
  5
47E
330
1F
100
AcDbEntity
  8
1mm
  6
ByBlock
100
AcDbCircle
 10
21.81965920531774
 20
516.4107598519137
 30
0.0
 40
0.4950891913846142
  0
CIRCLE
  5
47F
330
1F
100
AcDbEntity
  8
1mm
  6
ByBlock
100
AcDbCircle
 10
26.95620956593313
 20
520.1437561429466
 30
0.0
 40
0.6188614892307682
  0
CIRCLE
  5
480
330
1F
100
AcDbEntity
  8
1mm
  6
ByBlock
100
AcDbCircle
 10
29.86485856531775
 20
515.7300122137598
 30
0.0
 40
0.6188614892307723
  0
CIRCLE
  5
481
330
1F
100
AcDbEntity
  8
1mm
  6
ByBlock
100
AcDbCircle
 10
24.65042521817866
 20
512.7381479486512
 30
0.0
 40
0.6004059193950221
  0
LINE
  5
482
330
1F
100
AcDbEntity
  8
1mm
  6
ByBlock
100
AcDbLine
 10
7.946677069669959
 20
515.6619700854503
 30
0.0
 11
12.94707790265458
 21
515.6619700854503
 31
0.0
  0
LINE
  5
483
330
1F
100
AcDbEntity
  8
1mm
  6
ByBlock
100
AcDbLine
 10
12.94707790265458
 20
515.6619700854503
 30
0.0
 11
10.32310518831611
 21
515.6619700854503
 31
0.0
  0
LINE
  5
484
330
1F
100
AcDbEntity
  8
1mm
  6
ByBlock
100
AcDbLine
 10
10.32310518831611
 20
515.6619700854503
 30
0.0
 11
10.32310518831611
 21
517.988889284958
 31
0.0
  0
LINE
  5
485
330
1F
100
AcDbEntity
  8
1mm
  6
ByBlock
100
AcDbLine
 10
10.32310518831611
 20
517.988889284958
 30
0.0
 11
10.32310518831611
 21
513.483577643358
 31
0.0
  0
LWPOLYLINE
  5
486
330
1F
100
AcDbEntity
  8
1mm
  6
ByBlock
100
AcDbPolyline
 90
        4
 70
     1
 43
0.0
 10
32.92075438132222
 20
505.6549165708928
 10
32.92075438132222
 20
544.0938350712793
 10
4.647000499186841
 20
544.0938350712793
 10
4.647000499186841
 20
505.6549165708928
  0
LWPOLYLINE
  5
487
330
1F
100
AcDbEntity
  8
1mm
  6
ByBlock
100
AcDbPolyline
 90
        4
 70
     1
 43
0.0
 10
1.373082897032969
 20
547.3646374023562
 10
1.373082897032969
 20
502.1047664696638
 10
192.3488672624175
 20
502.1047664696638
 10
192.3488672624175
 20
547.3646374023562
  0
CIRCLE
  5
488
330
1F
100
AcDbEntity
  8
5mm
  6
ByBlock
100
AcDbCircle
 10
18.89144246241758
 20
534.2977265927408
 30
0.0
 40
0.9799793282241858
  0
LWPOLYLINE
  5
489
330
1F
100
AcDbEntity
  8
5mm
  6
ByBlock
100
AcDbPolyline
 90
        4
 70
     1
 43
0.0
 10
-3.801917102967025
 20
552.5396374023562
 10
-3.801917102967025
 20
496.9297664696638
 10
197.5238672624175
 20
496.9297664696638
 10
197.5238672624175
 20
552.5396374023562
  0
LWPOLYLINE
  5
48A
330
1F
100
AcDbEntity
  8
1mm
  6
ByBlock
100
AcDbPolyline
 90
        4
 70
     1
 43
0.0
 10
1.373082897032972
 20
547.3646374023562
 10
1.373082897032972
 20
502.1047664696638
 10
192.3488672624175
 20
502.1047664696638
 10
192.3488672624175
 20
547.3646374023562
  0
ENDSEC
  0
SECTION
  2
OBJECTS
  0
DICTIONARY
  5
C
330
0
100
AcDbDictionary
281
     1
  3
ACAD_COLOR
350
73
  3
ACAD_DETAILVIEWSTYLE
350
122
  3
ACAD_GROUP
350
D
  3
ACAD_IMAGE_VARS
350
DC
  3
ACAD_LAYOUT
350
1A
  3
ACAD_MATERIAL
350
72
  3
ACAD_MLEADERSTYLE
350
B5
  3
ACAD_MLINESTYLE
350
17
  3
ACAD_PLOTSETTINGS
350
19
  3
ACAD_PLOTSTYLENAME
350
E
  3
ACAD_SCALELIST
350
B6
  3
ACAD_SECTIONVIEWSTYLE
350
123
  3
ACAD_TABLESTYLE
350
86
  3
ACAD_VISUALSTYLE
350
99
  3
ACDB_RECOMPOSE_DATA
350
103D
  3
AcDbVariableDictionary
350
66
  3
APPDATA
350
E1
  0
SUN
  5
ED
330
94
100
AcDbSun
 90
        1
290
     0
 63
     7
421
 16777215
 40
1.0
291
     1
 91
  2455826
 92
 54000000
292
     0
 70
     2
 71
   256
280
     1
  0
DICTIONARY
  5
191
330
2
100
AcDbDictionary
280
     1
281
     1
  3
ACAD_LAYERSTATES
360
192
  0
DICTIONARY
  5
73
102
{ACAD_REACTORS
330
C
102
}
330
C
100
AcDbDictionary
281
     1
  0
DICTIONARY
  5
122
102
{ACAD_REACTORS
330
C
102
}
330
C
100
AcDbDictionary
281
     1
  0
DICTIONARY
  5
D
102
{ACAD_REACTORS
330
C
102
}
330
C
100
AcDbDictionary
281
     1
  0
RASTERVARIABLES
  5
DC
102
{ACAD_REACTORS
330
C
102
}
330
C
100
AcDbRasterVariables
 90
        0
 70
     1
 71
     1
 72
     5
  0
DICTIONARY
  5
1A
102
{ACAD_REACTORS
330
C
102
}
330
C
100
AcDbDictionary
281
     1
  3
Model
350
22
  3
Sheet1
350
59
  3
Sheet2
350
5E
  0
DICTIONARY
  5
72
102
{ACAD_REACTORS
330
C
102
}
330
C
100
AcDbDictionary
281
     1
  3
ByBlock
350
E2
  3
ByLayer
350
96
  3
Global
350
98
  0
DICTIONARY
  5
B5
102
{ACAD_REACTORS
330
C
102
}
330
C
100
AcDbDictionary
281
     1
  3
Standard
350
124
  0
DICTIONARY
  5
17
102
{ACAD_REACTORS
330
C
102
}
330
C
100
AcDbDictionary
281
     1
  3
Standard
350
18
  0
DICTIONARY
  5
19
102
{ACAD_REACTORS
330
C
102
}
330
C
100
AcDbDictionary
281
     1
  0
ACDBDICTIONARYWDFLT
  5
E
102
{ACAD_REACTORS
330
C
102
}
330
C
100
AcDbDictionary
281
     1
  3
Normal
350
F
100
AcDbDictionaryWithDefault
340
F
  0
DICTIONARY
  5
B6
102
{ACAD_REACTORS
330
C
102
}
330
C
100
AcDbDictionary
281
     1
  3
*A1
350
135
  3
A0
350
B7
  3
A1
350
B8
  3
A2
350
B9
  3
A3
350
BA
  3
A4
350
BB
  3
A5
350
BC
  3
A6
350
BD
  3
A7
350
BE
  3
A8
350
BF
  3
A9
350
C0
  3
B0
350
C1
  3
B1
350
C2
  3
B2
350
C3
  3
B3
350
C4
  3
B4
350
C5
  3
B5
350
C6
  3
B6
350
C7
  3
B7
350
C8
  3
B8
350
C9
  3
B9
350
CA
  3
C0
350
CB
  3
C1
350
CC
  3
C2
350
CD
  3
C3
350
CE
  3
C4
350
CF
  3
C5
350
D0
  3
C6
350
D1
  3
C7
350
D2
  3
C8
350
D3
  3
C9
350
D4
  3
D0
350
D5
  3
D1
350
D6
  3
D2
350
D7
  0
DICTIONARY
  5
123
102
{ACAD_REACTORS
330
C
102
}
330
C
100
AcDbDictionary
281
     1
  0
DICTIONARY
  5
86
102
{ACAD_REACTORS
330
C
102
}
330
C
100
AcDbDictionary
281
     1
  3
Standard
350
87
  0
DICTIONARY
  5
99
102
{ACAD_REACTORS
330
C
102
}
330
C
100
AcDbDictionary
281
     1
  3
2dWireframe
350
9F
  3
3D Hidden
350
A1
  3
3dWireframe
350
A0
  3
Basic
350
9E
  3
Brighten
350
A5
  3
ColorChange
350
A9
  3
Conceptual
350
A2
  3
Dim
350
A4
  3
EdgeColorOff
350
E7
  3
Facepattern
350
A8
  3
Flat
350
9A
  3
FlatWithEdges
350
9B
  3
Gouraud
350
9C
  3
GouraudWithEdges
350
9D
  3
Hidden
350
E4
  3
JitterOff
350
E5
  3
Linepattern
350
A7
  3
OverhangOff
350
E6
  3
Realistic
350
A3
  3
Shaded
350
EC
  3
Shaded with edges
350
EB
  3
Shades of Gray
350
E8
  3
Sketchy
350
E9
  3
Thicken
350
A6
  3
Wireframe
350
E3
  3
X-Ray
350
EA
  0
XRECORD
  5
103D
102
{ACAD_REACTORS
330
C
102
}
330
C
100
AcDbXrecord
280
     1
 90
        1
330
87
  0
DICTIONARY
  5
66
102
{ACAD_REACTORS
330
C
102
}
330
C
100
AcDbDictionary
281
     1
  3
CANNOSCALE
350
D8
  3
CMLEADERSTYLE
350
128
  3
CTABLESTYLE
350
89
  3
DIMASSOC
350
67
  3
HIDETEXT
350
6B
  3
LIGHTSINBLOCKS
350
DF
  3
XCLIPFRAME
350
E0
  0
DICTIONARY
  5
E1
102
{ACAD_REACTORS
330
C
102
}
330
C
100
AcDbDictionary
281
     1
  0
DICTIONARY
  5
192
102
{ACAD_REACTORS
330
191
102
}
330
191
100
AcDbDictionary
281
     1
  0
LAYOUT
  5
22
102
{ACAD_REACTORS
330
1A
102
}
330
1A
100
AcDbPlotSettings
  1

  2
none_device
  4
ANSI_A_(8.50_x_11.00_Inches)
  6

 40
6.35
 41
19.05
 42
6.35
 43
19.05
 44
215.9
 45
279.4
 46
11.11250000000003
 47
0.0000000000000142
 48
0.0
 49
0.0
140
0.0
141
0.0
142
1.0
143
1.263157894736842
 70
 11444
 72
     0
 73
     1
 74
     1
  7
monochrome.ctb
 75
     0
 76
     0
 77
     2
 78
   300
147
0.7916666666666665
148
-702.8076765758875
149
-496.2830551296954
100
AcDbLayout
  1
Model
 70
     1
 71
     0
 10
0.0
 20
0.0
 11
12.0
 21
9.0
 12
0.0
 22
0.0
 32
0.0
 14
-3.801917102967025
 24
-3.559071924567021
 34
0.0
 15
197.5238672624175
 25
552.5396374023562
 35
0.0
146
0.0
 13
0.0
 23
0.0
 33
0.0
 16
1.0
 26
0.0
 36
0.0
 17
0.0
 27
1.0
 37
0.0
 76
     0
330
1F
331
94
  0
LAYOUT
  5
59
102
{ACAD_REACTORS
330
1A
102
}
330
1A
100
AcDbPlotSettings
  1

  2
None
  4

  6

 40
0.0
 41
0.0
 42
0.0
 43
0.0
 44
0.0
 45
0.0
 46
0.0
 47
0.0
 48
0.0
 49
0.0
140
0.0
141
0.0
142
1.0
143
1.0
 70
   688
 72
     0
 73
     0
 74
     5
  7

 75
    16
 76
     0
 77
     2
 78
   300
147
1.0
148
0.0
149
0.0
100
AcDbLayout
  1
Sheet1
 70
     1
 71
     1
 10
0.0
 20
0.0
 11
12.0
 21
9.0
 12
0.0
 22
0.0
 32
0.0
 14
0.0
 24
0.0
 34
0.0
 15
0.0
 25
0.0
 35
0.0
146
0.0
 13
0.0
 23
0.0
 33
0.0
 16
1.0
 26
0.0
 36
0.0
 17
0.0
 27
1.0
 37
0.0
 76
     0
330
58
  0
LAYOUT
  5
5E
102
{ACAD_REACTORS
330
1A
102
}
330
1A
100
AcDbPlotSettings
  1

  2
None
  4

  6

 40
0.0
 41
0.0
 42
0.0
 43
0.0
 44
0.0
 45
0.0
 46
0.0
 47
0.0
 48
0.0
 49
0.0
140
0.0
141
0.0
142
1.0
143
1.0
 70
   688
 72
     0
 73
     0
 74
     5
  7

 75
    16
 76
     0
 77
     2
 78
   300
147
1.0
148
0.0
149
0.0
100
AcDbLayout
  1
Sheet2
 70
     1
 71
     2
 10
0.0
 20
0.0
 11
12.0
 21
9.0
 12
0.0
 22
0.0
 32
0.0
 14
0.0
 24
0.0
 34
0.0
 15
0.0
 25
0.0
 35
0.0
146
0.0
 13
0.0
 23
0.0
 33
0.0
 16
1.0
 26
0.0
 36
0.0
 17
0.0
 27
1.0
 37
0.0
 76
     0
330
5D
  0
MATERIAL
  5
E2
102
{ACAD_REACTORS
330
72
102
}
330
72
100
AcDbMaterial
  1
ByBlock
 72
     1
 94
      127
  0
MATERIAL
  5
96
102
{ACAD_REACTORS
330
72
102
}
330
72
100
AcDbMaterial
  1
ByLayer
 72
     1
 94
       63
  0
MATERIAL
  5
98
102
{ACAD_REACTORS
330
72
102
}
330
72
100
AcDbMaterial
  1
Global
 72
     1
 94
       63
  0
MLEADERSTYLE
  5
124
102
{ACAD_REACTORS
330
B5
102
}
330
B5
100
AcDbMLeaderStyle
179
     2
170
     2
171
     1
172
     0
 90
        2
 40
0.0
 41
0.0
173
     1
 91
-1056964608
340
14
 92
       -2
290
     1
 42
0.09
291
     1
 43
0.36
  3
Standard
341
0
 44
0.18
300

342
11
174
     1
178
     6
175
     1
176
     0
 93
-1056964608
 45
0.18
292
     0
297
     0
 46
0.18
343
0
 94
-1056964608
 47
1.0
 49
1.0
140
1.0
293
     1
141
0.0
294
     1
177
     0
142
1.0
295
     0
296
     0
143
0.125
271
     0
272
     9
273
     9
298
     0
  0
MLINESTYLE
  5
18
102
{ACAD_REACTORS
330
17
102
}
330
17
100
AcDbMlineStyle
  2
STANDARD
 70
     0
  3

 62
   256
 51
90.0
 52
90.0
 71
     2
 49
0.5
 62
   256
  6
BYLAYER
 49
-0.5
 62
   256
  6
BYLAYER
  0
ACDBPLACEHOLDER
  5
F
102
{ACAD_REACTORS
330
E
102
}
330
E
  0
SCALE
  5
135
102
{ACAD_REACTORS
330
B6
102
}
330
B6
100
AcDbScale
 70
     0
300
1:1_XREF_XREF
140
1.0
141
1.0
290
     1
  0
SCALE
  5
B7
102
{ACAD_REACTORS
330
B6
102
}
330
B6
100
AcDbScale
 70
     0
300
1:1
140
1.0
141
1.0
290
     0
  0
SCALE
  5
B8
102
{ACAD_REACTORS
330
B6
102
}
330
B6
100
AcDbScale
 70
     0
300
1:2
140
1.0
141
2.0
290
     0
  0
SCALE
  5
B9
102
{ACAD_REACTORS
330
B6
102
}
330
B6
100
AcDbScale
 70
     0
300
1:4
140
1.0
141
4.0
290
     0
  0
SCALE
  5
BA
102
{ACAD_REACTORS
330
B6
102
}
330
B6
100
AcDbScale
 70
     0
300
1:5
140
1.0
141
5.0
290
     0
  0
SCALE
  5
BB
102
{ACAD_REACTORS
330
B6
102
}
330
B6
100
AcDbScale
 70
     0
300
1:8
140
1.0
141
8.0
290
     0
  0
SCALE
  5
BC
102
{ACAD_REACTORS
330
B6
102
}
330
B6
100
AcDbScale
 70
     0
300
1:10
140
1.0
141
10.0
290
     0
  0
SCALE
  5
BD
102
{ACAD_REACTORS
330
B6
102
}
330
B6
100
AcDbScale
 70
     0
300
1:16
140
1.0
141
16.0
290
     0
  0
SCALE
  5
BE
102
{ACAD_REACTORS
330
B6
102
}
330
B6
100
AcDbScale
 70
     0
300
1:20
140
1.0
141
20.0
290
     0
  0
SCALE
  5
BF
102
{ACAD_REACTORS
330
B6
102
}
330
B6
100
AcDbScale
 70
     0
300
1:30
140
1.0
141
30.0
290
     0
  0
SCALE
  5
C0
102
{ACAD_REACTORS
330
B6
102
}
330
B6
100
AcDbScale
 70
     0
300
1:40
140
1.0
141
40.0
290
     0
  0
SCALE
  5
C1
102
{ACAD_REACTORS
330
B6
102
}
330
B6
100
AcDbScale
 70
     0
300
1:50
140
1.0
141
50.0
290
     0
  0
SCALE
  5
C2
102
{ACAD_REACTORS
330
B6
102
}
330
B6
100
AcDbScale
 70
     0
300
1:100
140
1.0
141
100.0
290
     0
  0
SCALE
  5
C3
102
{ACAD_REACTORS
330
B6
102
}
330
B6
100
AcDbScale
 70
     0
300
2:1
140
2.0
141
1.0
290
     0
  0
SCALE
  5
C4
102
{ACAD_REACTORS
330
B6
102
}
330
B6
100
AcDbScale
 70
     0
300
4:1
140
4.0
141
1.0
290
     0
  0
SCALE
  5
C5
102
{ACAD_REACTORS
330
B6
102
}
330
B6
100
AcDbScale
 70
     0
300
8:1
140
8.0
141
1.0
290
     0
  0
SCALE
  5
C6
102
{ACAD_REACTORS
330
B6
102
}
330
B6
100
AcDbScale
 70
     0
300
10:1
140
10.0
141
1.0
290
     0
  0
SCALE
  5
C7
102
{ACAD_REACTORS
330
B6
102
}
330
B6
100
AcDbScale
 70
     0
300
100:1
140
100.0
141
1.0
290
     0
  0
SCALE
  5
C8
102
{ACAD_REACTORS
330
B6
102
}
330
B6
100
AcDbScale
 70
     0
300
1/128" = 1'-0"
140
0.0078125
141
12.0
290
     0
  0
SCALE
  5
C9
102
{ACAD_REACTORS
330
B6
102
}
330
B6
100
AcDbScale
 70
     0
300
1/64" = 1'-0"
140
0.015625
141
12.0
290
     0
  0
SCALE
  5
CA
102
{ACAD_REACTORS
330
B6
102
}
330
B6
100
AcDbScale
 70
     0
300
1/32" = 1'-0"
140
0.03125
141
12.0
290
     0
  0
SCALE
  5
CB
102
{ACAD_REACTORS
330
B6
102
}
330
B6
100
AcDbScale
 70
     0
300
1/16" = 1'-0"
140
0.0625
141
12.0
290
     0
  0
SCALE
  5
CC
102
{ACAD_REACTORS
330
B6
102
}
330
B6
100
AcDbScale
 70
     0
300
3/32" = 1'-0"
140
0.09375
141
12.0
290
     0
  0
SCALE
  5
CD
102
{ACAD_REACTORS
330
B6
102
}
330
B6
100
AcDbScale
 70
     0
300
1/8" = 1'-0"
140
0.125
141
12.0
290
     0
  0
SCALE
  5
CE
102
{ACAD_REACTORS
330
B6
102
}
330
B6
100
AcDbScale
 70
     0
300
3/16" = 1'-0"
140
0.1875
141
12.0
290
     0
  0
SCALE
  5
CF
102
{ACAD_REACTORS
330
B6
102
}
330
B6
100
AcDbScale
 70
     0
300
1/4" = 1'-0"
140
0.25
141
12.0
290
     0
  0
SCALE
  5
D0
102
{ACAD_REACTORS
330
B6
102
}
330
B6
100
AcDbScale
 70
     0
300
3/8" = 1'-0"
140
0.375
141
12.0
290
     0
  0
SCALE
  5
D1
102
{ACAD_REACTORS
330
B6
102
}
330
B6
100
AcDbScale
 70
     0
300
1/2" = 1'-0"
140
0.5
141
12.0
290
     0
  0
SCALE
  5
D2
102
{ACAD_REACTORS
330
B6
102
}
330
B6
100
AcDbScale
 70
     0
300
3/4" = 1'-0"
140
0.75
141
12.0
290
     0
  0
SCALE
  5
D3
102
{ACAD_REACTORS
330
B6
102
}
330
B6
100
AcDbScale
 70
     0
300
1" = 1'-0"
140
1.0
141
12.0
290
     0
  0
SCALE
  5
D4
102
{ACAD_REACTORS
330
B6
102
}
330
B6
100
AcDbScale
 70
     0
300
1-1/2" = 1'-0"
140
1.5
141
12.0
290
     0
  0
SCALE
  5
D5
102
{ACAD_REACTORS
330
B6
102
}
330
B6
100
AcDbScale
 70
     0
300
3" = 1'-0"
140
3.0
141
12.0
290
     0
  0
SCALE
  5
D6
102
{ACAD_REACTORS
330
B6
102
}
330
B6
100
AcDbScale
 70
     0
300
6" = 1'-0"
140
6.0
141
12.0
290
     0
  0
SCALE
  5
D7
102
{ACAD_REACTORS
330
B6
102
}
330
B6
100
AcDbScale
 70
     0
300
1'-0" = 1'-0"
140
12.0
141
12.0
290
     0
  0
TABLESTYLE
  5
87
102
{ACAD_REACTORS
330
86
102
}
102
{ACAD_XDICTIONARY
360
103B
102
}
330
86
100
AcDbTableStyle
  3
Standard
 70
     0
 71
     0
 40
0.06
 41
0.06
280
     0
281
     0
  7
Standard
140
0.18
170
     2
 62
     0
 63
   257
283
     0
 90
      512
 91
        0
  1

274
    -2
284
     1
 64
     0
275
    -2
285
     1
 65
     0
276
    -2
286
     1
 66
     0
277
    -2
287
     1
 67
     0
278
    -2
288
     1
 68
     0
279
    -2
289
     1
 69
     0
  7
Standard
140
0.25
170
     5
 62
     0
 63
   257
283
     0
 90
      512
 91
        0
  1

274
    -2
284
     1
 64
     0
275
    -2
285
     1
 65
     0
276
    -2
286
     1
 66
     0
277
    -2
287
     1
 67
     0
278
    -2
288
     1
 68
     0
279
    -2
289
     1
 69
     0
  7
Standard
140
0.18
170
     5
 62
     0
 63
   257
283
     0
 90
      512
 91
        0
  1

274
    -2
284
     1
 64
     0
275
    -2
285
     1
 65
     0
276
    -2
286
     1
 66
     0
277
    -2
287
     1
 67
     0
278
    -2
288
     1
 68
     0
279
    -2
289
     1
 69
     0
  0
VISUALSTYLE
  5
9F
102
{ACAD_REACTORS
330
99
102
}
330
99
100
AcDbVisualStyle
  2
2dWireframe
 70
     4
177
     3
291
     0
 70
    58
 90
        0
176
     1
 90
        2
176
     1
 90
        1
176
     1
 90
        0
176
     1
 40
-0.6
176
     1
 40
-30.0
176
     1
 62
     7
420
 16777215
176
     1
 90
        1
176
     1
 90
        4
176
     1
 62
     7
176
     1
 62
   257
176
     1
 90
        1
176
     1
 90
        1
176
     1
 40
1.0
176
     1
 90
        0
176
     1
 62
   257
176
     1
 40
1.0
176
     1
 90
        1
176
     1
 90
        6
176
     1
 90
        2
176
     1
 62
     7
176
     1
 90
        5
176
     1
 90
        0
176
     1
 90
        0
176
     1
290
     0
176
     1
 90
        1
176
     1
 40
0.0
176
     1
 90
        0
176
     1
290
     1
176
     1
290
     1
176
     1
290
     0
176
     1
290
     0
176
     1
290
     0
176
     1
290
     0
176
     1
290
     0
176
     1
290
     0
176
     1
290
     0
176
     1
 90
       50
176
     1
 40
0.0
176
     1
 40
1.0
176
     1
 90
        0
176
     1
 62
   178
420
        0
176
     1
 90
       50
176
     1
 90
        3
176
     1
 62
     5
420
      255
176
     1
290
     0
176
     1
 90
       50
176
     1
 90
       50
176
     1
 90
       50
176
     1
290
     0
176
     1
 90
       50
176
     1
 62
   256
176
     0
 40
1.0
176
     0
 90
        2
176
     1
  1
strokes_ogs.tif
176
     1
290
     0
176
     1
 40
1.0
176
     1
 40
1.0
176
     1
  0
VISUALSTYLE
  5
A1
102
{ACAD_REACTORS
330
99
102
}
330
99
100
AcDbVisualStyle
  2
3D Hidden
 70
     6
177
     3
291
     0
 70
    58
 90
        1
176
     1
 90
        2
176
     1
 90
        2
176
     1
 90
        0
176
     1
 40
-0.6
176
     1
 40
-30.0
176
     1
 62
     7
420
 16777215
176
     1
 90
        2
176
     1
 90
        2
176
     1
 62
     7
176
     1
 62
   257
176
     1
 90
        2
176
     1
 90
        1
176
     1
 40
40.0
176
     1
 90
        0
176
     1
 62
   257
176
     1
 40
1.0
176
     1
 90
        1
176
     1
 90
        6
176
     1
 90
        2
176
     1
 62
     7
176
     1
 90
        3
176
     1
 90
        0
176
     1
 90
        0
176
     1
290
     0
176
     1
 90
        1
176
     1
 40
0.0
176
     1
 90
        0
176
     1
290
     0
176
     1
290
     1
176
     1
290
     1
176
     1
290
     0
176
     1
290
     0
176
     1
290
     0
176
     1
290
     0
176
     1
290
     0
176
     1
290
     0
176
     1
 90
       50
176
     1
 40
0.0
176
     1
 40
1.0
176
     1
 90
        0
176
     1
 62
   178
420
        0
176
     1
 90
       50
176
     1
 90
        3
176
     1
 62
     5
420
      255
176
     1
290
     0
176
     1
 90
       50
176
     1
 90
       50
176
     1
 90
       50
176
     1
290
     0
176
     1
 90
       50
176
     1
 62
   256
176
     0
 40
1.0
176
     0
 90
        2
176
     1
  1
strokes_ogs.tif
176
     1
290
     0
176
     1
 40
1.0
176
     1
 40
1.0
176
     1
  0
VISUALSTYLE
  5
A0
102
{ACAD_REACTORS
330
99
102
}
330
99
100
AcDbVisualStyle
  2
3dWireframe
 70
     5
177
     3
291
     0
 70
    58
 90
        0
176
     1
 90
        2
176
     1
 90
        1
176
     1
 90
        0
176
     1
 40
-0.6
176
     1
 40
-30.0
176
     1
 62
     7
420
 16777215
176
     1
 90
        1
176
     1
 90
        4
176
     1
 62
     7
176
     1
 62
   257
176
     1
 90
        1
176
     1
 90
        1
176
     1
 40
1.0
176
     1
 90
        0
176
     1
 62
   257
176
     1
 40
1.0
176
     1
 90
        1
176
     1
 90
        6
176
     1
 90
        2
176
     1
 62
     7
176
     1
 90
        5
176
     1
 90
        0
176
     1
 90
        0
176
     1
290
     0
176
     1
 90
        1
176
     1
 40
0.0
176
     1
 90
        0
176
     1
290
     0
176
     1
290
     1
176
     1
290
     1
176
     1
290
     0
176
     1
290
     0
176
     1
290
     0
176
     1
290
     0
176
     1
290
     0
176
     1
290
     0
176
     1
 90
       50
176
     1
 40
0.0
176
     1
 40
1.0
176
     1
 90
        0
176
     1
 62
   178
420
        0
176
     1
 90
       50
176
     1
 90
        3
176
     1
 62
     5
420
      255
176
     1
290
     0
176
     1
 90
       50
176
     1
 90
       50
176
     1
 90
       50
176
     1
290
     0
176
     1
 90
       50
176
     1
 62
   256
176
     0
 40
1.0
176
     0
 90
        2
176
     1
  1
strokes_ogs.tif
176
     1
290
     0
176
     1
 40
1.0
176
     1
 40
1.0
176
     1
  0
VISUALSTYLE
  5
9E
102
{ACAD_REACTORS
330
99
102
}
330
99
100
AcDbVisualStyle
  2
Basic
 70
     7
177
     3
291
     1
 70
    58
 90
        1
176
     1
 90
        0
176
     1
 90
        1
176
     1
 90
        0
176
     1
 40
-0.6
176
     1
 40
-30.0
176
     1
 62
     7
420
 16777215
176
     1
 90
        0
176
     1
 90
        4
176
     1
 62
     7
176
     1
 62
   257
176
     1
 90
        1
176
     1
 90
        1
176
     1
 40
1.0
176
     1
 90
        8
176
     1
 62
     7
176
     1
 40
1.0
176
     1
 90
        1
176
     1
 90
        6
176
     1
 90
        2
176
     1
 62
     7
176
     1
 90
        5
176
     1
 90
        0
176
     1
 90
        0
176
     1
290
     0
176
     1
 90
        1
176
     1
 40
0.0
176
     1
 90
        0
176
     1
290
     0
176
     1
290
     1
176
     1
290
     1
176
     1
290
     0
176
     1
290
     0
176
     1
290
     0
176
     1
290
     0
176
     1
290
     0
176
     1
290
     0
176
     1
 90
       50
176
     1
 40
0.0
176
     1
 40
1.0
176
     1
 90
        0
176
     1
 62
   178
420
        0
176
     1
 90
       50
176
     1
 90
        3
176
     1
 62
     5
420
      255
176
     1
290
     0
176
     1
 90
       50
176
     1
 90
       50
176
     1
 90
       50
176
     1
290
     0
176
     1
 90
       50
176
     1
 62
   256
176
     0
 40
1.0
176
     0
 90
        2
176
     1
  1
strokes_ogs.tif
176
     1
290
     0
176
     1
 40
1.0
176
     1
 40
1.0
176
     1
  0
VISUALSTYLE
  5
A5
102
{ACAD_REACTORS
330
99
102
}
330
99
100
AcDbVisualStyle
  2
Brighten
 70
    12
177
     3
291
     1
 70
    58
 90
        2
176
     1
 90
        2
176
     1
 90
        1
176
     1
 90
        0
176
     1
 40
-0.6
176
     1
 40
-30.0
176
     1
 62
     7
420
 16777215
176
     1
 90
        1
176
     1
 90
        4
176
     1
 62
     7
176
     1
 62
   257
176
     1
 90
        1
176
     1
 90
        1
176
     1
 40
1.0
176
     1
 90
        8
176
     1
 62
     7
176
     1
 40
1.0
176
     1
 90
        1
176
     1
 90
        6
176
     1
 90
        2
176
     1
 62
     7
176
     1
 90
        5
176
     1
 90
        0
176
     1
 90
        0
176
     1
290
     0
176
     1
 90
        1
176
     1
 40
50.0
176
     1
 90
        0
176
     1
290
     0
176
     1
290
     1
176
     1
290
     1
176
     1
290
     0
176
     1
290
     0
176
     1
290
     0
176
     1
290
     0
176
     1
290
     0
176
     1
290
     0
176
     1
 90
       50
176
     1
 40
0.0
176
     1
 40
1.0
176
     1
 90
        0
176
     1
 62
   178
420
        0
176
     1
 90
       50
176
     1
 90
        3
176
     1
 62
     5
420
      255
176
     1
290
     0
176
     1
 90
       50
176
     1
 90
       50
176
     1
 90
       50
176
     1
290
     0
176
     1
 90
       50
176
     1
 62
   256
176
     0
 40
1.0
176
     0
 90
        2
176
     1
  1
strokes_ogs.tif
176
     1
290
     0
176
     1
 40
1.0
176
     1
 40
1.0
176
     1
  0
VISUALSTYLE
  5
A9
102
{ACAD_REACTORS
330
99
102
}
330
99
100
AcDbVisualStyle
  2
ColorChange
 70
    16
177
     3
291
     1
 70
    58
 90
        2
176
     1
 90
        2
176
     1
 90
        3
176
     1
 90
        0
176
     1
 40
-0.6
176
     1
 40
-30.0
176
     1
 62
     8
420
  8421504
176
     1
 90
        1
176
     1
 90
        4
176
     1
 62
     7
176
     1
 62
   257
176
     1
 90
        1
176
     1
 90
        1
176
     1
 40
1.0
176
     1
 90
        8
176
     1
 62
     8
420
  8421504
176
     1
 40
1.0
176
     1
 90
        1
176
     1
 90
        6
176
     1
 90
        2
176
     1
 62
     7
176
     1
 90
        5
176
     1
 90
        0
176
     1
 90
        0
176
     1
290
     0
176
     1
 90
        1
176
     1
 40
0.0
176
     1
 90
        0
176
     1
290
     0
176
     1
290
     1
176
     1
290
     1
176
     1
290
     0
176
     1
290
     0
176
     1
290
     0
176
     1
290
     0
176
     1
290
     0
176
     1
290
     0
176
     1
 90
       50
176
     1
 40
0.0
176
     1
 40
1.0
176
     1
 90
        0
176
     1
 62
   178
420
        0
176
     1
 90
       50
176
     1
 90
        3
176
     1
 62
     5
420
      255
176
     1
290
     0
176
     1
 90
       50
176
     1
 90
       50
176
     1
 90
       50
176
     1
290
     0
176
     1
 90
       50
176
     1
 62
   256
176
     0
 40
1.0
176
     0
 90
        2
176
     1
  1
strokes_ogs.tif
176
     1
290
     0
176
     1
 40
1.0
176
     1
 40
1.0
176
     1
  0
VISUALSTYLE
  5
A2
102
{ACAD_REACTORS
330
99
102
}
330
99
100
AcDbVisualStyle
  2
Conceptual
 70
     9
177
     3
291
     0
 70
    58
 90
        3
176
     1
 90
        2
176
     1
 90
        1
176
     1
 90
        0
176
     1
 40
-0.6
176
     1
 40
-30.0
176
     1
 62
     7
420
 16777215
176
     1
 90
        2
176
     1
 90
        2
176
     1
 62
     7
176
     1
 62
   257
176
     1
 90
        1
176
     1
 90
        1
176
     1
 40
40.0
176
     1
 90
        8
176
     1
 62
     7
176
     1
 40
1.0
176
     1
 90
        1
176
     1
 90
        6
176
     1
 90
        2
176
     1
 62
     7
176
     1
 90
        3
176
     1
 90
        0
176
     1
 90
        0
176
     1
290
     0
176
     1
 90
        1
176
     1
 40
0.0
176
     1
 90
        0
176
     1
290
     0
176
     1
290
     1
176
     1
290
     1
176
     1
290
     0
176
     1
290
     0
176
     1
290
     0
176
     1
290
     0
176
     1
290
     0
176
     1
290
     0
176
     1
 90
       50
176
     1
 40
0.0
176
     1
 40
1.0
176
     1
 90
        0
176
     1
 62
   178
420
        0
176
     1
 90
       50
176
     1
 90
        3
176
     1
 62
     5
420
      255
176
     1
290
     0
176
     1
 90
       50
176
     1
 90
       50
176
     1
 90
       50
176
     1
290
     0
176
     1
 90
       50
176
     1
 62
   256
176
     0
 40
1.0
176
     0
 90
        2
176
     1
  1
strokes_ogs.tif
176
     1
290
     0
176
     1
 40
1.0
176
     1
 40
1.0
176
     1
  0
VISUALSTYLE
  5
A4
102
{ACAD_REACTORS
330
99
102
}
330
99
100
AcDbVisualStyle
  2
Dim
 70
    11
177
     3
291
     1
 70
    58
 90
        2
176
     1
 90
        2
176
     1
 90
        1
176
     1
 90
        0
176
     1
 40
-0.6
176
     1
 40
-30.0
176
     1
 62
     7
420
 16777215
176
     1
 90
        1
176
     1
 90
        4
176
     1
 62
     7
176
     1
 62
   257
176
     1
 90
        1
176
     1
 90
        1
176
     1
 40
1.0
176
     1
 90
        8
176
     1
 62
     7
176
     1
 40
1.0
176
     1
 90
        1
176
     1
 90
        6
176
     1
 90
        2
176
     1
 62
     7
176
     1
 90
        5
176
     1
 90
        0
176
     1
 90
        0
176
     1
290
     0
176
     1
 90
        1
176
     1
 40
-50.0
176
     1
 90
        0
176
     1
290
     0
176
     1
290
     1
176
     1
290
     1
176
     1
290
     0
176
     1
290
     0
176
     1
290
     0
176
     1
290
     0
176
     1
290
     0
176
     1
290
     0
176
     1
 90
       50
176
     1
 40
0.0
176
     1
 40
1.0
176
     1
 90
        0
176
     1
 62
   178
420
        0
176
     1
 90
       50
176
     1
 90
        3
176
     1
 62
     5
420
      255
176
     1
290
     0
176
     1
 90
       50
176
     1
 90
       50
176
     1
 90
       50
176
     1
290
     0
176
     1
 90
       50
176
     1
 62
   256
176
     0
 40
1.0
176
     0
 90
        2
176
     1
  1
strokes_ogs.tif
176
     1
290
     0
176
     1
 40
1.0
176
     1
 40
1.0
176
     1
  0
VISUALSTYLE
  5
E7
102
{ACAD_REACTORS
330
99
102
}
330
99
100
AcDbVisualStyle
  2
EdgeColorOff
 70
    22
177
     3
291
     1
 70
    58
 90
        2
176
     0
 90
        2
176
     0
 90
        0
176
     0
 90
        0
176
     0
 40
0.6
176
     0
 40
30.0
176
     0
 62
     7
420
 16777215
176
     0
 90
        1
176
     0
 90
        4
176
     0
 62
     7
176
     0
 62
   257
176
     0
 90
        1
176
     0
 90
        1
176
     0
 40
1.0
176
     0
 90
        8
176
     2
 62
     7
176
     0
 40
1.0
176
     0
 90
        1
176
     0
 90
        6
176
     0
 90
        2
176
     0
 62
     7
176
     0
 90
        5
176
     0
 90
        0
176
     0
 90
        0
176
     0
290
     0
176
     0
 90
        1
176
     0
 40
0.0
176
     0
 90
        0
176
     0
290
     0
176
     0
290
     1
176
     0
290
     1
176
     0
290
     0
176
     0
290
     0
176
     0
290
     0
176
     0
290
     0
176
     0
290
     0
176
     0
290
     0
176
     0
 90
       50
176
     0
 40
0.0
176
     0
 40
1.0
176
     0
 90
        0
176
     0
 62
   178
420
        0
176
     0
 90
       50
176
     0
 90
        3
176
     0
 62
     5
420
      255
176
     0
290
     0
176
     0
 90
       50
176
     0
 90
       50
176
     0
 90
       50
176
     0
290
     0
176
     0
 90
       50
176
     0
 62
   256
176
     0
 40
1.0
176
     0
 90
        2
176
     0
  1
strokes_ogs.tif
176
     0
290
     0
176
     0
 40
1.0
176
     0
 40
1.0
176
     0
  0
VISUALSTYLE
  5
A8
102
{ACAD_REACTORS
330
99
102
}
330
99
100
AcDbVisualStyle
  2
Facepattern
 70
    15
177
     3
291
     1
 70
    58
 90
        2
176
     1
 90
        2
176
     1
 90
        1
176
     1
 90
        0
176
     1
 40
-0.6
176
     1
 40
-30.0
176
     1
 62
     7
420
 16777215
176
     1
 90
        1
176
     1
 90
        4
176
     1
 62
     7
176
     1
 62
   257
176
     1
 90
        1
176
     1
 90
        1
176
     1
 40
1.0
176
     1
 90
        8
176
     1
 62
     7
176
     1
 40
1.0
176
     1
 90
        1
176
     1
 90
        6
176
     1
 90
        2
176
     1
 62
     7
176
     1
 90
        5
176
     1
 90
        0
176
     1
 90
        0
176
     1
290
     0
176
     1
 90
        1
176
     1
 40
0.0
176
     1
 90
        0
176
     1
290
     0
176
     1
290
     1
176
     1
290
     1
176
     1
290
     0
176
     1
290
     0
176
     1
290
     0
176
     1
290
     0
176
     1
290
     0
176
     1
290
     0
176
     1
 90
       50
176
     1
 40
0.0
176
     1
 40
1.0
176
     1
 90
        0
176
     1
 62
   178
420
        0
176
     1
 90
       50
176
     1
 90
        3
176
     1
 62
     5
420
      255
176
     1
290
     0
176
     1
 90
       50
176
     1
 90
       50
176
     1
 90
       50
176
     1
290
     0
176
     1
 90
       50
176
     1
 62
   256
176
     0
 40
1.0
176
     0
 90
        2
176
     1
  1
strokes_ogs.tif
176
     1
290
     0
176
     1
 40
1.0
176
     1
 40
1.0
176
     1
  0
VISUALSTYLE
  5
9A
102
{ACAD_REACTORS
330
99
102
}
330
99
100
AcDbVisualStyle
  2
Flat
 70
     0
177
     3
291
     1
 70
    58
 90
        2
176
     1
 90
        1
176
     1
 90
        1
176
     1
 90
        2
176
     1
 40
-0.6
176
     1
 40
30.0
176
     1
 62
     7
420
 16777215
176
     1
 90
        0
176
     1
 90
        4
176
     1
 62
     7
176
     1
 62
   257
176
     1
 90
        1
176
     1
 90
        1
176
     1
 40
1.0
176
     1
 90
        8
176
     1
 62
     7
176
     1
 40
1.0
176
     1
 90
        1
176
     1
 90
        6
176
     1
 90
        2
176
     1
 62
     7
176
     1
 90
        5
176
     1
 90
        0
176
     1
 90
        0
176
     1
290
     0
176
     1
 90
        1
176
     1
 40
0.0
176
     1
 90
        0
176
     1
290
     0
176
     1
290
     1
176
     1
290
     1
176
     1
290
     0
176
     1
290
     0
176
     1
290
     0
176
     1
290
     0
176
     1
290
     0
176
     1
290
     0
176
     1
 90
       50
176
     1
 40
0.0
176
     1
 40
1.0
176
     1
 90
        0
176
     1
 62
   178
420
        0
176
     1
 90
       50
176
     1
 90
        3
176
     1
 62
     5
420
      255
176
     1
290
     0
176
     1
 90
       50
176
     1
 90
       50
176
     1
 90
       50
176
     1
290
     0
176
     1
 90
       50
176
     1
 62
   256
176
     0
 40
1.0
176
     0
 90
        2
176
     1
  1
strokes_ogs.tif
176
     1
290
     0
176
     1
 40
1.0
176
     1
 40
1.0
176
     1
  0
VISUALSTYLE
  5
9B
102
{ACAD_REACTORS
330
99
102
}
330
99
100
AcDbVisualStyle
  2
FlatWithEdges
 70
     1
177
     3
291
     1
 70
    58
 90
        2
176
     1
 90
        1
176
     1
 90
        1
176
     1
 90
        2
176
     1
 40
-0.6
176
     1
 40
30.0
176
     1
 62
     7
420
 16777215
176
     1
 90
        1
176
     1
 90
        4
176
     1
 62
     7
176
     1
 62
   257
176
     1
 90
        1
176
     1
 90
        1
176
     1
 40
1.0
176
     1
 90
        0
176
     1
 62
   257
176
     1
 40
1.0
176
     1
 90
        1
176
     1
 90
        6
176
     1
 90
        2
176
     1
 62
     7
176
     1
 90
        5
176
     1
 90
        0
176
     1
 90
        0
176
     1
290
     0
176
     1
 90
        1
176
     1
 40
0.0
176
     1
 90
        0
176
     1
290
     0
176
     1
290
     1
176
     1
290
     1
176
     1
290
     0
176
     1
290
     0
176
     1
290
     0
176
     1
290
     0
176
     1
290
     0
176
     1
290
     0
176
     1
 90
       50
176
     1
 40
0.0
176
     1
 40
1.0
176
     1
 90
        0
176
     1
 62
   178
420
        0
176
     1
 90
       50
176
     1
 90
        3
176
     1
 62
     5
420
      255
176
     1
290
     0
176
     1
 90
       50
176
     1
 90
       50
176
     1
 90
       50
176
     1
290
     0
176
     1
 90
       50
176
     1
 62
   256
176
     0
 40
1.0
176
     0
 90
        2
176
     1
  1
strokes_ogs.tif
176
     1
290
     0
176
     1
 40
1.0
176
     1
 40
1.0
176
     1
  0
VISUALSTYLE
  5
9C
102
{ACAD_REACTORS
330
99
102
}
330
99
100
AcDbVisualStyle
  2
Gouraud
 70
     2
177
     3
291
     1
 70
    58
 90
        2
176
     1
 90
        2
176
     1
 90
        1
176
     1
 90
        2
176
     1
 40
-0.6
176
     1
 40
30.0
176
     1
 62
     7
420
 16777215
176
     1
 90
        0
176
     1
 90
        4
176
     1
 62
     7
176
     1
 62
   257
176
     1
 90
        1
176
     1
 90
        1
176
     1
 40
1.0
176
     1
 90
        0
176
     1
 62
     7
176
     1
 40
1.0
176
     1
 90
        1
176
     1
 90
        6
176
     1
 90
        2
176
     1
 62
     7
176
     1
 90
        5
176
     1
 90
        0
176
     1
 90
        0
176
     1
290
     0
176
     1
 90
        1
176
     1
 40
0.0
176
     1
 90
        0
176
     1
290
     0
176
     1
290
     1
176
     1
290
     1
176
     1
290
     0
176
     1
290
     0
176
     1
290
     0
176
     1
290
     0
176
     1
290
     0
176
     1
290
     0
176
     1
 90
       50
176
     1
 40
0.0
176
     1
 40
1.0
176
     1
 90
        0
176
     1
 62
   178
420
        0
176
     1
 90
       50
176
     1
 90
        3
176
     1
 62
     5
420
      255
176
     1
290
     0
176
     1
 90
       50
176
     1
 90
       50
176
     1
 90
       50
176
     1
290
     0
176
     1
 90
       50
176
     1
 62
   256
176
     0
 40
1.0
176
     0
 90
        2
176
     1
  1
strokes_ogs.tif
176
     1
290
     0
176
     1
 40
1.0
176
     1
 40
1.0
176
     1
  0
VISUALSTYLE
  5
9D
102
{ACAD_REACTORS
330
99
102
}
330
99
100
AcDbVisualStyle
  2
GouraudWithEdges
 70
     3
177
     3
291
     1
 70
    58
 90
        2
176
     1
 90
        2
176
     1
 90
        1
176
     1
 90
        2
176
     1
 40
-0.6
176
     1
 40
30.0
176
     1
 62
     7
420
 16777215
176
     1
 90
        1
176
     1
 90
        4
176
     1
 62
     7
176
     1
 62
   257
176
     1
 90
        1
176
     1
 90
        1
176
     1
 40
1.0
176
     1
 90
        0
176
     1
 62
   257
176
     1
 40
1.0
176
     1
 90
        1
176
     1
 90
        6
176
     1
 90
        2
176
     1
 62
     7
176
     1
 90
        5
176
     1
 90
        0
176
     1
 90
        0
176
     1
290
     0
176
     1
 90
        1
176
     1
 40
0.0
176
     1
 90
        0
176
     1
290
     0
176
     1
290
     1
176
     1
290
     1
176
     1
290
     0
176
     1
290
     0
176
     1
290
     0
176
     1
290
     0
176
     1
290
     0
176
     1
290
     0
176
     1
 90
       50
176
     1
 40
0.0
176
     1
 40
1.0
176
     1
 90
        0
176
     1
 62
   178
420
        0
176
     1
 90
       50
176
     1
 90
        3
176
     1
 62
     5
420
      255
176
     1
290
     0
176
     1
 90
       50
176
     1
 90
       50
176
     1
 90
       50
176
     1
290
     0
176
     1
 90
       50
176
     1
 62
   256
176
     0
 40
1.0
176
     0
 90
        2
176
     1
  1
strokes_ogs.tif
176
     1
290
     0
176
     1
 40
1.0
176
     1
 40
1.0
176
     1
  0
VISUALSTYLE
  5
E4
102
{ACAD_REACTORS
330
99
102
}
330
99
100
AcDbVisualStyle
  2
Hidden
 70
     6
177
     3
291
     0
 70
    58
 90
        1
176
     1
 90
        2
176
     1
 90
        2
176
     1
 90
        0
176
     1
 40
0.6
176
     1
 40
30.0
176
     1
 62
     7
420
 16777215
176
     1
 90
        2
176
     1
 90
        2
176
     1
 62
     7
176
     1
 62
   257
176
     1
 90
        2
176
     1
 90
        1
176
     1
 40
40.0
176
     1
 90
        0
176
     1
 62
   257
176
     1
 40
1.0
176
     1
 90
        1
176
     1
 90
        6
176
     1
 90
        2
176
     1
 62
     7
176
     1
 90
        3
176
     1
 90
        0
176
     1
 90
        0
176
     1
290
     0
176
     1
 90
        1
176
     1
 40
0.0
176
     1
 90
        0
176
     1
290
     0
176
     1
290
     1
176
     1
290
     1
176
     1
290
     0
176
     1
290
     0
176
     1
290
     0
176
     1
290
     0
176
     1
290
     0
176
     1
290
     0
176
     1
 90
       50
176
     1
 40
0.0
176
     1
 40
1.0
176
     1
 90
        0
176
     1
 62
   178
420
        0
176
     1
 90
       50
176
     1
 90
        3
176
     1
 62
     5
420
      255
176
     1
290
     0
176
     1
 90
       50
176
     1
 90
       50
176
     1
 90
       50
176
     1
290
     0
176
     1
 90
       50
176
     1
 62
   256
176
     0
 40
1.0
176
     0
 90
        2
176
     1
  1
strokes_ogs.tif
176
     1
290
     0
176
     1
 40
1.0
176
     1
 40
1.0
176
     1
  0
VISUALSTYLE
  5
E5
102
{ACAD_REACTORS
330
99
102
}
330
99
100
AcDbVisualStyle
  2
JitterOff
 70
    20
177
     3
291
     1
 70
    58
 90
        2
176
     0
 90
        2
176
     0
 90
        0
176
     0
 90
        0
176
     0
 40
0.6
176
     0
 40
30.0
176
     0
 62
     7
420
 16777215
176
     0
 90
        1
176
     0
 90
        4
176
     0
 62
     7
176
     0
 62
   257
176
     0
 90
        1
176
     0
 90
        1
176
     0
 40
1.0
176
     0
 90
       10
176
     2
 62
     7
176
     0
 40
1.0
176
     0
 90
        1
176
     0
 90
        6
176
     0
 90
        2
176
     0
 62
     7
176
     0
 90
        5
176
     0
 90
        0
176
     0
 90
        0
176
     0
290
     0
176
     0
 90
        1
176
     0
 40
0.0
176
     0
 90
        0
176
     0
290
     0
176
     0
290
     1
176
     0
290
     1
176
     0
290
     0
176
     0
290
     0
176
     0
290
     0
176
     0
290
     0
176
     0
290
     0
176
     0
290
     0
176
     0
 90
       50
176
     0
 40
0.0
176
     0
 40
1.0
176
     0
 90
        0
176
     0
 62
   178
420
        0
176
     0
 90
       50
176
     0
 90
        3
176
     0
 62
     5
420
      255
176
     0
290
     0
176
     0
 90
       50
176
     0
 90
       50
176
     0
 90
       50
176
     0
290
     0
176
     0
 90
       50
176
     0
 62
   256
176
     0
 40
1.0
176
     0
 90
        2
176
     0
  1
strokes_ogs.tif
176
     0
290
     0
176
     0
 40
1.0
176
     0
 40
1.0
176
     0
  0
VISUALSTYLE
  5
A7
102
{ACAD_REACTORS
330
99
102
}
330
99
100
AcDbVisualStyle
  2
Linepattern
 70
    14
177
     3
291
     1
 70
    58
 90
        2
176
     1
 90
        2
176
     1
 90
        1
176
     1
 90
        0
176
     1
 40
-0.6
176
     1
 40
-30.0
176
     1
 62
     7
420
 16777215
176
     1
 90
        1
176
     1
 90
        4
176
     1
 62
     7
176
     1
 62
   257
176
     1
 90
        7
176
     1
 90
        7
176
     1
 40
1.0
176
     1
 90
        8
176
     1
 62
     7
176
     1
 40
1.0
176
     1
 90
        1
176
     1
 90
        6
176
     1
 90
        2
176
     1
 62
     7
176
     1
 90
        5
176
     1
 90
        0
176
     1
 90
        0
176
     1
290
     0
176
     1
 90
        1
176
     1
 40
0.0
176
     1
 90
        0
176
     1
290
     0
176
     1
290
     1
176
     1
290
     1
176
     1
290
     0
176
     1
290
     0
176
     1
290
     0
176
     1
290
     0
176
     1
290
     0
176
     1
290
     0
176
     1
 90
       50
176
     1
 40
0.0
176
     1
 40
1.0
176
     1
 90
        0
176
     1
 62
   178
420
        0
176
     1
 90
       50
176
     1
 90
        3
176
     1
 62
     5
420
      255
176
     1
290
     0
176
     1
 90
       50
176
     1
 90
       50
176
     1
 90
       50
176
     1
290
     0
176
     1
 90
       50
176
     1
 62
   256
176
     0
 40
1.0
176
     0
 90
        2
176
     1
  1
strokes_ogs.tif
176
     1
290
     0
176
     1
 40
1.0
176
     1
 40
1.0
176
     1
  0
VISUALSTYLE
  5
E6
102
{ACAD_REACTORS
330
99
102
}
330
99
100
AcDbVisualStyle
  2
OverhangOff
 70
    21
177
     3
291
     1
 70
    58
 90
        2
176
     0
 90
        2
176
     0
 90
        0
176
     0
 90
        0
176
     0
 40
0.6
176
     0
 40
30.0
176
     0
 62
     7
420
 16777215
176
     0
 90
        1
176
     0
 90
        4
176
     0
 62
     7
176
     0
 62
   257
176
     0
 90
        1
176
     0
 90
        1
176
     0
 40
1.0
176
     0
 90
        9
176
     2
 62
     7
176
     0
 40
1.0
176
     0
 90
        1
176
     0
 90
        6
176
     0
 90
        2
176
     0
 62
     7
176
     0
 90
        5
176
     0
 90
        0
176
     0
 90
        0
176
     0
290
     0
176
     0
 90
        1
176
     0
 40
0.0
176
     0
 90
        0
176
     0
290
     0
176
     0
290
     1
176
     0
290
     1
176
     0
290
     0
176
     0
290
     0
176
     0
290
     0
176
     0
290
     0
176
     0
290
     0
176
     0
290
     0
176
     0
 90
       50
176
     0
 40
0.0
176
     0
 40
1.0
176
     0
 90
        0
176
     0
 62
   178
420
        0
176
     0
 90
       50
176
     0
 90
        3
176
     0
 62
     5
420
      255
176
     0
290
     0
176
     0
 90
       50
176
     0
 90
       50
176
     0
 90
       50
176
     0
290
     0
176
     0
 90
       50
176
     0
 62
   256
176
     0
 40
1.0
176
     0
 90
        2
176
     0
  1
strokes_ogs.tif
176
     0
290
     0
176
     0
 40
1.0
176
     0
 40
1.0
176
     0
  0
VISUALSTYLE
  5
A3
102
{ACAD_REACTORS
330
99
102
}
330
99
100
AcDbVisualStyle
  2
Realistic
 70
     8
177
     3
291
     0
 70
    58
 90
        2
176
     1
 90
        2
176
     1
 90
        1
176
     1
 90
        0
176
     1
 40
-0.6
176
     1
 40
-30.0
176
     1
 62
     7
420
 16777215
176
     1
 90
        1
176
     1
 90
        0
176
     1
 62
     7
176
     1
 62
   257
176
     1
 90
        1
176
     1
 90
        1
176
     1
 40
1.0
176
     1
 90
        8
176
     1
 62
     8
420
  7895160
176
     1
 40
1.0
176
     1
 90
        1
176
     1
 90
        6
176
     1
 90
        2
176
     1
 62
     7
176
     1
 90
        5
176
     1
 90
        0
176
     1
 90
        0
176
     1
290
     0
176
     1
 90
       13
176
     1
 40
0.0
176
     1
 90
        0
176
     1
290
     0
176
     1
290
     1
176
     1
290
     1
176
     1
290
     0
176
     1
290
     0
176
     1
290
     0
176
     1
290
     0
176
     1
290
     0
176
     1
290
     0
176
     1
 90
       50
176
     1
 40
0.0
176
     1
 40
1.0
176
     1
 90
        0
176
     1
 62
   178
420
        0
176
     1
 90
       50
176
     1
 90
        3
176
     1
 62
     5
420
      255
176
     1
290
     0
176
     1
 90
       50
176
     1
 90
       50
176
     1
 90
       50
176
     1
290
     0
176
     1
 90
       50
176
     1
 62
   256
176
     0
 40
1.0
176
     0
 90
        2
176
     1
  1
strokes_ogs.tif
176
     1
290
     0
176
     1
 40
1.0
176
     1
 40
1.0
176
     1
  0
VISUALSTYLE
  5
EC
102
{ACAD_REACTORS
330
99
102
}
330
99
100
AcDbVisualStyle
  2
Shaded
 70
    27
177
     3
291
     0
 70
    58
 90
        2
176
     1
 90
        2
176
     1
 90
        1
176
     1
 90
        2
176
     1
 40
0.6
176
     1
 40
30.0
176
     1
 62
     7
420
 16777215
176
     1
 90
        0
176
     1
 90
        4
176
     1
 62
     7
176
     1
 62
   257
176
     1
 90
        1
176
     1
 90
        1
176
     1
 40
1.0
176
     1
 90
        8
176
     1
 62
   257
176
     1
 40
1.0
176
     1
 90
        1
176
     1
 90
        6
176
     1
 90
        2
176
     1
 62
     8
420
  7895160
176
     1
 90
        3
176
     1
 90
        0
176
     1
 90
        0
176
     1
290
     0
176
     1
 90
        5
176
     1
 40
0.0
176
     1
 90
        0
176
     1
290
     0
176
     1
290
     1
176
     1
290
     1
176
     1
290
     0
176
     1
290
     0
176
     1
290
     0
176
     1
290
     0
176
     1
290
     0
176
     1
290
     0
176
     1
 90
       50
176
     1
 40
0.0
176
     1
 40
1.0
176
     1
 90
        0
176
     1
 62
   178
420
        0
176
     1
 90
       50
176
     1
 90
        3
176
     1
 62
     5
420
      255
176
     1
290
     0
176
     1
 90
       50
176
     1
 90
       50
176
     1
 90
       50
176
     1
290
     0
176
     1
 90
       50
176
     1
 62
   256
176
     0
 40
1.0
176
     0
 90
        2
176
     1
  1
strokes_ogs.tif
176
     1
290
     0
176
     1
 40
1.0
176
     1
 40
1.0
176
     1
  0
VISUALSTYLE
  5
EB
102
{ACAD_REACTORS
330
99
102
}
330
99
100
AcDbVisualStyle
  2
Shaded with edges
 70
    26
177
     3
291
     0
 70
    58
 90
        2
176
     1
 90
        2
176
     1
 90
        1
176
     1
 90
        2
176
     1
 40
0.6
176
     1
 40
30.0
176
     1
 62
     7
420
 16777215
176
     1
 90
        1
176
     1
 90
       10
176
     1
 62
     7
176
     1
 62
   257
176
     1
 90
        2
176
     1
 90
        1
176
     1
 40
1.0
176
     1
 90
        8
176
     1
 62
   257
176
     1
 40
1.0
176
     1
 90
        1
176
     1
 90
        6
176
     1
 90
        2
176
     1
 62
     7
176
     1
 90
        3
176
     1
 90
        0
176
     1
 90
        0
176
     1
290
     0
176
     1
 90
        5
176
     1
 40
0.0
176
     1
 90
        0
176
     1
290
     0
176
     1
290
     1
176
     1
290
     1
176
     1
290
     0
176
     1
290
     0
176
     1
290
     0
176
     1
290
     0
176
     1
290
     0
176
     1
290
     0
176
     1
 90
       50
176
     1
 40
0.0
176
     1
 40
1.0
176
     1
 90
        0
176
     1
 62
   178
420
        0
176
     1
 90
       50
176
     1
 90
        3
176
     1
 62
     5
420
      255
176
     1
290
     0
176
     1
 90
       50
176
     1
 90
       50
176
     1
 90
       50
176
     1
290
     0
176
     1
 90
       50
176
     1
 62
   256
176
     0
 40
1.0
176
     0
 90
        2
176
     1
  1
strokes_ogs.tif
176
     1
290
     0
176
     1
 40
1.0
176
     1
 40
1.0
176
     1
  0
VISUALSTYLE
  5
E8
102
{ACAD_REACTORS
330
99
102
}
330
99
100
AcDbVisualStyle
  2
Shades of Gray
 70
    23
177
     3
291
     0
 70
    58
 90
        2
176
     1
 90
        2
176
     1
 90
        3
176
     1
 90
        0
176
     1
 40
0.6
176
     1
 40
30.0
176
     1
 62
     7
420
 16777215
176
     1
 90
        2
176
     1
 90
        2
176
     1
 62
     7
176
     1
 62
     7
176
     1
 90
        1
176
     1
 90
        1
176
     1
 40
40.0
176
     1
 90
        8
176
     1
 62
     7
176
     1
 40
1.0
176
     1
 90
        1
176
     1
 90
        6
176
     1
 90
        2
176
     1
 62
     7
176
     1
 90
        3
176
     1
 90
        0
176
     1
 90
        0
176
     1
290
     0
176
     1
 90
        1
176
     1
 40
0.0
176
     1
 90
        0
176
     1
290
     0
176
     1
290
     1
176
     1
290
     1
176
     1
290
     0
176
     1
290
     0
176
     1
290
     0
176
     1
290
     0
176
     1
290
     0
176
     1
290
     0
176
     1
 90
       50
176
     1
 40
0.0
176
     1
 40
1.0
176
     1
 90
        0
176
     1
 62
   178
420
        0
176
     1
 90
       50
176
     1
 90
        3
176
     1
 62
     5
420
      255
176
     1
290
     0
176
     1
 90
       50
176
     1
 90
       50
176
     1
 90
       50
176
     1
290
     0
176
     1
 90
       50
176
     1
 62
   256
176
     0
 40
1.0
176
     0
 90
        2
176
     1
  1
strokes_ogs.tif
176
     1
290
     0
176
     1
 40
1.0
176
     1
 40
1.0
176
     1
  0
VISUALSTYLE
  5
E9
102
{ACAD_REACTORS
330
99
102
}
330
99
100
AcDbVisualStyle
  2
Sketchy
 70
    24
177
     3
291
     0
 70
    58
 90
        1
176
     1
 90
        2
176
     1
 90
        2
176
     1
 90
        0
176
     1
 40
0.6
176
     1
 40
30.0
176
     1
 62
     7
420
 16777215
176
     1
 90
        2
176
     1
 90
        2
176
     1
 62
     7
176
     1
 62
     7
176
     1
 90
        1
176
     1
 90
        1
176
     1
 40
40.0
176
     1
 90
       11
176
     1
 62
     7
176
     1
 40
1.0
176
     1
 90
        1
176
     1
 90
        6
176
     1
 90
        2
176
     1
 62
     7
176
     1
 90
        6
176
     1
 90
        0
176
     1
 90
        0
176
     1
290
     0
176
     1
 90
        1
176
     1
 40
0.0
176
     1
 90
        0
176
     1
290
     0
176
     1
290
     1
176
     1
290
     1
176
     1
290
     0
176
     1
290
     0
176
     1
290
     0
176
     1
290
     0
176
     1
290
     0
176
     1
290
     0
176
     1
 90
       50
176
     1
 40
0.0
176
     1
 40
1.0
176
     1
 90
        0
176
     1
 62
   178
420
        0
176
     1
 90
       50
176
     1
 90
        3
176
     1
 62
     5
420
      255
176
     1
290
     0
176
     1
 90
       50
176
     1
 90
       50
176
     1
 90
       50
176
     1
290
     0
176
     1
 90
       50
176
     1
 62
   256
176
     0
 40
1.0
176
     0
 90
        2
176
     1
  1
strokes_ogs.tif
176
     1
290
     0
176
     1
 40
1.0
176
     1
 40
1.0
176
     1
  0
VISUALSTYLE
  5
A6
102
{ACAD_REACTORS
330
99
102
}
330
99
100
AcDbVisualStyle
  2
Thicken
 70
    13
177
     3
291
     1
 70
    58
 90
        2
176
     1
 90
        2
176
     1
 90
        1
176
     1
 90
        0
176
     1
 40
-0.6
176
     1
 40
-30.0
176
     1
 62
     7
420
 16777215
176
     1
 90
        1
176
     1
 90
        4
176
     1
 62
     7
176
     1
 62
   257
176
     1
 90
        1
176
     1
 90
        1
176
     1
 40
1.0
176
     1
 90
       12
176
     1
 62
     7
176
     1
 40
1.0
176
     1
 90
        1
176
     1
 90
        6
176
     1
 90
        2
176
     1
 62
     7
176
     1
 90
        5
176
     1
 90
        0
176
     1
 90
        0
176
     1
290
     0
176
     1
 90
        1
176
     1
 40
0.0
176
     1
 90
        0
176
     1
290
     0
176
     1
290
     1
176
     1
290
     1
176
     1
290
     0
176
     1
290
     0
176
     1
290
     0
176
     1
290
     0
176
     1
290
     0
176
     1
290
     0
176
     1
 90
       50
176
     1
 40
0.0
176
     1
 40
1.0
176
     1
 90
        0
176
     1
 62
   178
420
        0
176
     1
 90
       50
176
     1
 90
        3
176
     1
 62
     5
420
      255
176
     1
290
     0
176
     1
 90
       50
176
     1
 90
       50
176
     1
 90
       50
176
     1
290
     0
176
     1
 90
       50
176
     1
 62
   256
176
     0
 40
1.0
176
     0
 90
        2
176
     1
  1
strokes_ogs.tif
176
     1
290
     0
176
     1
 40
1.0
176
     1
 40
1.0
176
     1
  0
VISUALSTYLE
  5
E3
102
{ACAD_REACTORS
330
99
102
}
330
99
100
AcDbVisualStyle
  2
Wireframe
 70
     5
177
     3
291
     0
 70
    58
 90
        0
176
     1
 90
        2
176
     1
 90
        0
176
     1
 90
        0
176
     1
 40
0.6
176
     1
 40
30.0
176
     1
 62
     7
420
 16777215
176
     1
 90
        1
176
     1
 90
        4
176
     1
 62
     7
176
     1
 62
   257
176
     1
 90
        1
176
     1
 90
        1
176
     1
 40
1.0
176
     1
 90
        0
176
     1
 62
   257
176
     1
 40
1.0
176
     1
 90
        1
176
     1
 90
        6
176
     1
 90
        2
176
     1
 62
     7
176
     1
 90
        3
176
     1
 90
        0
176
     1
 90
        0
176
     1
290
     0
176
     1
 90
        1
176
     1
 40
0.0
176
     1
 90
        0
176
     1
290
     0
176
     1
290
     1
176
     1
290
     1
176
     1
290
     0
176
     1
290
     0
176
     1
290
     0
176
     1
290
     0
176
     1
290
     0
176
     1
290
     0
176
     1
 90
       50
176
     1
 40
0.0
176
     1
 40
1.0
176
     1
 90
        0
176
     1
 62
   178
420
        0
176
     1
 90
       50
176
     1
 90
        3
176
     1
 62
     5
420
      255
176
     1
290
     0
176
     1
 90
       50
176
     1
 90
       50
176
     1
 90
       50
176
     1
290
     0
176
     1
 90
       50
176
     1
 62
   256
176
     0
 40
1.0
176
     0
 90
        2
176
     1
  1
strokes_ogs.tif
176
     1
290
     0
176
     1
 40
1.0
176
     1
 40
1.0
176
     1
  0
VISUALSTYLE
  5
EA
102
{ACAD_REACTORS
330
99
102
}
330
99
100
AcDbVisualStyle
  2
X-Ray
 70
    25
177
     3
291
     0
 70
    58
 90
        2
176
     1
 90
        2
176
     1
 90
        1
176
     1
 90
        1
176
     1
 40
0.5
176
     1
 40
30.0
176
     1
 62
     7
420
 16777215
176
     1
 90
        1
176
     1
 90
        0
176
     1
 62
     7
176
     1
 62
   257
176
     1
 90
        1
176
     1
 90
        1
176
     1
 40
1.0
176
     1
 90
        8
176
     1
 62
     7
176
     1
 40
1.0
176
     1
 90
        1
176
     1
 90
        6
176
     1
 90
        2
176
     1
 62
     7
176
     1
 90
        3
176
     1
 90
        0
176
     1
 90
        0
176
     1
290
     0
176
     1
 90
       13
176
     1
 40
0.0
176
     1
 90
        0
176
     1
290
     0
176
     1
290
     1
176
     1
290
     1
176
     1
290
     0
176
     1
290
     0
176
     1
290
     0
176
     1
290
     0
176
     1
290
     0
176
     1
290
     0
176
     1
 90
       50
176
     1
 40
0.0
176
     1
 40
1.0
176
     1
 90
        0
176
     1
 62
   178
420
        0
176
     1
 90
       50
176
     1
 90
        3
176
     1
 62
     5
420
      255
176
     1
290
     0
176
     1
 90
       50
176
     1
 90
       50
176
     1
 90
       50
176
     1
290
     0
176
     1
 90
       50
176
     1
 62
   256
176
     0
 40
1.0
176
     0
 90
        2
176
     1
  1
strokes_ogs.tif
176
     1
290
     0
176
     1
 40
1.0
176
     1
 40
1.0
176
     1
  0
DICTIONARYVAR
  5
D8
102
{ACAD_REACTORS
330
66
102
}
330
66
100
DictionaryVariables
280
     0
  1
1:1
  0
DICTIONARYVAR
  5
128
102
{ACAD_REACTORS
330
66
102
}
330
66
100
DictionaryVariables
280
     0
  1
Standard
  0
DICTIONARYVAR
  5
89
102
{ACAD_REACTORS
330
66
102
}
330
66
100
DictionaryVariables
280
     0
  1
Standard
  0
DICTIONARYVAR
  5
67
102
{ACAD_REACTORS
330
66
102
}
330
66
100
DictionaryVariables
280
     0
  1
2
  0
DICTIONARYVAR
  5
6B
102
{ACAD_REACTORS
330
66
102
}
330
66
100
DictionaryVariables
280
     0
  1
1
  0
DICTIONARYVAR
  5
DF
102
{ACAD_REACTORS
330
66
102
}
330
66
100
DictionaryVariables
280
     0
  1
0
  0
DICTIONARYVAR
  5
E0
102
{ACAD_REACTORS
330
66
102
}
330
66
100
DictionaryVariables
280
     0
  1
0
  0
DICTIONARY
  5
103B
330
87
100
AcDbDictionary
280
     1
281
     1
  3
ACAD_ROUNDTRIP_2008_TABLESTYLE_CELLSTYLEMAP
360
103C
  0
CELLSTYLEMAP
  5
103C
102
{ACAD_REACTORS
330
103B
102
}
330
103B
100
AcDbCellStyleMap
 90
        3
300
CELLSTYLE
  1
TABLEFORMAT_BEGIN
 90
        5
170
     1
 91
        0
 92
    32768
 62
   257
 93
        1
300
CONTENTFORMAT
  1
CONTENTFORMAT_BEGIN
 90
        0
 91
        0
 92
      512
 93
        0
300

 40
0.0
140
1.0
 94
        5
 62
     0
340
11
144
0.25
309
CONTENTFORMAT_END
171
     0
 94
        6
 95
        1
302
GRIDFORMAT
  1
GRIDFORMAT_BEGIN
 90
        0
 91
        1
 62
     0
 92
       -2
340
0
 93
        0
 40
0.045
309
GRIDFORMAT_END
 95
        2
302
GRIDFORMAT
  1
GRIDFORMAT_BEGIN
 90
        0
 91
        1
 62
     0
 92
       -2
340
0
 93
        0
 40
0.045
309
GRIDFORMAT_END
 95
        4
302
GRIDFORMAT
  1
GRIDFORMAT_BEGIN
 90
        0
 91
        1
 62
     0
 92
       -2
340
0
 93
        0
 40
0.045
309
GRIDFORMAT_END
 95
        8
302
GRIDFORMAT
  1
GRIDFORMAT_BEGIN
 90
        0
 91
        1
 62
     0
 92
       -2
340
0
 93
        0
 40
0.045
309
GRIDFORMAT_END
 95
       16
302
GRIDFORMAT
  1
GRIDFORMAT_BEGIN
 90
        0
 91
        1
 62
     0
 92
       -2
340
0
 93
        0
 40
0.045
309
GRIDFORMAT_END
 95
       32
302
GRIDFORMAT
  1
GRIDFORMAT_BEGIN
 90
        0
 91
        1
 62
     0
 92
       -2
340
0
 93
        0
 40
0.045
309
GRIDFORMAT_END
309
TABLEFORMAT_END
  1
CELLSTYLE_BEGIN
 90
        1
 91
        1
300
_TITLE
309
CELLSTYLE_END
300
CELLSTYLE
  1
TABLEFORMAT_BEGIN
 90
        5
170
     1
 91
        0
 92
        0
 62
   257
 93
        1
300
CONTENTFORMAT
  1
CONTENTFORMAT_BEGIN
 90
        0
 91
        0
 92
      512
 93
        0
300

 40
0.0
140
1.0
 94
        5
 62
     0
340
11
144
0.18
309
CONTENTFORMAT_END
171
     0
 94
        6
 95
        1
302
GRIDFORMAT
  1
GRIDFORMAT_BEGIN
 90
        0
 91
        1
 62
     0
 92
       -2
340
0
 93
        0
 40
0.045
309
GRIDFORMAT_END
 95
        2
302
GRIDFORMAT
  1
GRIDFORMAT_BEGIN
 90
        0
 91
        1
 62
     0
 92
       -2
340
0
 93
        0
 40
0.045
309
GRIDFORMAT_END
 95
        4
302
GRIDFORMAT
  1
GRIDFORMAT_BEGIN
 90
        0
 91
        1
 62
     0
 92
       -2
340
0
 93
        0
 40
0.045
309
GRIDFORMAT_END
 95
        8
302
GRIDFORMAT
  1
GRIDFORMAT_BEGIN
 90
        0
 91
        1
 62
     0
 92
       -2
340
0
 93
        0
 40
0.045
309
GRIDFORMAT_END
 95
       16
302
GRIDFORMAT
  1
GRIDFORMAT_BEGIN
 90
        0
 91
        1
 62
     0
 92
       -2
340
0
 93
        0
 40
0.045
309
GRIDFORMAT_END
 95
       32
302
GRIDFORMAT
  1
GRIDFORMAT_BEGIN
 90
        0
 91
        1
 62
     0
 92
       -2
340
0
 93
        0
 40
0.045
309
GRIDFORMAT_END
309
TABLEFORMAT_END
  1
CELLSTYLE_BEGIN
 90
        2
 91
        1
300
_HEADER
309
CELLSTYLE_END
300
CELLSTYLE
  1
TABLEFORMAT_BEGIN
 90
        5
170
     1
 91
        0
 92
        0
 62
   257
 93
        1
300
CONTENTFORMAT
  1
CONTENTFORMAT_BEGIN
 90
        0
 91
        0
 92
      512
 93
        0
300

 40
0.0
140
1.0
 94
        2
 62
     0
340
11
144
0.18
309
CONTENTFORMAT_END
171
     0
 94
        6
 95
        1
302
GRIDFORMAT
  1
GRIDFORMAT_BEGIN
 90
        0
 91
        1
 62
     0
 92
       -2
340
0
 93
        0
 40
0.045
309
GRIDFORMAT_END
 95
        2
302
GRIDFORMAT
  1
GRIDFORMAT_BEGIN
 90
        0
 91
        1
 62
     0
 92
       -2
340
0
 93
        0
 40
0.045
309
GRIDFORMAT_END
 95
        4
302
GRIDFORMAT
  1
GRIDFORMAT_BEGIN
 90
        0
 91
        1
 62
     0
 92
       -2
340
0
 93
        0
 40
0.045
309
GRIDFORMAT_END
 95
        8
302
GRIDFORMAT
  1
GRIDFORMAT_BEGIN
 90
        0
 91
        1
 62
     0
 92
       -2
340
0
 93
        0
 40
0.045
309
GRIDFORMAT_END
 95
       16
302
GRIDFORMAT
  1
GRIDFORMAT_BEGIN
 90
        0
 91
        1
 62
     0
 92
       -2
340
0
 93
        0
 40
0.045
309
GRIDFORMAT_END
 95
       32
302
GRIDFORMAT
  1
GRIDFORMAT_BEGIN
 90
        0
 91
        1
 62
     0
 92
       -2
340
0
 93
        0
 40
0.045
309
GRIDFORMAT_END
309
TABLEFORMAT_END
  1
CELLSTYLE_BEGIN
 90
        3
 91
        2
300
_DATA
309
CELLSTYLE_END
  0
ENDSEC
  0
EOF
