  0
SECTION
  2
HEADER
  9
$ACADVER
  1
AC1014
  9
$HANDSEED
  5
FFFF
  9
$MEASUREMENT
 70
     1
  0
ENDSEC
  0
SECTION
  2
TABLES
  0
TABLE
  2
VPORT
  5
8
330
0
100
AcDbSymbolTable
 70
     4
  0
VPORT
  5
2E
330
8
100
AcDbSymbolTableRecord
100
AcDbViewportTableRecord
  2
*ACTIVE
 70
     0
 10
0.0
 20
0.0
 11
1.0
 21
1.0
 12
210.0
 22
148.5
 13
0.0
 23
0.0
 14
10.0
 24
10.0
 15
10.0
 25
10.0
 16
0.0
 26
0.0
 36
1.0
 17
0.0
 27
0.0
 37
0.0
 40
341.0
 41
1.24
 42
50.0
 43
0.0
 44
0.0
 50
0.0
 51
0.0
 71
     0
 72
   100
 73
     1
 74
     3
 75
     0
 76
     0
 77
     0
 78
     0
  0
ENDTAB
  0
TABLE
  2
LTYPE
  5
5
330
0
100
AcDbSymbolTable
 70
     1
  0
LTYPE
  5
14
330
5
100
AcDbSymbolTableRecord
100
AcDbLinetypeTableRecord
  2
BYBLOCK
 70
     0
  3

 72
    65
 73
     0
 40
0.0
  0
LTYPE
  5
15
330
5
100
AcDbSymbolTableRecord
100
AcDbLinetypeTableRecord
  2
BYLAYER
 70
     0
  3

 72
    65
 73
     0
 40
0.0
  0
LTYPE
  5
16
330
5
100
AcDbSymbolTableRecord
100
AcDbLinetypeTableRecord
  2
CONTINUOUS
 70
     0
  3
Solid line
 72
    65
 73
     0
 40
0.0
  0
ENDTAB
  0
TABLE
  2
LAYER
  5
2
100
AcDbSymbolTable
 70
6
  0
LAYER
  5
50
100
AcDbSymbolTableRecord
100
AcDbLayerTableRecord
  2
0
 70
0
  6
CONTINUOUS
  0
LAYER
  5
51
100
AcDbSymbolTableRecord
100
AcDbLayerTableRecord
  2
Props
 70
0
  6
CONTINUOUS
  0
LAYER
  5
52
100
AcDbSymbolTableRecord
100
AcDbLayerTableRecord
  2
Final_18.5mm
 70
0
  6
CONTINUOUS
  0
LAYER
  5
53
100
AcDbSymbolTableRecord
100
AcDbLayerTableRecord
  2
First_18.5mm
 70
0
  6
CONTINUOUS
  0
LAYER
  5
54
100
AcDbSymbolTableRecord
100
AcDbLayerTableRecord
  2
Extra_18.5mm
 70
0
  6
CONTINUOUS
  0
LAYER
  5
55
100
AcDbSymbolTableRecord
100
AcDbLayerTableRecord
  2
Shallow_5mm
 70
0
  6
CONTINUOUS
  0
ENDTAB
  0
TABLE
  2
STYLE
  5
3
330
0
100
AcDbSymbolTable
 70
     1
  0
STYLE
  5
11
330
3
100
AcDbSymbolTableRecord
100
AcDbTextStyleTableRecord
  2
STANDARD
 70
     0
 40
0.0
 41
1.0
 50
0.0
 71
     0
 42
2.5
  3
txt
  4

  0
ENDTAB
  0
TABLE
  2
VIEW
  5
6
330
0
100
AcDbSymbolTable
 70
     0
  0
ENDTAB
  0
TABLE
  2
UCS
  5
7
330
0
100
AcDbSymbolTable
 70
     0
  0
ENDTAB
  0
TABLE
  2
APPID
  5
9
330
0
100
AcDbSymbolTable
 70
     2
  0
APPID
  5
12
330
9
100
AcDbSymbolTableRecord
100
AcDbRegAppTableRecord
  2
ACAD
 70
     0
  0
ENDTAB
  0
TABLE
  2
DIMSTYLE
  5
A
330
0
100
AcDbSymbolTable
 70
     1
  0
DIMSTYLE
105
27
330
A
100
AcDbSymbolTableRecord
100
AcDbDimStyleTableRecord
  2
ISO-25
 70
     0
  3

  4

  5

  6

  7

 40
1.0
 41
2.5
 42
0.625
 43
3.75
 44
1.25
 45
0.0
 46
0.0
 47
0.0
 48
0.0
140
2.5
141
2.5
142
0.0
143
0.03937007874016
144
1.0
145
0.0
146
1.0
147
0.625
 71
     0
 72
     0
 73
     0
 74
     0
 75
     0
 76
     0
 77
     1
 78
     8
170
     0
171
     3
172
     1
173
     0
174
     0
175
     0
176
     0
177
     0
178
     0
270
     2
271
     2
272
     2
273
     2
274
     3
340
11
275
     0
280
     0
281
     0
282
     0
283
     0
284
     8
285
     0
286
     0
287
     3
288
     0
  0
ENDTAB
  0
TABLE
  2
BLOCK_RECORD
  5
1
330
0
100
AcDbSymbolTable
 70
     1
  0
BLOCK_RECORD
  5
1F
330
1
100
AcDbSymbolTableRecord
100
AcDbBlockTableRecord
  2
*MODEL_SPACE
  0
BLOCK_RECORD
  5
1B
330
1
100
AcDbSymbolTableRecord
100
AcDbBlockTableRecord
  2
*PAPER_SPACE
  0
ENDTAB
  0
ENDSEC
  0
SECTION
  2
BLOCKS
  0
BLOCK
  5
20
330
1F
100
AcDbEntity
  8
0
100
AcDbBlockBegin
  2
*MODEL_SPACE
 70
     0
 10
0.0
 20
0.0
 30
0.0
  3
*MODEL_SPACE
  1

  0
ENDBLK
  5
21
330
1F
100
AcDbEntity
  8
0
100
AcDbBlockEnd
  0
BLOCK
  5
1C
330
1B
100
AcDbEntity
 67
     1
  8
0
100
AcDbBlockBegin
  2
*PAPER_SPACE
  1

  0
ENDBLK
  5
1D
330
1B
100
AcDbEntity
 67
     1
  8
0
100
AcDbBlockEnd
  0
ENDSEC
  0
SECTION
  2
ENTITIES
  0
LWPOLYLINE
  5
100
100
AcDbEntity
  8
Props
 62
7
100
AcDbPolyline
 90
5
 70
1
 10
1026.954500
 20
443.727970
 30
0.0
 10
1146.692580
 20
443.727970
 30
0.0
 10
1146.692580
 20
231.707660
 30
0.0
 10
1026.954500
 20
231.707660
 30
0.0
 10
1026.954500
 20
443.727970
 30
0.0
  0
LWPOLYLINE
  5
101
100
AcDbEntity
  8
Props
 62
7
100
AcDbPolyline
 90
5
 70
1
 10
806.488590
 20
446.677250
 30
0.0
 10
926.226670
 20
446.677250
 30
0.0
 10
926.226670
 20
234.656940
 30
0.0
 10
806.488590
 20
234.656940
 30
0.0
 10
806.488590
 20
446.677250
 30
0.0
  0
LWPOLYLINE
  5
102
100
AcDbEntity
  8
Props
 62
7
100
AcDbPolyline
 90
5
 70
1
 10
408.645200
 20
434.912720
 30
0.0
 10
789.645200
 20
434.912720
 30
0.0
 10
789.645200
 20
53.912720
 30
0.0
 10
408.645200
 20
53.912720
 30
0.0
 10
408.645200
 20
434.912720
 30
0.0
  0
LWPOLYLINE
  5
103
100
AcDbEntity
  8
Props
 62
7
100
AcDbPolyline
 90
5
 70
1
 10
52.856937
 20
203.342200
 30
0.0
 10
393.856907
 20
203.342200
 30
0.0
 10
393.856907
 20
53.342220
 30
0.0
 10
52.856937
 20
53.342220
 30
0.0
 10
52.856937
 20
203.342200
 30
0.0
  0
LWPOLYLINE
  5
104
100
AcDbEntity
  8
Props
 62
7
100
AcDbPolyline
 90
5
 70
1
 10
457.165530
 20
898.528690
 30
0.0
 10
521.271029
 20
898.528690
 30
0.0
 10
521.271029
 20
822.528690
 30
0.0
 10
457.165530
 20
822.528690
 30
0.0
 10
457.165530
 20
898.528690
 30
0.0
  0
LWPOLYLINE
  5
105
100
AcDbEntity
  8
Props
 62
7
100
AcDbPolyline
 90
5
 70
1
 10
938.552000
 20
904.016200
 30
0.0
 10
957.701479
 20
904.016200
 30
0.0
 10
957.701479
 20
816.907618
 30
0.0
 10
938.552000
 20
816.907618
 30
0.0
 10
938.552000
 20
904.016200
 30
0.0
  0
LWPOLYLINE
  5
106
100
AcDbEntity
  8
Props
 62
7
100
AcDbPolyline
 90
5
 70
1
 10
412.259980
 20
619.414610
 30
0.0
 10
792.488860
 20
619.414610
 30
0.0
 10
792.488860
 20
532.903463
 30
0.0
 10
412.259980
 20
532.903463
 30
0.0
 10
412.259980
 20
619.414610
 30
0.0
  0
LWPOLYLINE
  5
107
100
AcDbEntity
  8
Props
 62
7
100
AcDbPolyline
 90
5
 70
1
 10
873.377010
 20
187.289100
 30
0.0
 10
1081.108780
 20
187.289100
 30
0.0
 10
1081.108780
 20
68.088060
 30
0.0
 10
873.377010
 20
68.088060
 30
0.0
 10
873.377010
 20
187.289100
 30
0.0
  0
LWPOLYLINE
  5
108
100
AcDbEntity
  8
Props
 62
7
100
AcDbPolyline
 90
5
 70
1
 10
1001.718600
 20
986.257510
 30
0.0
 10
1046.718600
 20
986.257510
 30
0.0
 10
1046.718600
 20
928.119738
 30
0.0
 10
1001.718600
 20
928.119738
 30
0.0
 10
1001.718600
 20
986.257510
 30
0.0
  0
LWPOLYLINE
  5
109
100
AcDbEntity
  8
Props
 62
7
100
AcDbPolyline
 90
5
 70
1
 10
53.057774
 20
421.075620
 30
0.0
 10
140.546658
 20
421.075620
 30
0.0
 10
140.546658
 20
396.240039
 30
0.0
 10
53.057774
 20
396.240039
 30
0.0
 10
53.057774
 20
421.075620
 30
0.0
  0
LWPOLYLINE
  5
10a
100
AcDbEntity
  8
Props
 62
7
100
AcDbPolyline
 90
5
 70
1
 10
306.775540
 20
421.075620
 30
0.0
 10
394.264424
 20
421.075620
 30
0.0
 10
394.264424
 20
396.240041
 30
0.0
 10
306.775540
 20
396.240041
 30
0.0
 10
306.775540
 20
421.075620
 30
0.0
  0
LWPOLYLINE
  5
10b
100
AcDbEntity
  8
Final_18.5mm
 62
7
100
AcDbPolyline
 90
345
 70
0
 10
49.999999
 20
49.999995
 30
0.0
 10
80.008332
 20
49.999995
 30
0.0
 10
81.208332
 20
50.999995
 30
0.0
 10
80.208332
 20
49.799995
 30
0.0
 10
80.208332
 20
31.499995
 30
0.0
 10
119.791669
 20
31.499995
 30
0.0
 10
119.791669
 20
49.799995
 30
0.0
 10
118.791669
 20
50.999995
 30
0.0
 10
119.991669
 20
49.999995
 30
0.0
 10
146.674999
 20
49.999995
 30
0.0
 10
147.874999
 20
50.999995
 30
0.0
 10
146.874999
 20
49.799995
 30
0.0
 10
146.874999
 20
31.499995
 30
0.0
 10
186.458329
 20
31.499995
 30
0.0
 10
186.458329
 20
49.799995
 30
0.0
 10
185.458329
 20
50.999995
 30
0.0
 10
186.658329
 20
49.999995
 30
0.0
 10
213.341669
 20
49.999995
 30
0.0
 10
214.541669
 20
50.999995
 30
0.0
 10
213.541669
 20
49.799995
 30
0.0
 10
213.541669
 20
31.499995
 30
0.0
 10
253.124999
 20
31.499995
 30
0.0
 10
253.124999
 20
49.799995
 30
0.0
 10
252.124999
 20
50.999995
 30
0.0
 10
253.324999
 20
49.999995
 30
0.0
 10
280.008329
 20
49.999995
 30
0.0
 10
281.208329
 20
50.999995
 30
0.0
 10
280.208329
 20
49.799995
 30
0.0
 10
280.208329
 20
31.499995
 30
0.0
 10
319.791669
 20
31.499995
 30
0.0
 10
319.791669
 20
49.799995
 30
0.0
 10
318.791669
 20
50.999995
 30
0.0
 10
319.991669
 20
49.999995
 30
0.0
 10
346.674999
 20
49.999995
 30
0.0
 10
347.874999
 20
50.999995
 30
0.0
 10
346.874999
 20
49.799995
 30
0.0
 10
346.874999
 20
31.499995
 30
0.0
 10
386.458329
 20
31.499995
 30
0.0
 10
386.458329
 20
49.799995
 30
0.0
 10
385.458329
 20
50.999995
 30
0.0
 10
386.658329
 20
49.999995
 30
0.0
 10
413.341669
 20
49.999995
 30
0.0
 10
414.541669
 20
50.999995
 30
0.0
 10
413.541669
 20
49.799995
 30
0.0
 10
413.541669
 20
31.499995
 30
0.0
 10
453.124999
 20
31.499995
 30
0.0
 10
453.124999
 20
49.799995
 30
0.0
 10
452.124999
 20
50.999995
 30
0.0
 10
453.324999
 20
49.999995
 30
0.0
 10
480.008329
 20
49.999995
 30
0.0
 10
481.208329
 20
50.999995
 30
0.0
 10
480.208329
 20
49.799995
 30
0.0
 10
480.208329
 20
31.499995
 30
0.0
 10
519.791669
 20
31.499995
 30
0.0
 10
519.791669
 20
49.799995
 30
0.0
 10
518.791669
 20
50.999995
 30
0.0
 10
519.991669
 20
49.999995
 30
0.0
 10
546.674999
 20
49.999995
 30
0.0
 10
547.874999
 20
50.999995
 30
0.0
 10
546.874999
 20
49.799995
 30
0.0
 10
546.874999
 20
31.499995
 30
0.0
 10
586.458329
 20
31.499995
 30
0.0
 10
586.458329
 20
49.799995
 30
0.0
 10
585.458329
 20
50.999995
 30
0.0
 10
586.658329
 20
49.999995
 30
0.0
 10
613.341669
 20
49.999995
 30
0.0
 10
614.541669
 20
50.999995
 30
0.0
 10
613.541669
 20
49.799995
 30
0.0
 10
613.541669
 20
31.499995
 30
0.0
 10
653.124999
 20
31.499995
 30
0.0
 10
653.124999
 20
49.799995
 30
0.0
 10
652.124999
 20
50.999995
 30
0.0
 10
653.324999
 20
49.999995
 30
0.0
 10
680.008329
 20
49.999995
 30
0.0
 10
681.208329
 20
50.999995
 30
0.0
 10
680.208329
 20
49.799995
 30
0.0
 10
680.208329
 20
31.499995
 30
0.0
 10
719.791669
 20
31.499995
 30
0.0
 10
719.791669
 20
49.799995
 30
0.0
 10
718.791669
 20
50.999995
 30
0.0
 10
719.991669
 20
49.999995
 30
0.0
 10
746.674999
 20
49.999995
 30
0.0
 10
747.874999
 20
50.999995
 30
0.0
 10
746.874999
 20
49.799995
 30
0.0
 10
746.874999
 20
31.499995
 30
0.0
 10
786.458329
 20
31.499995
 30
0.0
 10
786.458329
 20
49.799995
 30
0.0
 10
785.458329
 20
50.999995
 30
0.0
 10
786.658329
 20
49.999995
 30
0.0
 10
813.341669
 20
49.999995
 30
0.0
 10
814.541669
 20
50.999995
 30
0.0
 10
813.541669
 20
49.799995
 30
0.0
 10
813.541669
 20
31.499995
 30
0.0
 10
853.124999
 20
31.499995
 30
0.0
 10
853.124999
 20
49.799995
 30
0.0
 10
852.124999
 20
50.999995
 30
0.0
 10
853.324999
 20
49.999995
 30
0.0
 10
880.008329
 20
49.999995
 30
0.0
 10
881.208329
 20
50.999995
 30
0.0
 10
880.208329
 20
49.799995
 30
0.0
 10
880.208329
 20
31.499995
 30
0.0
 10
919.791669
 20
31.499995
 30
0.0
 10
919.791669
 20
49.799995
 30
0.0
 10
918.791669
 20
50.999995
 30
0.0
 10
919.991669
 20
49.999995
 30
0.0
 10
946.674999
 20
49.999995
 30
0.0
 10
947.874999
 20
50.999995
 30
0.0
 10
946.874999
 20
49.799995
 30
0.0
 10
946.874999
 20
31.499995
 30
0.0
 10
986.458329
 20
31.499995
 30
0.0
 10
986.458329
 20
49.799995
 30
0.0
 10
985.458329
 20
50.999995
 30
0.0
 10
986.658329
 20
49.999995
 30
0.0
 10
1013.341699
 20
49.999995
 30
0.0
 10
1014.541699
 20
50.999995
 30
0.0
 10
1013.541699
 20
49.799995
 30
0.0
 10
1013.541699
 20
31.499995
 30
0.0
 10
1053.124999
 20
31.499995
 30
0.0
 10
1053.124999
 20
49.799995
 30
0.0
 10
1052.124999
 20
50.999995
 30
0.0
 10
1053.324999
 20
49.999995
 30
0.0
 10
1080.008299
 20
49.999995
 30
0.0
 10
1081.208299
 20
50.999995
 30
0.0
 10
1080.208299
 20
49.799995
 30
0.0
 10
1080.208299
 20
31.499995
 30
0.0
 10
1119.791699
 20
31.499995
 30
0.0
 10
1119.791699
 20
49.799995
 30
0.0
 10
1118.791699
 20
50.999995
 30
0.0
 10
1119.991699
 20
49.999995
 30
0.0
 10
1143.749999
 20
49.999995
 30
0.0
 10
1149.999999
 20
49.999995
 30
0.0
 10
1149.999999
 20
83.038595
 30
0.0
 10
1148.999999
 20
84.238595
 30
0.0
 10
1150.199999
 20
83.238595
 30
0.0
 10
1168.499999
 20
83.238595
 30
0.0
 10
1168.499999
 20
125.852295
 30
0.0
 10
1150.199999
 20
125.852295
 30
0.0
 10
1148.999999
 20
124.852295
 30
0.0
 10
1149.999999
 20
126.052295
 30
0.0
 10
1149.999999
 20
155.765895
 30
0.0
 10
1148.999999
 20
156.965895
 30
0.0
 10
1150.199999
 20
155.965895
 30
0.0
 10
1168.499999
 20
155.965895
 30
0.0
 10
1168.499999
 20
198.579495
 30
0.0
 10
1150.199999
 20
198.579495
 30
0.0
 10
1148.999999
 20
197.579495
 30
0.0
 10
1149.999999
 20
198.779495
 30
0.0
 10
1149.999999
 20
228.493175
 30
0.0
 10
1148.999999
 20
229.693175
 30
0.0
 10
1150.199999
 20
228.693175
 30
0.0
 10
1168.499999
 20
228.693175
 30
0.0
 10
1168.499999
 20
271.306815
 30
0.0
 10
1150.199999
 20
271.306815
 30
0.0
 10
1148.999999
 20
270.306815
 30
0.0
 10
1149.999999
 20
271.506815
 30
0.0
 10
1149.999999
 20
301.220455
 30
0.0
 10
1148.999999
 20
302.420445
 30
0.0
 10
1150.199999
 20
301.420445
 30
0.0
 10
1168.499999
 20
301.420445
 30
0.0
 10
1168.499999
 20
344.034085
 30
0.0
 10
1150.199999
 20
344.034085
 30
0.0
 10
1148.999999
 20
343.034085
 30
0.0
 10
1149.999999
 20
344.234085
 30
0.0
 10
1149.999999
 20
373.947725
 30
0.0
 10
1148.999999
 20
375.147725
 30
0.0
 10
1150.199999
 20
374.147725
 30
0.0
 10
1168.499999
 20
374.147725
 30
0.0
 10
1168.499999
 20
416.761355
 30
0.0
 10
1150.199999
 20
416.761355
 30
0.0
 10
1148.999999
 20
415.761355
 30
0.0
 10
1149.999999
 20
416.961355
 30
0.0
 10
1149.999999
 20
449.999995
 30
0.0
 10
1149.999999
 20
449.999995
 30
0.0
 10
1119.991699
 20
449.999995
 30
0.0
 10
1118.791699
 20
448.999995
 30
0.0
 10
1119.791699
 20
450.199995
 30
0.0
 10
1119.791699
 20
468.499995
 30
0.0
 10
1080.208299
 20
468.499995
 30
0.0
 10
1080.208299
 20
450.199995
 30
0.0
 10
1081.208299
 20
448.999995
 30
0.0
 10
1080.008299
 20
449.999995
 30
0.0
 10
1053.324999
 20
449.999995
 30
0.0
 10
1052.124999
 20
448.999995
 30
0.0
 10
1053.124999
 20
450.199995
 30
0.0
 10
1053.124999
 20
468.499995
 30
0.0
 10
1013.541699
 20
468.499995
 30
0.0
 10
1013.541699
 20
450.199995
 30
0.0
 10
1014.541699
 20
448.999995
 30
0.0
 10
1013.341699
 20
449.999995
 30
0.0
 10
986.658329
 20
449.999995
 30
0.0
 10
985.458329
 20
448.999995
 30
0.0
 10
986.458329
 20
450.199995
 30
0.0
 10
986.458329
 20
468.499995
 30
0.0
 10
946.874999
 20
468.499995
 30
0.0
 10
946.874999
 20
450.199995
 30
0.0
 10
947.874999
 20
448.999995
 30
0.0
 10
946.674999
 20
449.999995
 30
0.0
 10
919.991669
 20
449.999995
 30
0.0
 10
918.791669
 20
448.999995
 30
0.0
 10
919.791669
 20
450.199995
 30
0.0
 10
919.791669
 20
468.499995
 30
0.0
 10
880.208329
 20
468.499995
 30
0.0
 10
880.208329
 20
450.199995
 30
0.0
 10
881.208329
 20
448.999995
 30
0.0
 10
880.008329
 20
449.999995
 30
0.0
 10
853.324999
 20
449.999995
 30
0.0
 10
852.124999
 20
448.999995
 30
0.0
 10
853.124999
 20
450.199995
 30
0.0
 10
853.124999
 20
468.499995
 30
0.0
 10
813.541669
 20
468.499995
 30
0.0
 10
813.541669
 20
450.199995
 30
0.0
 10
814.541669
 20
448.999995
 30
0.0
 10
813.341669
 20
449.999995
 30
0.0
 10
786.658329
 20
449.999995
 30
0.0
 10
785.458329
 20
448.999995
 30
0.0
 10
786.458329
 20
450.199995
 30
0.0
 10
786.458329
 20
468.499995
 30
0.0
 10
746.874999
 20
468.499995
 30
0.0
 10
746.874999
 20
450.199995
 30
0.0
 10
747.874999
 20
448.999995
 30
0.0
 10
746.674999
 20
449.999995
 30
0.0
 10
719.991669
 20
449.999995
 30
0.0
 10
718.791669
 20
448.999995
 30
0.0
 10
719.791669
 20
450.199995
 30
0.0
 10
719.791669
 20
468.499995
 30
0.0
 10
680.208329
 20
468.499995
 30
0.0
 10
680.208329
 20
450.199995
 30
0.0
 10
681.208329
 20
448.999995
 30
0.0
 10
680.008329
 20
449.999995
 30
0.0
 10
653.324999
 20
449.999995
 30
0.0
 10
652.124999
 20
448.999995
 30
0.0
 10
653.124999
 20
450.199995
 30
0.0
 10
653.124999
 20
468.499995
 30
0.0
 10
613.541669
 20
468.499995
 30
0.0
 10
613.541669
 20
450.199995
 30
0.0
 10
614.541669
 20
448.999995
 30
0.0
 10
613.341669
 20
449.999995
 30
0.0
 10
586.658329
 20
449.999995
 30
0.0
 10
585.458329
 20
448.999995
 30
0.0
 10
586.458329
 20
450.199995
 30
0.0
 10
586.458329
 20
468.499995
 30
0.0
 10
546.874999
 20
468.499995
 30
0.0
 10
546.874999
 20
450.199995
 30
0.0
 10
547.874999
 20
448.999995
 30
0.0
 10
546.674999
 20
449.999995
 30
0.0
 10
519.991669
 20
449.999995
 30
0.0
 10
518.791669
 20
448.999995
 30
0.0
 10
519.791669
 20
450.199995
 30
0.0
 10
519.791669
 20
468.499995
 30
0.0
 10
480.208329
 20
468.499995
 30
0.0
 10
480.208329
 20
450.199995
 30
0.0
 10
481.208329
 20
448.999995
 30
0.0
 10
480.008329
 20
449.999995
 30
0.0
 10
453.324999
 20
449.999995
 30
0.0
 10
452.124999
 20
448.999995
 30
0.0
 10
453.124999
 20
450.199995
 30
0.0
 10
453.124999
 20
468.499995
 30
0.0
 10
413.541669
 20
468.499995
 30
0.0
 10
413.541669
 20
450.199995
 30
0.0
 10
414.541669
 20
448.999995
 30
0.0
 10
413.341669
 20
449.999995
 30
0.0
 10
386.658329
 20
449.999995
 30
0.0
 10
385.458329
 20
448.999995
 30
0.0
 10
386.458329
 20
450.199995
 30
0.0
 10
386.458329
 20
468.499995
 30
0.0
 10
346.874999
 20
468.499995
 30
0.0
 10
346.874999
 20
450.199995
 30
0.0
 10
347.874999
 20
448.999995
 30
0.0
 10
346.674999
 20
449.999995
 30
0.0
 10
319.991669
 20
449.999995
 30
0.0
 10
318.791669
 20
448.999995
 30
0.0
 10
319.791669
 20
450.199995
 30
0.0
 10
319.791669
 20
468.499995
 30
0.0
 10
280.208329
 20
468.499995
 30
0.0
 10
280.208329
 20
450.199995
 30
0.0
 10
281.208329
 20
448.999995
 30
0.0
 10
280.008329
 20
449.999995
 30
0.0
 10
253.324999
 20
449.999995
 30
0.0
 10
252.124999
 20
448.999995
 30
0.0
 10
253.124999
 20
450.199995
 30
0.0
 10
253.124999
 20
468.499995
 30
0.0
 10
213.541669
 20
468.499995
 30
0.0
 10
213.541669
 20
450.199995
 30
0.0
 10
214.541669
 20
448.999995
 30
0.0
 10
213.341669
 20
449.999995
 30
0.0
 10
186.658329
 20
449.999995
 30
0.0
 10
185.458329
 20
448.999995
 30
0.0
 10
186.458329
 20
450.199995
 30
0.0
 10
186.458329
 20
468.499995
 30
0.0
 10
146.874999
 20
468.499995
 30
0.0
 10
146.874999
 20
450.199995
 30
0.0
 10
147.874999
 20
448.999995
 30
0.0
 10
146.674999
 20
449.999995
 30
0.0
 10
119.991669
 20
449.999995
 30
0.0
 10
118.791669
 20
448.999995
 30
0.0
 10
119.791669
 20
450.199995
 30
0.0
 10
119.791669
 20
468.499995
 30
0.0
 10
80.208332
 20
468.499995
 30
0.0
 10
80.208332
 20
450.199995
 30
0.0
 10
81.208332
 20
448.999995
 30
0.0
 10
80.008332
 20
449.999995
 30
0.0
 10
56.249999
 20
449.999995
 30
0.0
 10
49.999999
 20
449.999995
 30
0.0
 10
49.999999
 20
416.961355
 30
0.0
 10
50.999999
 20
415.761355
 30
0.0
 10
49.799999
 20
416.761355
 30
0.0
 10
31.499999
 20
416.761355
 30
0.0
 10
31.499999
 20
374.147725
 30
0.0
 10
49.799999
 20
374.147725
 30
0.0
 10
50.999999
 20
375.147725
 30
0.0
 10
49.999999
 20
373.947725
 30
0.0
 10
49.999999
 20
344.234085
 30
0.0
 10
50.999999
 20
343.034085
 30
0.0
 10
49.799999
 20
344.034085
 30
0.0
 10
31.499999
 20
344.034085
 30
0.0
 10
31.499999
 20
301.420445
 30
0.0
 10
49.799999
 20
301.420445
 30
0.0
 10
50.999999
 20
302.420445
 30
0.0
 10
49.999999
 20
301.220455
 30
0.0
 10
49.999999
 20
271.506815
 30
0.0
 10
50.999999
 20
270.306815
 30
0.0
 10
49.799999
 20
271.306815
 30
0.0
 10
31.499999
 20
271.306815
 30
0.0
 10
31.499999
 20
228.693175
 30
0.0
 10
49.799999
 20
228.693175
 30
0.0
 10
50.999999
 20
229.693175
 30
0.0
 10
49.999999
 20
228.493175
 30
0.0
 10
49.999999
 20
198.779495
 30
0.0
 10
50.999999
 20
197.579495
 30
0.0
 10
49.799999
 20
198.579495
 30
0.0
 10
31.499999
 20
198.579495
 30
0.0
 10
31.499999
 20
155.965895
 30
0.0
 10
49.799999
 20
155.965895
 30
0.0
 10
50.999999
 20
156.965895
 30
0.0
 10
49.999999
 20
155.765895
 30
0.0
 10
49.999999
 20
126.052295
 30
0.0
 10
50.999999
 20
124.852295
 30
0.0
 10
49.799999
 20
125.852295
 30
0.0
 10
31.499999
 20
125.852295
 30
0.0
 10
31.499999
 20
83.238595
 30
0.0
 10
49.799999
 20
83.238595
 30
0.0
 10
50.999999
 20
84.238595
 30
0.0
 10
49.999999
 20
83.038595
 30
0.0
 10
49.999999
 20
49.999995
 30
0.0
 10
49.999999
 20
49.999995
 30
0.0
  0
LWPOLYLINE
  5
10c
100
AcDbEntity
  8
Final_18.5mm
 62
7
100
AcDbPolyline
 90
189
 70
0
 10
49.999999
 20
484.999995
 30
0.0
 10
1156.249999
 20
484.999995
 30
0.0
 10
1156.249999
 20
484.999995
 30
0.0
 10
1168.468699
 20
484.964295
 30
0.0
 10
1168.499699
 20
507.035725
 30
0.0
 10
1168.499699
 20
522.410725
 30
0.0
 10
1150.199699
 20
522.410725
 30
0.0
 10
1148.999699
 20
521.410725
 30
0.0
 10
1149.999699
 20
522.610725
 30
0.0
 10
1149.999699
 20
550.246445
 30
0.0
 10
1148.999699
 20
551.446445
 30
0.0
 10
1150.199699
 20
550.446445
 30
0.0
 10
1168.499699
 20
550.446445
 30
0.0
 10
1168.499699
 20
590.982155
 30
0.0
 10
1150.199699
 20
590.982155
 30
0.0
 10
1148.999699
 20
589.982155
 30
0.0
 10
1149.999699
 20
591.182155
 30
0.0
 10
1149.999699
 20
618.817875
 30
0.0
 10
1148.999699
 20
620.017875
 30
0.0
 10
1150.199699
 20
619.017875
 30
0.0
 10
1168.499699
 20
619.017875
 30
0.0
 10
1168.499699
 20
659.553585
 30
0.0
 10
1150.199699
 20
659.553585
 30
0.0
 10
1148.999699
 20
658.553585
 30
0.0
 10
1149.999699
 20
659.753585
 30
0.0
 10
1149.999699
 20
687.389305
 30
0.0
 10
1148.999699
 20
688.589305
 30
0.0
 10
1150.199699
 20
687.589305
 30
0.0
 10
1168.499699
 20
687.589305
 30
0.0
 10
1168.499699
 20
725.000015
 30
0.0
 10
1168.499699
 20
743.500015
 30
0.0
 10
1128.916399
 20
743.500015
 30
0.0
 10
1113.541399
 20
743.500015
 30
0.0
 10
1113.541399
 20
725.200015
 30
0.0
 10
1114.541399
 20
724.000015
 30
0.0
 10
1113.341399
 20
725.000015
 30
0.0
 10
1086.657999
 20
725.000015
 30
0.0
 10
1085.457999
 20
724.000015
 30
0.0
 10
1086.457999
 20
725.200015
 30
0.0
 10
1086.457999
 20
743.500015
 30
0.0
 10
1046.874699
 20
743.500015
 30
0.0
 10
1046.874699
 20
725.200015
 30
0.0
 10
1047.874699
 20
724.000015
 30
0.0
 10
1046.674699
 20
725.000015
 30
0.0
 10
1019.991399
 20
725.000015
 30
0.0
 10
1018.791399
 20
724.000015
 30
0.0
 10
1019.791399
 20
725.200015
 30
0.0
 10
1019.791399
 20
743.500015
 30
0.0
 10
980.208029
 20
743.500015
 30
0.0
 10
980.208029
 20
725.200015
 30
0.0
 10
981.208029
 20
724.000015
 30
0.0
 10
980.008029
 20
725.000015
 30
0.0
 10
953.324699
 20
725.000015
 30
0.0
 10
952.124699
 20
724.000015
 30
0.0
 10
953.124699
 20
725.200015
 30
0.0
 10
953.124699
 20
743.500015
 30
0.0
 10
913.541369
 20
743.500015
 30
0.0
 10
913.541369
 20
725.200015
 30
0.0
 10
914.541369
 20
724.000015
 30
0.0
 10
913.341369
 20
725.000015
 30
0.0
 10
886.658029
 20
725.000015
 30
0.0
 10
885.458029
 20
724.000015
 30
0.0
 10
886.458029
 20
725.200015
 30
0.0
 10
886.458029
 20
743.500015
 30
0.0
 10
846.874699
 20
743.500015
 30
0.0
 10
846.874699
 20
725.200015
 30
0.0
 10
847.874699
 20
724.000015
 30
0.0
 10
846.674699
 20
725.000015
 30
0.0
 10
819.991369
 20
725.000015
 30
0.0
 10
818.791369
 20
724.000015
 30
0.0
 10
819.791369
 20
725.200015
 30
0.0
 10
819.791369
 20
743.500015
 30
0.0
 10
780.208029
 20
743.500015
 30
0.0
 10
780.208029
 20
725.200015
 30
0.0
 10
781.208029
 20
724.000015
 30
0.0
 10
780.008029
 20
725.000015
 30
0.0
 10
753.324699
 20
725.000015
 30
0.0
 10
752.124699
 20
724.000015
 30
0.0
 10
753.124699
 20
725.200015
 30
0.0
 10
753.124699
 20
743.500015
 30
0.0
 10
713.541369
 20
743.500015
 30
0.0
 10
713.541369
 20
725.200015
 30
0.0
 10
714.541369
 20
724.000015
 30
0.0
 10
713.341369
 20
725.000015
 30
0.0
 10
686.658029
 20
725.000015
 30
0.0
 10
685.458029
 20
724.000015
 30
0.0
 10
686.458029
 20
725.200015
 30
0.0
 10
686.458029
 20
743.500015
 30
0.0
 10
646.874699
 20
743.500015
 30
0.0
 10
646.874699
 20
725.200015
 30
0.0
 10
647.874699
 20
724.000015
 30
0.0
 10
646.674699
 20
725.000015
 30
0.0
 10
619.991369
 20
725.000015
 30
0.0
 10
618.791369
 20
724.000015
 30
0.0
 10
619.791369
 20
725.200015
 30
0.0
 10
619.791369
 20
743.500015
 30
0.0
 10
580.208029
 20
743.500015
 30
0.0
 10
580.208029
 20
725.200015
 30
0.0
 10
581.208029
 20
724.000015
 30
0.0
 10
580.008029
 20
725.000015
 30
0.0
 10
553.324699
 20
725.000015
 30
0.0
 10
552.124699
 20
724.000015
 30
0.0
 10
553.124699
 20
725.200015
 30
0.0
 10
553.124699
 20
743.500015
 30
0.0
 10
513.541369
 20
743.500015
 30
0.0
 10
513.541369
 20
725.200015
 30
0.0
 10
514.541369
 20
724.000015
 30
0.0
 10
513.341369
 20
725.000015
 30
0.0
 10
486.658029
 20
725.000015
 30
0.0
 10
485.458029
 20
724.000015
 30
0.0
 10
486.458029
 20
725.200015
 30
0.0
 10
486.458029
 20
743.500015
 30
0.0
 10
446.874699
 20
743.500015
 30
0.0
 10
446.874699
 20
725.200015
 30
0.0
 10
447.874699
 20
724.000015
 30
0.0
 10
446.674699
 20
725.000015
 30
0.0
 10
419.991369
 20
725.000015
 30
0.0
 10
418.791369
 20
724.000015
 30
0.0
 10
419.791369
 20
725.200015
 30
0.0
 10
419.791369
 20
743.500015
 30
0.0
 10
380.208029
 20
743.500015
 30
0.0
 10
380.208029
 20
725.200015
 30
0.0
 10
381.208029
 20
724.000015
 30
0.0
 10
380.008029
 20
725.000015
 30
0.0
 10
353.324699
 20
725.000015
 30
0.0
 10
352.124699
 20
724.000015
 30
0.0
 10
353.124699
 20
725.200015
 30
0.0
 10
353.124699
 20
743.500015
 30
0.0
 10
313.541369
 20
743.500015
 30
0.0
 10
313.541369
 20
725.200015
 30
0.0
 10
314.541369
 20
724.000015
 30
0.0
 10
313.341369
 20
725.000015
 30
0.0
 10
286.658029
 20
725.000015
 30
0.0
 10
285.458029
 20
724.000015
 30
0.0
 10
286.458029
 20
725.200015
 30
0.0
 10
286.458029
 20
743.500015
 30
0.0
 10
246.874699
 20
743.500015
 30
0.0
 10
246.874699
 20
725.200015
 30
0.0
 10
247.874699
 20
724.000015
 30
0.0
 10
246.674699
 20
725.000015
 30
0.0
 10
219.991369
 20
725.000015
 30
0.0
 10
218.791369
 20
724.000015
 30
0.0
 10
219.791369
 20
725.200015
 30
0.0
 10
219.791369
 20
743.500015
 30
0.0
 10
180.208029
 20
743.500015
 30
0.0
 10
180.208029
 20
725.200015
 30
0.0
 10
181.208029
 20
724.000015
 30
0.0
 10
180.008029
 20
725.000015
 30
0.0
 10
153.324699
 20
725.000015
 30
0.0
 10
152.124699
 20
724.000015
 30
0.0
 10
153.124699
 20
725.200015
 30
0.0
 10
153.124699
 20
743.500015
 30
0.0
 10
113.541369
 20
743.500015
 30
0.0
 10
113.541369
 20
725.200015
 30
0.0
 10
114.541369
 20
724.000015
 30
0.0
 10
113.341369
 20
725.000015
 30
0.0
 10
86.658032
 20
725.000015
 30
0.0
 10
85.458032
 20
724.000015
 30
0.0
 10
86.458032
 20
725.200015
 30
0.0
 10
86.458032
 20
743.500015
 30
0.0
 10
43.749699
 20
743.500015
 30
0.0
 10
31.499699
 20
743.500015
 30
0.0
 10
31.499699
 20
702.964305
 30
0.0
 10
31.499699
 20
687.589305
 30
0.0
 10
49.799699
 20
687.589305
 30
0.0
 10
50.999699
 20
688.589305
 30
0.0
 10
49.999699
 20
687.389305
 30
0.0
 10
49.999699
 20
659.753585
 30
0.0
 10
50.999699
 20
658.553585
 30
0.0
 10
49.799699
 20
659.553585
 30
0.0
 10
31.499699
 20
659.553585
 30
0.0
 10
31.499699
 20
619.017875
 30
0.0
 10
49.799699
 20
619.017875
 30
0.0
 10
50.999699
 20
620.017875
 30
0.0
 10
49.999699
 20
618.817875
 30
0.0
 10
49.999699
 20
591.182155
 30
0.0
 10
50.999699
 20
589.982155
 30
0.0
 10
49.799699
 20
590.982155
 30
0.0
 10
31.499699
 20
590.982155
 30
0.0
 10
31.499699
 20
550.446445
 30
0.0
 10
49.799699
 20
550.446445
 30
0.0
 10
50.999699
 20
551.446445
 30
0.0
 10
49.999699
 20
550.246445
 30
0.0
 10
49.999699
 20
522.610725
 30
0.0
 10
50.999699
 20
521.410725
 30
0.0
 10
49.799699
 20
522.410725
 30
0.0
 10
31.499699
 20
522.410725
 30
0.0
 10
31.499699
 20
485.000015
 30
0.0
 10
49.999699
 20
485.000015
 30
0.0
  0
LWPOLYLINE
  5
10d
100
AcDbEntity
  8
Final_18.5mm
 62
7
100
AcDbPolyline
 90
189
 70
0
 10
1219.999999
 20
484.999995
 30
0.0
 10
2326.249999
 20
484.999995
 30
0.0
 10
2326.249999
 20
484.999995
 30
0.0
 10
2338.499999
 20
484.985495
 30
0.0
 10
2338.499999
 20
507.035655
 30
0.0
 10
2338.499999
 20
522.410655
 30
0.0
 10
2320.199999
 20
522.410655
 30
0.0
 10
2318.999999
 20
521.410655
 30
0.0
 10
2319.999999
 20
522.610655
 30
0.0
 10
2319.999999
 20
550.246375
 30
0.0
 10
2318.999999
 20
551.446375
 30
0.0
 10
2320.199999
 20
550.446375
 30
0.0
 10
2338.499999
 20
550.446375
 30
0.0
 10
2338.499999
 20
590.982085
 30
0.0
 10
2320.199999
 20
590.982085
 30
0.0
 10
2318.999999
 20
589.982085
 30
0.0
 10
2319.999999
 20
591.182085
 30
0.0
 10
2319.999999
 20
618.817805
 30
0.0
 10
2318.999999
 20
620.017805
 30
0.0
 10
2320.199999
 20
619.017805
 30
0.0
 10
2338.499999
 20
619.017805
 30
0.0
 10
2338.499999
 20
659.553515
 30
0.0
 10
2320.199999
 20
659.553515
 30
0.0
 10
2318.999999
 20
658.553515
 30
0.0
 10
2319.999999
 20
659.753515
 30
0.0
 10
2319.999999
 20
687.389235
 30
0.0
 10
2318.999999
 20
688.589235
 30
0.0
 10
2320.199999
 20
687.589235
 30
0.0
 10
2338.499999
 20
687.589235
 30
0.0
 10
2338.499999
 20
724.999945
 30
0.0
 10
2338.499999
 20
743.499945
 30
0.0
 10
2298.916699
 20
743.499945
 30
0.0
 10
2283.541699
 20
743.499945
 30
0.0
 10
2283.541699
 20
725.199945
 30
0.0
 10
2284.541699
 20
723.999945
 30
0.0
 10
2283.341699
 20
724.999945
 30
0.0
 10
2256.658299
 20
724.999945
 30
0.0
 10
2255.458299
 20
723.999945
 30
0.0
 10
2256.458299
 20
725.199945
 30
0.0
 10
2256.458299
 20
743.499945
 30
0.0
 10
2216.874999
 20
743.499945
 30
0.0
 10
2216.874999
 20
725.199945
 30
0.0
 10
2217.874999
 20
723.999945
 30
0.0
 10
2216.674999
 20
724.999945
 30
0.0
 10
2189.991699
 20
724.999945
 30
0.0
 10
2188.791699
 20
723.999945
 30
0.0
 10
2189.791699
 20
725.199945
 30
0.0
 10
2189.791699
 20
743.499945
 30
0.0
 10
2150.208299
 20
743.499945
 30
0.0
 10
2150.208299
 20
725.199945
 30
0.0
 10
2151.208299
 20
723.999945
 30
0.0
 10
2150.008299
 20
724.999945
 30
0.0
 10
2123.324999
 20
724.999945
 30
0.0
 10
2122.124999
 20
723.999945
 30
0.0
 10
2123.124999
 20
725.199945
 30
0.0
 10
2123.124999
 20
743.499945
 30
0.0
 10
2083.541699
 20
743.499945
 30
0.0
 10
2083.541699
 20
725.199945
 30
0.0
 10
2084.541699
 20
723.999945
 30
0.0
 10
2083.341699
 20
724.999945
 30
0.0
 10
2056.658299
 20
724.999945
 30
0.0
 10
2055.458299
 20
723.999945
 30
0.0
 10
2056.458299
 20
725.199945
 30
0.0
 10
2056.458299
 20
743.499945
 30
0.0
 10
2016.874999
 20
743.499945
 30
0.0
 10
2016.874999
 20
725.199945
 30
0.0
 10
2017.874999
 20
723.999945
 30
0.0
 10
2016.674999
 20
724.999945
 30
0.0
 10
1989.991699
 20
724.999945
 30
0.0
 10
1988.791699
 20
723.999945
 30
0.0
 10
1989.791699
 20
725.199945
 30
0.0
 10
1989.791699
 20
743.499945
 30
0.0
 10
1950.208299
 20
743.499945
 30
0.0
 10
1950.208299
 20
725.199945
 30
0.0
 10
1951.208299
 20
723.999945
 30
0.0
 10
1950.008299
 20
724.999945
 30
0.0
 10
1923.324999
 20
724.999945
 30
0.0
 10
1922.124999
 20
723.999945
 30
0.0
 10
1923.124999
 20
725.199945
 30
0.0
 10
1923.124999
 20
743.499945
 30
0.0
 10
1883.541699
 20
743.499945
 30
0.0
 10
1883.541699
 20
725.199945
 30
0.0
 10
1884.541699
 20
723.999945
 30
0.0
 10
1883.341699
 20
724.999945
 30
0.0
 10
1856.658299
 20
724.999945
 30
0.0
 10
1855.458299
 20
723.999945
 30
0.0
 10
1856.458299
 20
725.199945
 30
0.0
 10
1856.458299
 20
743.499945
 30
0.0
 10
1816.874999
 20
743.499945
 30
0.0
 10
1816.874999
 20
725.199945
 30
0.0
 10
1817.874999
 20
723.999945
 30
0.0
 10
1816.674999
 20
724.999945
 30
0.0
 10
1789.991699
 20
724.999945
 30
0.0
 10
1788.791699
 20
723.999945
 30
0.0
 10
1789.791699
 20
725.199945
 30
0.0
 10
1789.791699
 20
743.499945
 30
0.0
 10
1750.208299
 20
743.499945
 30
0.0
 10
1750.208299
 20
725.199945
 30
0.0
 10
1751.208299
 20
723.999945
 30
0.0
 10
1750.008299
 20
724.999945
 30
0.0
 10
1723.324999
 20
724.999945
 30
0.0
 10
1722.124999
 20
723.999945
 30
0.0
 10
1723.124999
 20
725.199945
 30
0.0
 10
1723.124999
 20
743.499945
 30
0.0
 10
1683.541699
 20
743.499945
 30
0.0
 10
1683.541699
 20
725.199945
 30
0.0
 10
1684.541699
 20
723.999945
 30
0.0
 10
1683.341699
 20
724.999945
 30
0.0
 10
1656.658299
 20
724.999945
 30
0.0
 10
1655.458299
 20
723.999945
 30
0.0
 10
1656.458299
 20
725.199945
 30
0.0
 10
1656.458299
 20
743.499945
 30
0.0
 10
1616.874999
 20
743.499945
 30
0.0
 10
1616.874999
 20
725.199945
 30
0.0
 10
1617.874999
 20
723.999945
 30
0.0
 10
1616.674999
 20
724.999945
 30
0.0
 10
1589.991699
 20
724.999945
 30
0.0
 10
1588.791699
 20
723.999945
 30
0.0
 10
1589.791699
 20
725.199945
 30
0.0
 10
1589.791699
 20
743.499945
 30
0.0
 10
1550.208299
 20
743.499945
 30
0.0
 10
1550.208299
 20
725.199945
 30
0.0
 10
1551.208299
 20
723.999945
 30
0.0
 10
1550.008299
 20
724.999945
 30
0.0
 10
1523.324999
 20
724.999945
 30
0.0
 10
1522.124999
 20
723.999945
 30
0.0
 10
1523.124999
 20
725.199945
 30
0.0
 10
1523.124999
 20
743.499945
 30
0.0
 10
1483.541699
 20
743.499945
 30
0.0
 10
1483.541699
 20
725.199945
 30
0.0
 10
1484.541699
 20
723.999945
 30
0.0
 10
1483.341699
 20
724.999945
 30
0.0
 10
1456.658299
 20
724.999945
 30
0.0
 10
1455.458299
 20
723.999945
 30
0.0
 10
1456.458299
 20
725.199945
 30
0.0
 10
1456.458299
 20
743.499945
 30
0.0
 10
1416.874999
 20
743.499945
 30
0.0
 10
1416.874999
 20
725.199945
 30
0.0
 10
1417.874999
 20
723.999945
 30
0.0
 10
1416.674999
 20
724.999945
 30
0.0
 10
1389.991699
 20
724.999945
 30
0.0
 10
1388.791699
 20
723.999945
 30
0.0
 10
1389.791699
 20
725.199945
 30
0.0
 10
1389.791699
 20
743.499945
 30
0.0
 10
1350.208299
 20
743.499945
 30
0.0
 10
1350.208299
 20
725.199945
 30
0.0
 10
1351.208299
 20
723.999945
 30
0.0
 10
1350.008299
 20
724.999945
 30
0.0
 10
1323.324999
 20
724.999945
 30
0.0
 10
1322.124999
 20
723.999945
 30
0.0
 10
1323.124999
 20
725.199945
 30
0.0
 10
1323.124999
 20
743.499945
 30
0.0
 10
1283.541699
 20
743.499945
 30
0.0
 10
1283.541699
 20
725.199945
 30
0.0
 10
1284.541699
 20
723.999945
 30
0.0
 10
1283.341699
 20
724.999945
 30
0.0
 10
1256.658299
 20
724.999945
 30
0.0
 10
1255.458299
 20
723.999945
 30
0.0
 10
1256.458299
 20
725.199945
 30
0.0
 10
1256.458299
 20
743.499945
 30
0.0
 10
1213.749999
 20
743.499945
 30
0.0
 10
1201.499999
 20
743.499945
 30
0.0
 10
1201.499999
 20
702.964235
 30
0.0
 10
1201.499999
 20
687.589235
 30
0.0
 10
1219.799999
 20
687.589235
 30
0.0
 10
1220.999999
 20
688.589235
 30
0.0
 10
1219.999999
 20
687.389235
 30
0.0
 10
1219.999999
 20
659.753515
 30
0.0
 10
1220.999999
 20
658.553515
 30
0.0
 10
1219.799999
 20
659.553515
 30
0.0
 10
1201.499999
 20
659.553515
 30
0.0
 10
1201.499999
 20
619.017805
 30
0.0
 10
1219.799999
 20
619.017805
 30
0.0
 10
1220.999999
 20
620.017805
 30
0.0
 10
1219.999999
 20
618.817805
 30
0.0
 10
1219.999999
 20
591.182085
 30
0.0
 10
1220.999999
 20
589.982085
 30
0.0
 10
1219.799999
 20
590.982085
 30
0.0
 10
1201.499999
 20
590.982085
 30
0.0
 10
1201.499999
 20
550.446375
 30
0.0
 10
1219.799999
 20
550.446375
 30
0.0
 10
1220.999999
 20
551.446375
 30
0.0
 10
1219.999999
 20
550.246375
 30
0.0
 10
1219.999999
 20
522.610655
 30
0.0
 10
1220.999999
 20
521.410655
 30
0.0
 10
1219.799999
 20
522.410655
 30
0.0
 10
1201.499999
 20
522.410655
 30
0.0
 10
1201.499999
 20
484.999945
 30
0.0
 10
1219.999999
 20
484.999945
 30
0.0
  0
LWPOLYLINE
  5
10e
100
AcDbEntity
  8
Final_18.5mm
 62
7
100
AcDbPolyline
 90
99
 70
0
 10
49.999999
 20
759.999995
 30
0.0
 10
49.999999
 20
759.999995
 30
0.0
 10
449.999999
 20
759.999995
 30
0.0
 10
449.999999
 20
759.999995
 30
0.0
 10
449.999999
 20
790.960705
 30
0.0
 10
448.999999
 20
792.160705
 30
0.0
 10
450.199999
 20
791.160705
 30
0.0
 10
468.499999
 20
791.160705
 30
0.0
 10
468.499999
 20
831.696425
 30
0.0
 10
450.199999
 20
831.696425
 30
0.0
 10
448.999999
 20
830.696425
 30
0.0
 10
449.999999
 20
831.896425
 30
0.0
 10
449.999999
 20
859.532135
 30
0.0
 10
448.999999
 20
860.732135
 30
0.0
 10
450.199999
 20
859.732135
 30
0.0
 10
468.499999
 20
859.732135
 30
0.0
 10
468.499999
 20
900.267855
 30
0.0
 10
450.199999
 20
900.267855
 30
0.0
 10
448.999999
 20
899.267855
 30
0.0
 10
449.999999
 20
900.467855
 30
0.0
 10
449.999999
 20
928.103565
 30
0.0
 10
448.999999
 20
929.303565
 30
0.0
 10
450.199999
 20
928.303565
 30
0.0
 10
468.499999
 20
928.303565
 30
0.0
 10
468.499999
 20
968.839285
 30
0.0
 10
450.199999
 20
968.839285
 30
0.0
 10
448.999999
 20
967.839285
 30
0.0
 10
449.999999
 20
969.039285
 30
0.0
 10
449.999999
 20
999.999995
 30
0.0
 10
449.999999
 20
999.999995
 30
0.0
 10
449.999999
 20
1018.499995
 30
0.0
 10
410.511359
 20
1018.499995
 30
0.0
 10
410.511359
 20
1000.199995
 30
0.0
 10
411.511359
 20
998.999995
 30
0.0
 10
410.311359
 20
999.999995
 30
0.0
 10
380.597729
 20
999.999995
 30
0.0
 10
379.397729
 20
998.999995
 30
0.0
 10
380.397729
 20
1000.199995
 30
0.0
 10
380.397729
 20
1018.499995
 30
0.0
 10
337.784089
 20
1018.499995
 30
0.0
 10
337.784089
 20
1000.199995
 30
0.0
 10
338.784089
 20
998.999995
 30
0.0
 10
337.584089
 20
999.999995
 30
0.0
 10
307.870449
 20
999.999995
 30
0.0
 10
306.670449
 20
998.999995
 30
0.0
 10
307.670449
 20
1000.199995
 30
0.0
 10
307.670449
 20
1018.499995
 30
0.0
 10
265.056819
 20
1018.499995
 30
0.0
 10
265.056819
 20
1000.199995
 30
0.0
 10
266.056819
 20
998.999995
 30
0.0
 10
264.856819
 20
999.999995
 30
0.0
 10
235.143179
 20
999.999995
 30
0.0
 10
233.943179
 20
998.999995
 30
0.0
 10
234.943179
 20
1000.199995
 30
0.0
 10
234.943179
 20
1018.499995
 30
0.0
 10
192.329539
 20
1018.499995
 30
0.0
 10
192.329539
 20
1000.199995
 30
0.0
 10
193.329539
 20
998.999995
 30
0.0
 10
192.129539
 20
999.999995
 30
0.0
 10
162.415909
 20
999.999995
 30
0.0
 10
161.215909
 20
998.999995
 30
0.0
 10
162.215909
 20
1000.199995
 30
0.0
 10
162.215909
 20
1018.499995
 30
0.0
 10
119.602269
 20
1018.499995
 30
0.0
 10
119.602269
 20
1000.199995
 30
0.0
 10
120.602269
 20
998.999995
 30
0.0
 10
119.402269
 20
999.999995
 30
0.0
 10
89.688635
 20
999.999995
 30
0.0
 10
88.488635
 20
998.999995
 30
0.0
 10
89.488635
 20
1000.199995
 30
0.0
 10
89.488635
 20
1018.499995
 30
0.0
 10
49.999999
 20
1018.499995
 30
0.0
 10
49.999999
 20
999.999995
 30
0.0
 10
49.999999
 20
969.039285
 30
0.0
 10
50.999999
 20
967.839285
 30
0.0
 10
49.799999
 20
968.839285
 30
0.0
 10
31.499999
 20
968.839285
 30
0.0
 10
31.499999
 20
928.303565
 30
0.0
 10
49.799999
 20
928.303565
 30
0.0
 10
50.999999
 20
929.303565
 30
0.0
 10
49.999999
 20
928.103565
 30
0.0
 10
49.999999
 20
900.467855
 30
0.0
 10
50.999999
 20
899.267855
 30
0.0
 10
49.799999
 20
900.267855
 30
0.0
 10
31.499999
 20
900.267855
 30
0.0
 10
31.499999
 20
859.732135
 30
0.0
 10
49.799999
 20
859.732135
 30
0.0
 10
50.999999
 20
860.732135
 30
0.0
 10
49.999999
 20
859.532135
 30
0.0
 10
49.999999
 20
831.896425
 30
0.0
 10
50.999999
 20
830.696425
 30
0.0
 10
49.799999
 20
831.696425
 30
0.0
 10
31.499999
 20
831.696425
 30
0.0
 10
31.499999
 20
791.160705
 30
0.0
 10
49.799999
 20
791.160705
 30
0.0
 10
50.999999
 20
792.160705
 30
0.0
 10
49.999999
 20
790.960705
 30
0.0
 10
49.999999
 20
759.999995
 30
0.0
 10
49.999999
 20
759.999995
 30
0.0
  0
LWPOLYLINE
  5
10f
100
AcDbEntity
  8
Final_18.5mm
 62
7
100
AcDbPolyline
 90
99
 70
0
 10
1219.999999
 20
759.999995
 30
0.0
 10
1219.999999
 20
759.999995
 30
0.0
 10
1619.999999
 20
759.999995
 30
0.0
 10
1619.999999
 20
759.999995
 30
0.0
 10
1619.999999
 20
790.960705
 30
0.0
 10
1618.999999
 20
792.160705
 30
0.0
 10
1620.199999
 20
791.160705
 30
0.0
 10
1638.499999
 20
791.160705
 30
0.0
 10
1638.499999
 20
831.696425
 30
0.0
 10
1620.199999
 20
831.696425
 30
0.0
 10
1618.999999
 20
830.696425
 30
0.0
 10
1619.999999
 20
831.896425
 30
0.0
 10
1619.999999
 20
859.532135
 30
0.0
 10
1618.999999
 20
860.732135
 30
0.0
 10
1620.199999
 20
859.732135
 30
0.0
 10
1638.499999
 20
859.732135
 30
0.0
 10
1638.499999
 20
900.267855
 30
0.0
 10
1620.199999
 20
900.267855
 30
0.0
 10
1618.999999
 20
899.267855
 30
0.0
 10
1619.999999
 20
900.467855
 30
0.0
 10
1619.999999
 20
928.103565
 30
0.0
 10
1618.999999
 20
929.303565
 30
0.0
 10
1620.199999
 20
928.303565
 30
0.0
 10
1638.499999
 20
928.303565
 30
0.0
 10
1638.499999
 20
968.839285
 30
0.0
 10
1620.199999
 20
968.839285
 30
0.0
 10
1618.999999
 20
967.839285
 30
0.0
 10
1619.999999
 20
969.039285
 30
0.0
 10
1619.999999
 20
999.999995
 30
0.0
 10
1619.999999
 20
999.999995
 30
0.0
 10
1619.999999
 20
1018.499995
 30
0.0
 10
1580.511399
 20
1018.499995
 30
0.0
 10
1580.511399
 20
1000.199995
 30
0.0
 10
1581.511399
 20
998.999995
 30
0.0
 10
1580.311399
 20
999.999995
 30
0.0
 10
1550.597699
 20
999.999995
 30
0.0
 10
1549.397699
 20
998.999995
 30
0.0
 10
1550.397699
 20
1000.199995
 30
0.0
 10
1550.397699
 20
1018.499995
 30
0.0
 10
1507.784099
 20
1018.499995
 30
0.0
 10
1507.784099
 20
1000.199995
 30
0.0
 10
1508.784099
 20
998.999995
 30
0.0
 10
1507.584099
 20
999.999995
 30
0.0
 10
1477.870499
 20
999.999995
 30
0.0
 10
1476.670499
 20
998.999995
 30
0.0
 10
1477.670499
 20
1000.199995
 30
0.0
 10
1477.670499
 20
1018.499995
 30
0.0
 10
1435.056799
 20
1018.499995
 30
0.0
 10
1435.056799
 20
1000.199995
 30
0.0
 10
1436.056799
 20
998.999995
 30
0.0
 10
1434.856799
 20
999.999995
 30
0.0
 10
1405.143199
 20
999.999995
 30
0.0
 10
1403.943199
 20
998.999995
 30
0.0
 10
1404.943199
 20
1000.199995
 30
0.0
 10
1404.943199
 20
1018.499995
 30
0.0
 10
1362.329499
 20
1018.499995
 30
0.0
 10
1362.329499
 20
1000.199995
 30
0.0
 10
1363.329499
 20
998.999995
 30
0.0
 10
1362.129499
 20
999.999995
 30
0.0
 10
1332.415899
 20
999.999995
 30
0.0
 10
1331.215899
 20
998.999995
 30
0.0
 10
1332.215899
 20
1000.199995
 30
0.0
 10
1332.215899
 20
1018.499995
 30
0.0
 10
1289.602299
 20
1018.499995
 30
0.0
 10
1289.602299
 20
1000.199995
 30
0.0
 10
1290.602299
 20
998.999995
 30
0.0
 10
1289.402299
 20
999.999995
 30
0.0
 10
1259.688599
 20
999.999995
 30
0.0
 10
1258.488599
 20
998.999995
 30
0.0
 10
1259.488599
 20
1000.199995
 30
0.0
 10
1259.488599
 20
1018.499995
 30
0.0
 10
1219.999999
 20
1018.499995
 30
0.0
 10
1219.999999
 20
999.999995
 30
0.0
 10
1219.999999
 20
969.039285
 30
0.0
 10
1220.999999
 20
967.839285
 30
0.0
 10
1219.799999
 20
968.839285
 30
0.0
 10
1201.499999
 20
968.839285
 30
0.0
 10
1201.499999
 20
928.303565
 30
0.0
 10
1219.799999
 20
928.303565
 30
0.0
 10
1220.999999
 20
929.303565
 30
0.0
 10
1219.999999
 20
928.103565
 30
0.0
 10
1219.999999
 20
900.467855
 30
0.0
 10
1220.999999
 20
899.267855
 30
0.0
 10
1219.799999
 20
900.267855
 30
0.0
 10
1201.499999
 20
900.267855
 30
0.0
 10
1201.499999
 20
859.732135
 30
0.0
 10
1219.799999
 20
859.732135
 30
0.0
 10
1220.999999
 20
860.732135
 30
0.0
 10
1219.999999
 20
859.532135
 30
0.0
 10
1219.999999
 20
831.896425
 30
0.0
 10
1220.999999
 20
830.696425
 30
0.0
 10
1219.799999
 20
831.696425
 30
0.0
 10
1201.499999
 20
831.696425
 30
0.0
 10
1201.499999
 20
791.160705
 30
0.0
 10
1219.799999
 20
791.160705
 30
0.0
 10
1220.999999
 20
792.160705
 30
0.0
 10
1219.999999
 20
790.960705
 30
0.0
 10
1219.999999
 20
759.999995
 30
0.0
 10
1219.999999
 20
759.999995
 30
0.0
  0
LWPOLYLINE
  5
110
100
AcDbEntity
  8
Final_18.5mm
 62
7
100
AcDbPolyline
 90
99
 70
0
 10
519.999999
 20
767.999995
 30
0.0
 10
519.999999
 20
767.999995
 30
0.0
 10
919.999999
 20
767.999995
 30
0.0
 10
919.999999
 20
767.999995
 30
0.0
 10
919.999999
 20
798.960705
 30
0.0
 10
918.999999
 20
800.160705
 30
0.0
 10
920.199999
 20
799.160705
 30
0.0
 10
938.499999
 20
799.160705
 30
0.0
 10
938.499999
 20
839.696425
 30
0.0
 10
920.199999
 20
839.696425
 30
0.0
 10
918.999999
 20
838.696425
 30
0.0
 10
919.999999
 20
839.896425
 30
0.0
 10
919.999999
 20
867.532135
 30
0.0
 10
918.999999
 20
868.732135
 30
0.0
 10
920.199999
 20
867.732135
 30
0.0
 10
938.499999
 20
867.732135
 30
0.0
 10
938.499999
 20
908.267855
 30
0.0
 10
920.199999
 20
908.267855
 30
0.0
 10
918.999999
 20
907.267855
 30
0.0
 10
919.999999
 20
908.467855
 30
0.0
 10
919.999999
 20
936.103565
 30
0.0
 10
918.999999
 20
937.303565
 30
0.0
 10
920.199999
 20
936.303565
 30
0.0
 10
938.499999
 20
936.303565
 30
0.0
 10
938.499999
 20
976.839285
 30
0.0
 10
920.199999
 20
976.839285
 30
0.0
 10
918.999999
 20
975.839285
 30
0.0
 10
919.999999
 20
977.039285
 30
0.0
 10
919.999999
 20
1007.999995
 30
0.0
 10
919.999999
 20
1007.999995
 30
0.0
 10
919.999999
 20
1026.499995
 30
0.0
 10
880.511359
 20
1026.499995
 30
0.0
 10
880.511359
 20
1008.199995
 30
0.0
 10
881.511359
 20
1006.999995
 30
0.0
 10
880.311359
 20
1007.999995
 30
0.0
 10
850.597729
 20
1007.999995
 30
0.0
 10
849.397729
 20
1006.999995
 30
0.0
 10
850.397729
 20
1008.199995
 30
0.0
 10
850.397729
 20
1026.499995
 30
0.0
 10
807.784089
 20
1026.499995
 30
0.0
 10
807.784089
 20
1008.199995
 30
0.0
 10
808.784089
 20
1006.999995
 30
0.0
 10
807.584089
 20
1007.999995
 30
0.0
 10
777.870449
 20
1007.999995
 30
0.0
 10
776.670449
 20
1006.999995
 30
0.0
 10
777.670449
 20
1008.199995
 30
0.0
 10
777.670449
 20
1026.499995
 30
0.0
 10
735.056819
 20
1026.499995
 30
0.0
 10
735.056819
 20
1008.199995
 30
0.0
 10
736.056819
 20
1006.999995
 30
0.0
 10
734.856819
 20
1007.999995
 30
0.0
 10
705.143179
 20
1007.999995
 30
0.0
 10
703.943179
 20
1006.999995
 30
0.0
 10
704.943179
 20
1008.199995
 30
0.0
 10
704.943179
 20
1026.499995
 30
0.0
 10
662.329549
 20
1026.499995
 30
0.0
 10
662.329549
 20
1008.199995
 30
0.0
 10
663.329549
 20
1006.999995
 30
0.0
 10
662.129539
 20
1007.999995
 30
0.0
 10
632.415909
 20
1007.999995
 30
0.0
 10
631.215909
 20
1006.999995
 30
0.0
 10
632.215909
 20
1008.199995
 30
0.0
 10
632.215909
 20
1026.499995
 30
0.0
 10
589.602269
 20
1026.499995
 30
0.0
 10
589.602269
 20
1008.199995
 30
0.0
 10
590.602269
 20
1006.999995
 30
0.0
 10
589.402269
 20
1007.999995
 30
0.0
 10
559.688639
 20
1007.999995
 30
0.0
 10
558.488639
 20
1006.999995
 30
0.0
 10
559.488639
 20
1008.199995
 30
0.0
 10
559.488639
 20
1026.499995
 30
0.0
 10
519.999999
 20
1026.499995
 30
0.0
 10
519.999999
 20
1007.999995
 30
0.0
 10
519.999999
 20
977.039285
 30
0.0
 10
520.999999
 20
975.839285
 30
0.0
 10
519.799999
 20
976.839285
 30
0.0
 10
501.499999
 20
976.839285
 30
0.0
 10
501.499999
 20
936.303565
 30
0.0
 10
519.799999
 20
936.303565
 30
0.0
 10
520.999999
 20
937.303565
 30
0.0
 10
519.999999
 20
936.103565
 30
0.0
 10
519.999999
 20
908.467855
 30
0.0
 10
520.999999
 20
907.267855
 30
0.0
 10
519.799999
 20
908.267855
 30
0.0
 10
501.499999
 20
908.267855
 30
0.0
 10
501.499999
 20
867.732135
 30
0.0
 10
519.799999
 20
867.732135
 30
0.0
 10
520.999999
 20
868.732135
 30
0.0
 10
519.999999
 20
867.532135
 30
0.0
 10
519.999999
 20
839.896425
 30
0.0
 10
520.999999
 20
838.696425
 30
0.0
 10
519.799999
 20
839.696425
 30
0.0
 10
501.499999
 20
839.696425
 30
0.0
 10
501.499999
 20
799.160705
 30
0.0
 10
519.799999
 20
799.160705
 30
0.0
 10
520.999999
 20
800.160705
 30
0.0
 10
519.999999
 20
798.960705
 30
0.0
 10
519.999999
 20
767.999995
 30
0.0
 10
519.999999
 20
767.999995
 30
0.0
  0
LWPOLYLINE
  5
111
100
AcDbEntity
  8
Final_18.5mm
 62
7
100
AcDbPolyline
 90
99
 70
0
 10
1689.999999
 20
767.999995
 30
0.0
 10
1689.999999
 20
767.999995
 30
0.0
 10
2089.999999
 20
767.999995
 30
0.0
 10
2089.999999
 20
767.999995
 30
0.0
 10
2089.999999
 20
798.960705
 30
0.0
 10
2088.999999
 20
800.160705
 30
0.0
 10
2090.199999
 20
799.160705
 30
0.0
 10
2108.499999
 20
799.160705
 30
0.0
 10
2108.499999
 20
839.696425
 30
0.0
 10
2090.199999
 20
839.696425
 30
0.0
 10
2088.999999
 20
838.696425
 30
0.0
 10
2089.999999
 20
839.896425
 30
0.0
 10
2089.999999
 20
867.532135
 30
0.0
 10
2088.999999
 20
868.732135
 30
0.0
 10
2090.199999
 20
867.732135
 30
0.0
 10
2108.499999
 20
867.732135
 30
0.0
 10
2108.499999
 20
908.267855
 30
0.0
 10
2090.199999
 20
908.267855
 30
0.0
 10
2088.999999
 20
907.267855
 30
0.0
 10
2089.999999
 20
908.467855
 30
0.0
 10
2089.999999
 20
936.103565
 30
0.0
 10
2088.999999
 20
937.303565
 30
0.0
 10
2090.199999
 20
936.303565
 30
0.0
 10
2108.499999
 20
936.303565
 30
0.0
 10
2108.499999
 20
976.839285
 30
0.0
 10
2090.199999
 20
976.839285
 30
0.0
 10
2088.999999
 20
975.839285
 30
0.0
 10
2089.999999
 20
977.039285
 30
0.0
 10
2089.999999
 20
1007.999995
 30
0.0
 10
2089.999999
 20
1007.999995
 30
0.0
 10
2089.999999
 20
1026.499995
 30
0.0
 10
2050.511399
 20
1026.499995
 30
0.0
 10
2050.511399
 20
1008.199995
 30
0.0
 10
2051.511399
 20
1006.999995
 30
0.0
 10
2050.311399
 20
1007.999995
 30
0.0
 10
2020.597699
 20
1007.999995
 30
0.0
 10
2019.397699
 20
1006.999995
 30
0.0
 10
2020.397699
 20
1008.199995
 30
0.0
 10
2020.397699
 20
1026.499995
 30
0.0
 10
1977.784099
 20
1026.499995
 30
0.0
 10
1977.784099
 20
1008.199995
 30
0.0
 10
1978.784099
 20
1006.999995
 30
0.0
 10
1977.584099
 20
1007.999995
 30
0.0
 10
1947.870499
 20
1007.999995
 30
0.0
 10
1946.670499
 20
1006.999995
 30
0.0
 10
1947.670499
 20
1008.199995
 30
0.0
 10
1947.670499
 20
1026.499995
 30
0.0
 10
1905.056799
 20
1026.499995
 30
0.0
 10
1905.056799
 20
1008.199995
 30
0.0
 10
1906.056799
 20
1006.999995
 30
0.0
 10
1904.856799
 20
1007.999995
 30
0.0
 10
1875.143199
 20
1007.999995
 30
0.0
 10
1873.943199
 20
1006.999995
 30
0.0
 10
1874.943199
 20
1008.199995
 30
0.0
 10
1874.943199
 20
1026.499995
 30
0.0
 10
1832.329499
 20
1026.499995
 30
0.0
 10
1832.329499
 20
1008.199995
 30
0.0
 10
1833.329499
 20
1006.999995
 30
0.0
 10
1832.129499
 20
1007.999995
 30
0.0
 10
1802.415899
 20
1007.999995
 30
0.0
 10
1801.215899
 20
1006.999995
 30
0.0
 10
1802.215899
 20
1008.199995
 30
0.0
 10
1802.215899
 20
1026.499995
 30
0.0
 10
1759.602299
 20
1026.499995
 30
0.0
 10
1759.602299
 20
1008.199995
 30
0.0
 10
1760.602299
 20
1006.999995
 30
0.0
 10
1759.402299
 20
1007.999995
 30
0.0
 10
1729.688599
 20
1007.999995
 30
0.0
 10
1728.488599
 20
1006.999995
 30
0.0
 10
1729.488599
 20
1008.199995
 30
0.0
 10
1729.488599
 20
1026.499995
 30
0.0
 10
1689.999999
 20
1026.499995
 30
0.0
 10
1689.999999
 20
1007.999995
 30
0.0
 10
1689.999999
 20
977.039285
 30
0.0
 10
1690.999999
 20
975.839285
 30
0.0
 10
1689.799999
 20
976.839285
 30
0.0
 10
1671.499999
 20
976.839285
 30
0.0
 10
1671.499999
 20
936.303565
 30
0.0
 10
1689.799999
 20
936.303565
 30
0.0
 10
1690.999999
 20
937.303565
 30
0.0
 10
1689.999999
 20
936.103565
 30
0.0
 10
1689.999999
 20
908.467855
 30
0.0
 10
1690.999999
 20
907.267855
 30
0.0
 10
1689.799999
 20
908.267855
 30
0.0
 10
1671.499999
 20
908.267855
 30
0.0
 10
1671.499999
 20
867.732135
 30
0.0
 10
1689.799999
 20
867.732135
 30
0.0
 10
1690.999999
 20
868.732135
 30
0.0
 10
1689.999999
 20
867.532135
 30
0.0
 10
1689.999999
 20
839.896425
 30
0.0
 10
1690.999999
 20
838.696425
 30
0.0
 10
1689.799999
 20
839.696425
 30
0.0
 10
1671.499999
 20
839.696425
 30
0.0
 10
1671.499999
 20
799.160705
 30
0.0
 10
1689.799999
 20
799.160705
 30
0.0
 10
1690.999999
 20
800.160705
 30
0.0
 10
1689.999999
 20
798.960705
 30
0.0
 10
1689.999999
 20
767.999995
 30
0.0
 10
1689.999999
 20
767.999995
 30
0.0
  0
LWPOLYLINE
  5
112
100
AcDbEntity
  8
First_18.5mm
 62
7
100
AcDbPolyline
 90
13
 70
0
 10
395.874999
 20
52.124995
 30
0.0
 10
396.874999
 20
53.124995
 30
0.0
 10
409.124999
 20
53.124995
 30
0.0
 10
410.124999
 20
52.124995
 30
0.0
 10
409.124999
 20
53.124995
 30
0.0
 10
409.124999
 20
83.238595
 30
0.0
 10
410.124999
 20
84.238595
 30
0.0
 10
409.124999
 20
83.238595
 30
0.0
 10
396.874999
 20
83.238595
 30
0.0
 10
395.874999
 20
84.238595
 30
0.0
 10
396.874999
 20
83.238595
 30
0.0
 10
396.874999
 20
53.124995
 30
0.0
 10
395.874999
 20
52.124995
 30
0.0
  0
LWPOLYLINE
  5
113
100
AcDbEntity
  8
First_18.5mm
 62
7
100
AcDbPolyline
 90
13
 70
0
 10
395.874999
 20
124.852295
 30
0.0
 10
396.874999
 20
125.852295
 30
0.0
 10
409.124999
 20
125.852295
 30
0.0
 10
410.124999
 20
124.852295
 30
0.0
 10
409.124999
 20
125.852295
 30
0.0
 10
409.124999
 20
155.965895
 30
0.0
 10
410.124999
 20
156.965895
 30
0.0
 10
409.124999
 20
155.965895
 30
0.0
 10
396.874999
 20
155.965895
 30
0.0
 10
395.874999
 20
156.965895
 30
0.0
 10
396.874999
 20
155.965895
 30
0.0
 10
396.874999
 20
125.852295
 30
0.0
 10
395.874999
 20
124.852295
 30
0.0
  0
LWPOLYLINE
  5
114
100
AcDbEntity
  8
First_18.5mm
 62
7
100
AcDbPolyline
 90
13
 70
0
 10
395.874999
 20
197.579495
 30
0.0
 10
396.874999
 20
198.579495
 30
0.0
 10
409.124999
 20
198.579495
 30
0.0
 10
410.124999
 20
197.579495
 30
0.0
 10
409.124999
 20
198.579495
 30
0.0
 10
409.124999
 20
228.693175
 30
0.0
 10
410.124999
 20
229.693175
 30
0.0
 10
409.124999
 20
228.693175
 30
0.0
 10
396.874999
 20
228.693175
 30
0.0
 10
395.874999
 20
229.693175
 30
0.0
 10
396.874999
 20
228.693175
 30
0.0
 10
396.874999
 20
198.579495
 30
0.0
 10
395.874999
 20
197.579495
 30
0.0
  0
LWPOLYLINE
  5
115
100
AcDbEntity
  8
First_18.5mm
 62
7
100
AcDbPolyline
 90
13
 70
0
 10
395.874999
 20
270.306815
 30
0.0
 10
396.874999
 20
271.306815
 30
0.0
 10
409.124999
 20
271.306815
 30
0.0
 10
410.124999
 20
270.306815
 30
0.0
 10
409.124999
 20
271.306815
 30
0.0
 10
409.124999
 20
301.420445
 30
0.0
 10
410.124999
 20
302.420445
 30
0.0
 10
409.124999
 20
301.420445
 30
0.0
 10
396.874999
 20
301.420445
 30
0.0
 10
395.874999
 20
302.420445
 30
0.0
 10
396.874999
 20
301.420445
 30
0.0
 10
396.874999
 20
271.306815
 30
0.0
 10
395.874999
 20
270.306815
 30
0.0
  0
LWPOLYLINE
  5
116
100
AcDbEntity
  8
First_18.5mm
 62
7
100
AcDbPolyline
 90
13
 70
0
 10
395.874999
 20
343.034085
 30
0.0
 10
396.874999
 20
344.034085
 30
0.0
 10
409.124999
 20
344.034085
 30
0.0
 10
410.124999
 20
343.034085
 30
0.0
 10
409.124999
 20
344.034085
 30
0.0
 10
409.124999
 20
374.147725
 30
0.0
 10
410.124999
 20
375.147725
 30
0.0
 10
409.124999
 20
374.147725
 30
0.0
 10
396.874999
 20
374.147725
 30
0.0
 10
395.874999
 20
375.147725
 30
0.0
 10
396.874999
 20
374.147725
 30
0.0
 10
396.874999
 20
344.034085
 30
0.0
 10
395.874999
 20
343.034085
 30
0.0
  0
LWPOLYLINE
  5
117
100
AcDbEntity
  8
First_18.5mm
 62
7
100
AcDbPolyline
 90
13
 70
0
 10
395.874999
 20
415.761355
 30
0.0
 10
396.874999
 20
416.761355
 30
0.0
 10
409.124999
 20
416.761355
 30
0.0
 10
410.124999
 20
415.761355
 30
0.0
 10
409.124999
 20
416.761355
 30
0.0
 10
409.124999
 20
446.874995
 30
0.0
 10
410.124999
 20
447.874995
 30
0.0
 10
409.124999
 20
446.874995
 30
0.0
 10
396.874999
 20
446.874995
 30
0.0
 10
395.874999
 20
447.874995
 30
0.0
 10
396.874999
 20
446.874995
 30
0.0
 10
396.874999
 20
416.761355
 30
0.0
 10
395.874999
 20
415.761355
 30
0.0
  0
LWPOLYLINE
  5
118
100
AcDbEntity
  8
First_18.5mm
 62
7
100
AcDbPolyline
 90
13
 70
0
 10
789.874999
 20
52.124995
 30
0.0
 10
790.874999
 20
53.124995
 30
0.0
 10
803.124999
 20
53.124995
 30
0.0
 10
804.124999
 20
52.124995
 30
0.0
 10
803.124999
 20
53.124995
 30
0.0
 10
803.124999
 20
83.238595
 30
0.0
 10
804.124999
 20
84.238595
 30
0.0
 10
803.124999
 20
83.238595
 30
0.0
 10
790.874999
 20
83.238595
 30
0.0
 10
789.874999
 20
84.238595
 30
0.0
 10
790.874999
 20
83.238595
 30
0.0
 10
790.874999
 20
53.124995
 30
0.0
 10
789.874999
 20
52.124995
 30
0.0
  0
LWPOLYLINE
  5
119
100
AcDbEntity
  8
First_18.5mm
 62
7
100
AcDbPolyline
 90
13
 70
0
 10
789.874999
 20
124.852295
 30
0.0
 10
790.874999
 20
125.852295
 30
0.0
 10
803.124999
 20
125.852295
 30
0.0
 10
804.124999
 20
124.852295
 30
0.0
 10
803.124999
 20
125.852295
 30
0.0
 10
803.124999
 20
155.965895
 30
0.0
 10
804.124999
 20
156.965895
 30
0.0
 10
803.124999
 20
155.965895
 30
0.0
 10
790.874999
 20
155.965895
 30
0.0
 10
789.874999
 20
156.965895
 30
0.0
 10
790.874999
 20
155.965895
 30
0.0
 10
790.874999
 20
125.852295
 30
0.0
 10
789.874999
 20
124.852295
 30
0.0
  0
LWPOLYLINE
  5
11a
100
AcDbEntity
  8
First_18.5mm
 62
7
100
AcDbPolyline
 90
13
 70
0
 10
789.874999
 20
197.579495
 30
0.0
 10
790.874999
 20
198.579495
 30
0.0
 10
803.124999
 20
198.579495
 30
0.0
 10
804.124999
 20
197.579495
 30
0.0
 10
803.124999
 20
198.579495
 30
0.0
 10
803.124999
 20
228.693175
 30
0.0
 10
804.124999
 20
229.693175
 30
0.0
 10
803.124999
 20
228.693175
 30
0.0
 10
790.874999
 20
228.693175
 30
0.0
 10
789.874999
 20
229.693175
 30
0.0
 10
790.874999
 20
228.693175
 30
0.0
 10
790.874999
 20
198.579495
 30
0.0
 10
789.874999
 20
197.579495
 30
0.0
  0
LWPOLYLINE
  5
11b
100
AcDbEntity
  8
First_18.5mm
 62
7
100
AcDbPolyline
 90
13
 70
0
 10
789.874999
 20
270.306815
 30
0.0
 10
790.874999
 20
271.306815
 30
0.0
 10
803.124999
 20
271.306815
 30
0.0
 10
804.124999
 20
270.306815
 30
0.0
 10
803.124999
 20
271.306815
 30
0.0
 10
803.124999
 20
301.420445
 30
0.0
 10
804.124999
 20
302.420445
 30
0.0
 10
803.124999
 20
301.420445
 30
0.0
 10
790.874999
 20
301.420445
 30
0.0
 10
789.874999
 20
302.420445
 30
0.0
 10
790.874999
 20
301.420445
 30
0.0
 10
790.874999
 20
271.306815
 30
0.0
 10
789.874999
 20
270.306815
 30
0.0
  0
LWPOLYLINE
  5
11c
100
AcDbEntity
  8
First_18.5mm
 62
7
100
AcDbPolyline
 90
13
 70
0
 10
789.874999
 20
343.034085
 30
0.0
 10
790.874999
 20
344.034085
 30
0.0
 10
803.124999
 20
344.034085
 30
0.0
 10
804.124999
 20
343.034085
 30
0.0
 10
803.124999
 20
344.034085
 30
0.0
 10
803.124999
 20
374.147725
 30
0.0
 10
804.124999
 20
375.147725
 30
0.0
 10
803.124999
 20
374.147725
 30
0.0
 10
790.874999
 20
374.147725
 30
0.0
 10
789.874999
 20
375.147725
 30
0.0
 10
790.874999
 20
374.147725
 30
0.0
 10
790.874999
 20
344.034085
 30
0.0
 10
789.874999
 20
343.034085
 30
0.0
  0
LWPOLYLINE
  5
11d
100
AcDbEntity
  8
First_18.5mm
 62
7
100
AcDbPolyline
 90
13
 70
0
 10
789.874999
 20
415.761355
 30
0.0
 10
790.874999
 20
416.761355
 30
0.0
 10
803.124999
 20
416.761355
 30
0.0
 10
804.124999
 20
415.761355
 30
0.0
 10
803.124999
 20
416.761355
 30
0.0
 10
803.124999
 20
446.874995
 30
0.0
 10
804.124999
 20
447.874995
 30
0.0
 10
803.124999
 20
446.874995
 30
0.0
 10
790.874999
 20
446.874995
 30
0.0
 10
789.874999
 20
447.874995
 30
0.0
 10
790.874999
 20
446.874995
 30
0.0
 10
790.874999
 20
416.761355
 30
0.0
 10
789.874999
 20
415.761355
 30
0.0
  0
LWPOLYLINE
  5
11e
100
AcDbEntity
  8
First_18.5mm
 62
7
100
AcDbPolyline
 90
13
 70
0
 10
395.874999
 20
521.410705
 30
0.0
 10
396.874999
 20
522.410705
 30
0.0
 10
409.124999
 20
522.410705
 30
0.0
 10
410.124999
 20
521.410705
 30
0.0
 10
409.124999
 20
522.410705
 30
0.0
 10
409.124999
 20
550.446425
 30
0.0
 10
410.124999
 20
551.446425
 30
0.0
 10
409.124999
 20
550.446425
 30
0.0
 10
396.874999
 20
550.446425
 30
0.0
 10
395.874999
 20
551.446425
 30
0.0
 10
396.874999
 20
550.446425
 30
0.0
 10
396.874999
 20
522.410705
 30
0.0
 10
395.874999
 20
521.410705
 30
0.0
  0
LWPOLYLINE
  5
11f
100
AcDbEntity
  8
First_18.5mm
 62
7
100
AcDbPolyline
 90
13
 70
0
 10
395.874999
 20
589.982135
 30
0.0
 10
396.874999
 20
590.982135
 30
0.0
 10
409.124999
 20
590.982135
 30
0.0
 10
410.124999
 20
589.982135
 30
0.0
 10
409.124999
 20
590.982135
 30
0.0
 10
409.124999
 20
619.017855
 30
0.0
 10
410.124999
 20
620.017855
 30
0.0
 10
409.124999
 20
619.017855
 30
0.0
 10
396.874999
 20
619.017855
 30
0.0
 10
395.874999
 20
620.017855
 30
0.0
 10
396.874999
 20
619.017855
 30
0.0
 10
396.874999
 20
590.982135
 30
0.0
 10
395.874999
 20
589.982135
 30
0.0
  0
LWPOLYLINE
  5
120
100
AcDbEntity
  8
First_18.5mm
 62
7
100
AcDbPolyline
 90
13
 70
0
 10
395.874999
 20
658.553565
 30
0.0
 10
396.874999
 20
659.553565
 30
0.0
 10
409.124999
 20
659.553565
 30
0.0
 10
410.124999
 20
658.553565
 30
0.0
 10
409.124999
 20
659.553565
 30
0.0
 10
409.124999
 20
687.589285
 30
0.0
 10
410.124999
 20
688.589285
 30
0.0
 10
409.124999
 20
687.589285
 30
0.0
 10
396.874999
 20
687.589285
 30
0.0
 10
395.874999
 20
688.589285
 30
0.0
 10
396.874999
 20
687.589285
 30
0.0
 10
396.874999
 20
659.553565
 30
0.0
 10
395.874999
 20
658.553565
 30
0.0
  0
LWPOLYLINE
  5
121
100
AcDbEntity
  8
First_18.5mm
 62
7
100
AcDbPolyline
 90
13
 70
0
 10
789.874999
 20
521.410705
 30
0.0
 10
790.874999
 20
522.410705
 30
0.0
 10
803.124999
 20
522.410705
 30
0.0
 10
804.124999
 20
521.410705
 30
0.0
 10
803.124999
 20
522.410705
 30
0.0
 10
803.124999
 20
550.446425
 30
0.0
 10
804.124999
 20
551.446425
 30
0.0
 10
803.124999
 20
550.446425
 30
0.0
 10
790.874999
 20
550.446425
 30
0.0
 10
789.874999
 20
551.446425
 30
0.0
 10
790.874999
 20
550.446425
 30
0.0
 10
790.874999
 20
522.410705
 30
0.0
 10
789.874999
 20
521.410705
 30
0.0
  0
LWPOLYLINE
  5
122
100
AcDbEntity
  8
First_18.5mm
 62
7
100
AcDbPolyline
 90
13
 70
0
 10
789.874999
 20
589.982135
 30
0.0
 10
790.874999
 20
590.982135
 30
0.0
 10
803.124999
 20
590.982135
 30
0.0
 10
804.124999
 20
589.982135
 30
0.0
 10
803.124999
 20
590.982135
 30
0.0
 10
803.124999
 20
619.017855
 30
0.0
 10
804.124999
 20
620.017855
 30
0.0
 10
803.124999
 20
619.017855
 30
0.0
 10
790.874999
 20
619.017855
 30
0.0
 10
789.874999
 20
620.017855
 30
0.0
 10
790.874999
 20
619.017855
 30
0.0
 10
790.874999
 20
590.982135
 30
0.0
 10
789.874999
 20
589.982135
 30
0.0
  0
LWPOLYLINE
  5
123
100
AcDbEntity
  8
First_18.5mm
 62
7
100
AcDbPolyline
 90
13
 70
0
 10
789.874999
 20
658.553565
 30
0.0
 10
790.874999
 20
659.553565
 30
0.0
 10
803.124999
 20
659.553565
 30
0.0
 10
804.124999
 20
658.553565
 30
0.0
 10
803.124999
 20
659.553565
 30
0.0
 10
803.124999
 20
687.589285
 30
0.0
 10
804.124999
 20
688.589285
 30
0.0
 10
803.124999
 20
687.589285
 30
0.0
 10
790.874999
 20
687.589285
 30
0.0
 10
789.874999
 20
688.589285
 30
0.0
 10
790.874999
 20
687.589285
 30
0.0
 10
790.874999
 20
659.553565
 30
0.0
 10
789.874999
 20
658.553565
 30
0.0
  0
LWPOLYLINE
  5
124
100
AcDbEntity
  8
First_18.5mm
 62
7
100
AcDbPolyline
 90
13
 70
0
 10
1530.874999
 20
521.410705
 30
0.0
 10
1531.874999
 20
522.410705
 30
0.0
 10
1544.124999
 20
522.410705
 30
0.0
 10
1545.124999
 20
521.410705
 30
0.0
 10
1544.124999
 20
522.410705
 30
0.0
 10
1544.124999
 20
550.446425
 30
0.0
 10
1545.124999
 20
551.446425
 30
0.0
 10
1544.124999
 20
550.446425
 30
0.0
 10
1531.874999
 20
550.446425
 30
0.0
 10
1530.874999
 20
551.446425
 30
0.0
 10
1531.874999
 20
550.446425
 30
0.0
 10
1531.874999
 20
522.410705
 30
0.0
 10
1530.874999
 20
521.410705
 30
0.0
  0
LWPOLYLINE
  5
125
100
AcDbEntity
  8
First_18.5mm
 62
7
100
AcDbPolyline
 90
13
 70
0
 10
1530.874999
 20
589.982135
 30
0.0
 10
1531.874999
 20
590.982135
 30
0.0
 10
1544.124999
 20
590.982135
 30
0.0
 10
1545.124999
 20
589.982135
 30
0.0
 10
1544.124999
 20
590.982135
 30
0.0
 10
1544.124999
 20
619.017855
 30
0.0
 10
1545.124999
 20
620.017855
 30
0.0
 10
1544.124999
 20
619.017855
 30
0.0
 10
1531.874999
 20
619.017855
 30
0.0
 10
1530.874999
 20
620.017855
 30
0.0
 10
1531.874999
 20
619.017855
 30
0.0
 10
1531.874999
 20
590.982135
 30
0.0
 10
1530.874999
 20
589.982135
 30
0.0
  0
LWPOLYLINE
  5
126
100
AcDbEntity
  8
First_18.5mm
 62
7
100
AcDbPolyline
 90
13
 70
0
 10
1530.874999
 20
658.553565
 30
0.0
 10
1531.874999
 20
659.553565
 30
0.0
 10
1544.124999
 20
659.553565
 30
0.0
 10
1545.124999
 20
658.553565
 30
0.0
 10
1544.124999
 20
659.553565
 30
0.0
 10
1544.124999
 20
687.589285
 30
0.0
 10
1545.124999
 20
688.589285
 30
0.0
 10
1544.124999
 20
687.589285
 30
0.0
 10
1531.874999
 20
687.589285
 30
0.0
 10
1530.874999
 20
688.589285
 30
0.0
 10
1531.874999
 20
687.589285
 30
0.0
 10
1531.874999
 20
659.553565
 30
0.0
 10
1530.874999
 20
658.553565
 30
0.0
  0
LWPOLYLINE
  5
127
100
AcDbEntity
  8
First_18.5mm
 62
7
100
AcDbPolyline
 90
13
 70
0
 10
1924.874999
 20
521.410705
 30
0.0
 10
1925.874999
 20
522.410705
 30
0.0
 10
1938.124999
 20
522.410705
 30
0.0
 10
1939.124999
 20
521.410705
 30
0.0
 10
1938.124999
 20
522.410705
 30
0.0
 10
1938.124999
 20
550.446425
 30
0.0
 10
1939.124999
 20
551.446425
 30
0.0
 10
1938.124999
 20
550.446425
 30
0.0
 10
1925.874999
 20
550.446425
 30
0.0
 10
1924.874999
 20
551.446425
 30
0.0
 10
1925.874999
 20
550.446425
 30
0.0
 10
1925.874999
 20
522.410705
 30
0.0
 10
1924.874999
 20
521.410705
 30
0.0
  0
LWPOLYLINE
  5
128
100
AcDbEntity
  8
First_18.5mm
 62
7
100
AcDbPolyline
 90
13
 70
0
 10
1924.874999
 20
589.982135
 30
0.0
 10
1925.874999
 20
590.982135
 30
0.0
 10
1938.124999
 20
590.982135
 30
0.0
 10
1939.124999
 20
589.982135
 30
0.0
 10
1938.124999
 20
590.982135
 30
0.0
 10
1938.124999
 20
619.017855
 30
0.0
 10
1939.124999
 20
620.017855
 30
0.0
 10
1938.124999
 20
619.017855
 30
0.0
 10
1925.874999
 20
619.017855
 30
0.0
 10
1924.874999
 20
620.017855
 30
0.0
 10
1925.874999
 20
619.017855
 30
0.0
 10
1925.874999
 20
590.982135
 30
0.0
 10
1924.874999
 20
589.982135
 30
0.0
  0
LWPOLYLINE
  5
129
100
AcDbEntity
  8
First_18.5mm
 62
7
100
AcDbPolyline
 90
13
 70
0
 10
1924.874999
 20
658.553565
 30
0.0
 10
1925.874999
 20
659.553565
 30
0.0
 10
1938.124999
 20
659.553565
 30
0.0
 10
1939.124999
 20
658.553565
 30
0.0
 10
1938.124999
 20
659.553565
 30
0.0
 10
1938.124999
 20
687.589285
 30
0.0
 10
1939.124999
 20
688.589285
 30
0.0
 10
1938.124999
 20
687.589285
 30
0.0
 10
1925.874999
 20
687.589285
 30
0.0
 10
1924.874999
 20
688.589285
 30
0.0
 10
1925.874999
 20
687.589285
 30
0.0
 10
1925.874999
 20
659.553565
 30
0.0
 10
1924.874999
 20
658.553565
 30
0.0
  0
LWPOLYLINE
  5
12a
100
AcDbEntity
  8
Extra_18.5mm
 62
7
100
AcDbPolyline
 90
5
 70
1
 10
1234.531600
 20
81.449100
 30
0.0
 10
1234.531600
 20
428.739430
 30
0.0
 10
1384.190500
 20
428.739430
 30
0.0
 10
1384.190500
 20
81.449100
 30
0.0
 10
1234.531600
 20
81.449100
 30
0.0
  0
LWPOLYLINE
  5
12b
100
AcDbEntity
  8
Extra_18.5mm
 62
7
100
AcDbPolyline
 90
7
 70
1
 10
405.248380
 20
627.477120
 30
0.0
 10
475.172490
 20
695.621830
 30
0.0
 10
724.525490
 20
695.551630
 30
0.0
 10
795.012880
 20
627.477070
 30
0.0
 10
795.012880
 20
522.375370
 30
0.0
 10
405.248380
 20
522.375370
 30
0.0
 10
405.248380
 20
627.477120
 30
0.0
  0
LWPOLYLINE
  5
12c
100
AcDbEntity
  8
Extra_18.5mm
 62
7
100
AcDbPolyline
 90
5
 70
1
 10
1715.413500
 20
883.726290
 30
0.0
 10
2060.762250
 20
883.726290
 30
0.0
 10
2060.762250
 20
833.259115
 30
0.0
 10
1715.413500
 20
833.259115
 30
0.0
 10
1715.413500
 20
883.726290
 30
0.0
  0
LWPOLYLINE
  5
12d
100
AcDbEntity
  8
Extra_18.5mm
 62
7
100
AcDbPolyline
 90
5
 70
1
 10
547.015080
 20
883.726290
 30
0.0
 10
892.363830
 20
883.726290
 30
0.0
 10
892.363830
 20
833.259115
 30
0.0
 10
547.015080
 20
833.259115
 30
0.0
 10
547.015080
 20
883.726290
 30
0.0
  0
LWPOLYLINE
  5
12e
100
AcDbEntity
  8
Extra_18.5mm
 62
7
100
AcDbPolyline
 90
5
 70
1
 10
70.493645
 20
979.300430
 30
0.0
 10
85.716269
 20
979.300430
 30
0.0
 10
85.716269
 20
957.077806
 30
0.0
 10
70.493645
 20
957.077806
 30
0.0
 10
70.493645
 20
979.300430
 30
0.0
  0
LWPOLYLINE
  5
12f
100
AcDbEntity
  8
Extra_18.5mm
 62
7
100
AcDbPolyline
 90
5
 70
1
 10
64.161964
 20
917.069310
 30
0.0
 10
78.289665
 20
917.069310
 30
0.0
 10
78.289665
 20
842.941617
 30
0.0
 10
64.161964
 20
842.941617
 30
0.0
 10
64.161964
 20
917.069310
 30
0.0
  0
LWPOLYLINE
  5
130
100
AcDbEntity
  8
Extra_18.5mm
 62
7
100
AcDbPolyline
 90
9
 70
1
 10
1577.047600
 20
597.484130
 30
0.0
 10
1575.218400
 20
593.068090
 30
0.0
 10
1570.802400
 20
591.238870
 30
0.0
 10
1566.386300
 20
593.068050
 30
0.0
 10
1564.557100
 20
597.484130
 30
0.0
 10
1566.386300
 20
601.900210
 30
0.0
 10
1570.802400
 20
603.729390
 30
0.0
 10
1575.218400
 20
601.900180
 30
0.0
 10
1577.047600
 20
597.484130
 30
0.0
  0
LWPOLYLINE
  5
131
100
AcDbEntity
  8
Extra_18.5mm
 62
7
100
AcDbPolyline
 90
9
 70
1
 10
1593.247600
 20
574.968578
 30
0.0
 10
1591.418400
 20
570.552538
 30
0.0
 10
1587.002400
 20
568.723318
 30
0.0
 10
1582.586300
 20
570.552498
 30
0.0
 10
1580.757100
 20
574.968578
 30
0.0
 10
1582.586300
 20
579.384658
 30
0.0
 10
1587.002400
 20
581.213838
 30
0.0
 10
1591.418400
 20
579.384628
 30
0.0
 10
1593.247600
 20
574.968578
 30
0.0
  0
LWPOLYLINE
  5
132
100
AcDbEntity
  8
Extra_18.5mm
 62
7
100
AcDbPolyline
 90
9
 70
1
 10
1577.047600
 20
551.888582
 30
0.0
 10
1575.218400
 20
547.472542
 30
0.0
 10
1570.802400
 20
545.643322
 30
0.0
 10
1566.386300
 20
547.472502
 30
0.0
 10
1564.557100
 20
551.888582
 30
0.0
 10
1566.386300
 20
556.304662
 30
0.0
 10
1570.802400
 20
558.133842
 30
0.0
 10
1575.218400
 20
556.304632
 30
0.0
 10
1577.047600
 20
551.888582
 30
0.0
  0
LWPOLYLINE
  5
133
100
AcDbEntity
  8
Extra_18.5mm
 62
7
100
AcDbPolyline
 90
9
 70
1
 10
1609.447600
 20
597.484130
 30
0.0
 10
1607.618400
 20
593.068090
 30
0.0
 10
1603.202400
 20
591.238870
 30
0.0
 10
1598.786300
 20
593.068050
 30
0.0
 10
1596.957100
 20
597.484130
 30
0.0
 10
1598.786300
 20
601.900210
 30
0.0
 10
1603.202400
 20
603.729390
 30
0.0
 10
1607.618400
 20
601.900180
 30
0.0
 10
1609.447600
 20
597.484130
 30
0.0
  0
LWPOLYLINE
  5
134
100
AcDbEntity
  8
Extra_18.5mm
 62
7
100
AcDbPolyline
 90
9
 70
1
 10
1625.647600
 20
574.968578
 30
0.0
 10
1623.818400
 20
570.552538
 30
0.0
 10
1619.402400
 20
568.723318
 30
0.0
 10
1614.986300
 20
570.552498
 30
0.0
 10
1613.157100
 20
574.968578
 30
0.0
 10
1614.986300
 20
579.384658
 30
0.0
 10
1619.402400
 20
581.213838
 30
0.0
 10
1623.818400
 20
579.384628
 30
0.0
 10
1625.647600
 20
574.968578
 30
0.0
  0
LWPOLYLINE
  5
135
100
AcDbEntity
  8
Extra_18.5mm
 62
7
100
AcDbPolyline
 90
9
 70
1
 10
1609.447600
 20
551.888582
 30
0.0
 10
1607.618400
 20
547.472542
 30
0.0
 10
1603.202400
 20
545.643322
 30
0.0
 10
1598.786300
 20
547.472502
 30
0.0
 10
1596.957100
 20
551.888582
 30
0.0
 10
1598.786300
 20
556.304662
 30
0.0
 10
1603.202400
 20
558.133842
 30
0.0
 10
1607.618400
 20
556.304632
 30
0.0
 10
1609.447600
 20
551.888582
 30
0.0
  0
LWPOLYLINE
  5
136
100
AcDbEntity
  8
Extra_18.5mm
 62
7
100
AcDbPolyline
 90
9
 70
1
 10
1641.847601
 20
597.484130
 30
0.0
 10
1640.018401
 20
593.068090
 30
0.0
 10
1635.602401
 20
591.238870
 30
0.0
 10
1631.186301
 20
593.068050
 30
0.0
 10
1629.357101
 20
597.484130
 30
0.0
 10
1631.186301
 20
601.900210
 30
0.0
 10
1635.602401
 20
603.729390
 30
0.0
 10
1640.018401
 20
601.900180
 30
0.0
 10
1641.847601
 20
597.484130
 30
0.0
  0
LWPOLYLINE
  5
137
100
AcDbEntity
  8
Extra_18.5mm
 62
7
100
AcDbPolyline
 90
9
 70
1
 10
1658.047601
 20
574.968578
 30
0.0
 10
1656.218401
 20
570.552538
 30
0.0
 10
1651.802401
 20
568.723318
 30
0.0
 10
1647.386301
 20
570.552498
 30
0.0
 10
1645.557101
 20
574.968578
 30
0.0
 10
1647.386301
 20
579.384658
 30
0.0
 10
1651.802401
 20
581.213838
 30
0.0
 10
1656.218401
 20
579.384628
 30
0.0
 10
1658.047601
 20
574.968578
 30
0.0
  0
LWPOLYLINE
  5
138
100
AcDbEntity
  8
Extra_18.5mm
 62
7
100
AcDbPolyline
 90
9
 70
1
 10
1641.847601
 20
551.888582
 30
0.0
 10
1640.018401
 20
547.472542
 30
0.0
 10
1635.602401
 20
545.643322
 30
0.0
 10
1631.186301
 20
547.472502
 30
0.0
 10
1629.357101
 20
551.888582
 30
0.0
 10
1631.186301
 20
556.304662
 30
0.0
 10
1635.602401
 20
558.133842
 30
0.0
 10
1640.018401
 20
556.304632
 30
0.0
 10
1641.847601
 20
551.888582
 30
0.0
  0
LWPOLYLINE
  5
139
100
AcDbEntity
  8
Extra_18.5mm
 62
7
100
AcDbPolyline
 90
9
 70
1
 10
1674.247601
 20
597.484130
 30
0.0
 10
1672.418401
 20
593.068090
 30
0.0
 10
1668.002401
 20
591.238870
 30
0.0
 10
1663.586301
 20
593.068050
 30
0.0
 10
1661.757101
 20
597.484130
 30
0.0
 10
1663.586301
 20
601.900210
 30
0.0
 10
1668.002401
 20
603.729390
 30
0.0
 10
1672.418401
 20
601.900180
 30
0.0
 10
1674.247601
 20
597.484130
 30
0.0
  0
LWPOLYLINE
  5
13a
100
AcDbEntity
  8
Extra_18.5mm
 62
7
100
AcDbPolyline
 90
9
 70
1
 10
1690.447600
 20
574.968578
 30
0.0
 10
1688.618400
 20
570.552538
 30
0.0
 10
1684.202400
 20
568.723318
 30
0.0
 10
1679.786300
 20
570.552498
 30
0.0
 10
1677.957100
 20
574.968578
 30
0.0
 10
1679.786300
 20
579.384658
 30
0.0
 10
1684.202400
 20
581.213838
 30
0.0
 10
1688.618400
 20
579.384628
 30
0.0
 10
1690.447600
 20
574.968578
 30
0.0
  0
LWPOLYLINE
  5
13b
100
AcDbEntity
  8
Extra_18.5mm
 62
7
100
AcDbPolyline
 90
9
 70
1
 10
1674.247601
 20
551.888582
 30
0.0
 10
1672.418401
 20
547.472542
 30
0.0
 10
1668.002401
 20
545.643322
 30
0.0
 10
1663.586301
 20
547.472502
 30
0.0
 10
1661.757101
 20
551.888582
 30
0.0
 10
1663.586301
 20
556.304662
 30
0.0
 10
1668.002401
 20
558.133842
 30
0.0
 10
1672.418401
 20
556.304632
 30
0.0
 10
1674.247601
 20
551.888582
 30
0.0
  0
LWPOLYLINE
  5
13c
100
AcDbEntity
  8
Extra_18.5mm
 62
7
100
AcDbPolyline
 90
9
 70
1
 10
1706.647600
 20
597.484130
 30
0.0
 10
1704.818400
 20
593.068090
 30
0.0
 10
1700.402400
 20
591.238870
 30
0.0
 10
1695.986300
 20
593.068050
 30
0.0
 10
1694.157100
 20
597.484130
 30
0.0
 10
1695.986300
 20
601.900210
 30
0.0
 10
1700.402400
 20
603.729390
 30
0.0
 10
1704.818400
 20
601.900180
 30
0.0
 10
1706.647600
 20
597.484130
 30
0.0
  0
LWPOLYLINE
  5
13d
100
AcDbEntity
  8
Extra_18.5mm
 62
7
100
AcDbPolyline
 90
9
 70
1
 10
1722.847600
 20
574.968578
 30
0.0
 10
1721.018400
 20
570.552538
 30
0.0
 10
1716.602400
 20
568.723318
 30
0.0
 10
1712.186300
 20
570.552498
 30
0.0
 10
1710.357100
 20
574.968578
 30
0.0
 10
1712.186300
 20
579.384658
 30
0.0
 10
1716.602400
 20
581.213838
 30
0.0
 10
1721.018400
 20
579.384628
 30
0.0
 10
1722.847600
 20
574.968578
 30
0.0
  0
LWPOLYLINE
  5
13e
100
AcDbEntity
  8
Extra_18.5mm
 62
7
100
AcDbPolyline
 90
9
 70
1
 10
1706.647600
 20
551.888582
 30
0.0
 10
1704.818400
 20
547.472542
 30
0.0
 10
1700.402400
 20
545.643322
 30
0.0
 10
1695.986300
 20
547.472502
 30
0.0
 10
1694.157100
 20
551.888582
 30
0.0
 10
1695.986300
 20
556.304662
 30
0.0
 10
1700.402400
 20
558.133842
 30
0.0
 10
1704.818400
 20
556.304632
 30
0.0
 10
1706.647600
 20
551.888582
 30
0.0
  0
LWPOLYLINE
  5
13f
100
AcDbEntity
  8
Extra_18.5mm
 62
7
100
AcDbPolyline
 90
9
 70
1
 10
1739.047600
 20
597.484130
 30
0.0
 10
1737.218400
 20
593.068090
 30
0.0
 10
1732.802400
 20
591.238870
 30
0.0
 10
1728.386300
 20
593.068050
 30
0.0
 10
1726.557100
 20
597.484130
 30
0.0
 10
1728.386300
 20
601.900210
 30
0.0
 10
1732.802400
 20
603.729390
 30
0.0
 10
1737.218400
 20
601.900180
 30
0.0
 10
1739.047600
 20
597.484130
 30
0.0
  0
LWPOLYLINE
  5
140
100
AcDbEntity
  8
Extra_18.5mm
 62
7
100
AcDbPolyline
 90
9
 70
1
 10
1755.247600
 20
574.968578
 30
0.0
 10
1753.418400
 20
570.552538
 30
0.0
 10
1749.002400
 20
568.723318
 30
0.0
 10
1744.586300
 20
570.552498
 30
0.0
 10
1742.757100
 20
574.968578
 30
0.0
 10
1744.586300
 20
579.384658
 30
0.0
 10
1749.002400
 20
581.213838
 30
0.0
 10
1753.418400
 20
579.384628
 30
0.0
 10
1755.247600
 20
574.968578
 30
0.0
  0
LWPOLYLINE
  5
141
100
AcDbEntity
  8
Extra_18.5mm
 62
7
100
AcDbPolyline
 90
9
 70
1
 10
1739.047600
 20
551.888582
 30
0.0
 10
1737.218400
 20
547.472542
 30
0.0
 10
1732.802400
 20
545.643322
 30
0.0
 10
1728.386300
 20
547.472502
 30
0.0
 10
1726.557100
 20
551.888582
 30
0.0
 10
1728.386300
 20
556.304662
 30
0.0
 10
1732.802400
 20
558.133842
 30
0.0
 10
1737.218400
 20
556.304632
 30
0.0
 10
1739.047600
 20
551.888582
 30
0.0
  0
LWPOLYLINE
  5
142
100
AcDbEntity
  8
Extra_18.5mm
 62
7
100
AcDbPolyline
 90
9
 70
1
 10
1771.447600
 20
597.484130
 30
0.0
 10
1769.618400
 20
593.068090
 30
0.0
 10
1765.202400
 20
591.238870
 30
0.0
 10
1760.786300
 20
593.068050
 30
0.0
 10
1758.957100
 20
597.484130
 30
0.0
 10
1760.786300
 20
601.900210
 30
0.0
 10
1765.202400
 20
603.729390
 30
0.0
 10
1769.618400
 20
601.900180
 30
0.0
 10
1771.447600
 20
597.484130
 30
0.0
  0
LWPOLYLINE
  5
143
100
AcDbEntity
  8
Extra_18.5mm
 62
7
100
AcDbPolyline
 90
9
 70
1
 10
1787.647600
 20
574.968578
 30
0.0
 10
1785.818400
 20
570.552538
 30
0.0
 10
1781.402400
 20
568.723318
 30
0.0
 10
1776.986300
 20
570.552498
 30
0.0
 10
1775.157100
 20
574.968578
 30
0.0
 10
1776.986300
 20
579.384658
 30
0.0
 10
1781.402400
 20
581.213838
 30
0.0
 10
1785.818400
 20
579.384628
 30
0.0
 10
1787.647600
 20
574.968578
 30
0.0
  0
LWPOLYLINE
  5
144
100
AcDbEntity
  8
Extra_18.5mm
 62
7
100
AcDbPolyline
 90
9
 70
1
 10
1771.447600
 20
551.888582
 30
0.0
 10
1769.618400
 20
547.472542
 30
0.0
 10
1765.202400
 20
545.643322
 30
0.0
 10
1760.786300
 20
547.472502
 30
0.0
 10
1758.957100
 20
551.888582
 30
0.0
 10
1760.786300
 20
556.304662
 30
0.0
 10
1765.202400
 20
558.133842
 30
0.0
 10
1769.618400
 20
556.304632
 30
0.0
 10
1771.447600
 20
551.888582
 30
0.0
  0
LWPOLYLINE
  5
145
100
AcDbEntity
  8
Extra_18.5mm
 62
7
100
AcDbPolyline
 90
9
 70
1
 10
1803.847600
 20
597.484130
 30
0.0
 10
1802.018400
 20
593.068090
 30
0.0
 10
1797.602400
 20
591.238870
 30
0.0
 10
1793.186300
 20
593.068050
 30
0.0
 10
1791.357100
 20
597.484130
 30
0.0
 10
1793.186300
 20
601.900210
 30
0.0
 10
1797.602400
 20
603.729390
 30
0.0
 10
1802.018400
 20
601.900180
 30
0.0
 10
1803.847600
 20
597.484130
 30
0.0
  0
LWPOLYLINE
  5
146
100
AcDbEntity
  8
Extra_18.5mm
 62
7
100
AcDbPolyline
 90
9
 70
1
 10
1820.047600
 20
574.968578
 30
0.0
 10
1818.218400
 20
570.552538
 30
0.0
 10
1813.802400
 20
568.723318
 30
0.0
 10
1809.386300
 20
570.552498
 30
0.0
 10
1807.557100
 20
574.968578
 30
0.0
 10
1809.386300
 20
579.384658
 30
0.0
 10
1813.802400
 20
581.213838
 30
0.0
 10
1818.218400
 20
579.384628
 30
0.0
 10
1820.047600
 20
574.968578
 30
0.0
  0
LWPOLYLINE
  5
147
100
AcDbEntity
  8
Extra_18.5mm
 62
7
100
AcDbPolyline
 90
9
 70
1
 10
1803.847600
 20
551.888582
 30
0.0
 10
1802.018400
 20
547.472542
 30
0.0
 10
1797.602400
 20
545.643322
 30
0.0
 10
1793.186300
 20
547.472502
 30
0.0
 10
1791.357100
 20
551.888582
 30
0.0
 10
1793.186300
 20
556.304662
 30
0.0
 10
1797.602400
 20
558.133842
 30
0.0
 10
1802.018400
 20
556.304632
 30
0.0
 10
1803.847600
 20
551.888582
 30
0.0
  0
LWPOLYLINE
  5
148
100
AcDbEntity
  8
Extra_18.5mm
 62
7
100
AcDbPolyline
 90
9
 70
1
 10
1836.247600
 20
597.484130
 30
0.0
 10
1834.418400
 20
593.068090
 30
0.0
 10
1830.002400
 20
591.238870
 30
0.0
 10
1825.586300
 20
593.068050
 30
0.0
 10
1823.757100
 20
597.484130
 30
0.0
 10
1825.586300
 20
601.900210
 30
0.0
 10
1830.002400
 20
603.729390
 30
0.0
 10
1834.418400
 20
601.900180
 30
0.0
 10
1836.247600
 20
597.484130
 30
0.0
  0
LWPOLYLINE
  5
149
100
AcDbEntity
  8
Extra_18.5mm
 62
7
100
AcDbPolyline
 90
9
 70
1
 10
1852.447600
 20
574.968578
 30
0.0
 10
1850.618400
 20
570.552538
 30
0.0
 10
1846.202400
 20
568.723318
 30
0.0
 10
1841.786300
 20
570.552498
 30
0.0
 10
1839.957100
 20
574.968578
 30
0.0
 10
1841.786300
 20
579.384658
 30
0.0
 10
1846.202400
 20
581.213838
 30
0.0
 10
1850.618400
 20
579.384628
 30
0.0
 10
1852.447600
 20
574.968578
 30
0.0
  0
LWPOLYLINE
  5
14a
100
AcDbEntity
  8
Extra_18.5mm
 62
7
100
AcDbPolyline
 90
9
 70
1
 10
1836.247600
 20
551.888582
 30
0.0
 10
1834.418400
 20
547.472542
 30
0.0
 10
1830.002400
 20
545.643322
 30
0.0
 10
1825.586300
 20
547.472502
 30
0.0
 10
1823.757100
 20
551.888582
 30
0.0
 10
1825.586300
 20
556.304662
 30
0.0
 10
1830.002400
 20
558.133842
 30
0.0
 10
1834.418400
 20
556.304632
 30
0.0
 10
1836.247600
 20
551.888582
 30
0.0
  0
LWPOLYLINE
  5
14b
100
AcDbEntity
  8
Extra_18.5mm
 62
7
100
AcDbPolyline
 90
9
 70
1
 10
1868.647600
 20
597.484130
 30
0.0
 10
1866.818400
 20
593.068090
 30
0.0
 10
1862.402400
 20
591.238870
 30
0.0
 10
1857.986300
 20
593.068050
 30
0.0
 10
1856.157100
 20
597.484130
 30
0.0
 10
1857.986300
 20
601.900210
 30
0.0
 10
1862.402400
 20
603.729390
 30
0.0
 10
1866.818400
 20
601.900180
 30
0.0
 10
1868.647600
 20
597.484130
 30
0.0
  0
LWPOLYLINE
  5
14c
100
AcDbEntity
  8
Extra_18.5mm
 62
7
100
AcDbPolyline
 90
9
 70
1
 10
1884.847600
 20
574.968578
 30
0.0
 10
1883.018400
 20
570.552538
 30
0.0
 10
1878.602400
 20
568.723318
 30
0.0
 10
1874.186300
 20
570.552498
 30
0.0
 10
1872.357100
 20
574.968578
 30
0.0
 10
1874.186300
 20
579.384658
 30
0.0
 10
1878.602400
 20
581.213838
 30
0.0
 10
1883.018400
 20
579.384628
 30
0.0
 10
1884.847600
 20
574.968578
 30
0.0
  0
LWPOLYLINE
  5
14d
100
AcDbEntity
  8
Extra_18.5mm
 62
7
100
AcDbPolyline
 90
9
 70
1
 10
1868.647600
 20
551.888582
 30
0.0
 10
1866.818400
 20
547.472542
 30
0.0
 10
1862.402400
 20
545.643322
 30
0.0
 10
1857.986300
 20
547.472502
 30
0.0
 10
1856.157100
 20
551.888582
 30
0.0
 10
1857.986300
 20
556.304662
 30
0.0
 10
1862.402400
 20
558.133842
 30
0.0
 10
1866.818400
 20
556.304632
 30
0.0
 10
1868.647600
 20
551.888582
 30
0.0
  0
LWPOLYLINE
  5
14e
100
AcDbEntity
  8
Extra_18.5mm
 62
7
100
AcDbPolyline
 90
9
 70
1
 10
1901.047600
 20
597.484130
 30
0.0
 10
1899.218400
 20
593.068090
 30
0.0
 10
1894.802400
 20
591.238870
 30
0.0
 10
1890.386300
 20
593.068050
 30
0.0
 10
1888.557100
 20
597.484130
 30
0.0
 10
1890.386300
 20
601.900210
 30
0.0
 10
1894.802400
 20
603.729390
 30
0.0
 10
1899.218400
 20
601.900180
 30
0.0
 10
1901.047600
 20
597.484130
 30
0.0
  0
LWPOLYLINE
  5
14f
100
AcDbEntity
  8
Extra_18.5mm
 62
7
100
AcDbPolyline
 90
9
 70
1
 10
1901.047600
 20
551.888582
 30
0.0
 10
1899.218400
 20
547.472542
 30
0.0
 10
1894.802400
 20
545.643322
 30
0.0
 10
1890.386300
 20
547.472502
 30
0.0
 10
1888.557100
 20
551.888582
 30
0.0
 10
1890.386300
 20
556.304662
 30
0.0
 10
1894.802400
 20
558.133842
 30
0.0
 10
1899.218400
 20
556.304632
 30
0.0
 10
1901.047600
 20
551.888582
 30
0.0
  0
LWPOLYLINE
  5
150
100
AcDbEntity
  8
Extra_18.5mm
 62
7
100
AcDbPolyline
 90
41
 70
1
 10
979.942380
 20
866.366090
 30
0.0
 10
981.107060
 20
865.274330
 30
0.0
 10
984.348910
 20
862.419550
 30
0.0
 10
989.289610
 20
858.432550
 30
0.0
 10
995.551010
 20
853.944130
 30
0.0
 10
1002.754800
 20
849.585050
 30
0.0
 10
1010.522600
 20
845.986100
 30
0.0
 10
1018.476200
 20
843.778070
 30
0.0
 10
1026.237400
 20
843.591740
 30
0.0
 10
1037.229900
 20
846.511510
 30
0.0
 10
1046.178800
 20
851.179150
 30
0.0
 10
1053.489900
 20
856.460070
 30
0.0
 10
1059.568600
 20
861.219600
 30
0.0
 10
1064.820600
 20
864.323180
 30
0.0
 10
1069.651400
 20
864.636130
 30
0.0
 10
1074.466700
 20
861.023890
 30
0.0
 10
1079.672000
 20
852.351830
 30
0.0
 10
1082.741500
 20
843.996980
 30
0.0
 10
1083.851400
 20
836.108240
 30
0.0
 10
1083.183400
 20
828.656590
 30
0.0
 10
1080.919000
 20
821.613040
 30
0.0
 10
1077.239800
 20
814.948560
 30
0.0
 10
1072.327400
 20
808.634140
 30
0.0
 10
1066.363300
 20
802.640760
 30
0.0
 10
1059.529100
 20
796.939420
 30
0.0
 10
1050.590200
 20
791.417540
 30
0.0
 10
1038.983900
 20
786.092690
 30
0.0
 10
1025.899600
 20
781.131050
 30
0.0
 10
1012.527000
 20
776.698870
 30
0.0
 10
1000.055500
 20
772.962300
 30
0.0
 10
989.674510
 20
770.087550
 30
0.0
 10
982.573710
 20
768.240830
 30
0.0
 10
979.942380
 20
767.588310
 30
0.0
 10
979.942380
 20
779.935530
 30
0.0
 10
979.942380
 20
792.282760
 30
0.0
 10
979.942380
 20
804.629980
 30
0.0
 10
979.942380
 20
816.977200
 30
0.0
 10
979.942380
 20
829.324420
 30
0.0
 10
979.942380
 20
841.671640
 30
0.0
 10
979.942380
 20
854.018870
 30
0.0
 10
979.942380
 20
866.366090
 30
0.0
  0
LWPOLYLINE
  5
151
100
AcDbEntity
  8
Extra_18.5mm
 62
7
100
AcDbPolyline
 90
41
 70
1
 10
978.594970
 20
1023.093940
 30
0.0
 10
979.759650
 20
1022.002170
 30
0.0
 10
983.001510
 20
1019.147400
 30
0.0
 10
987.942260
 20
1015.160410
 30
0.0
 10
994.203660
 20
1010.671980
 30
0.0
 10
1001.407500
 20
1006.312900
 30
0.0
 10
1009.175300
 20
1002.713950
 30
0.0
 10
1017.128900
 20
1000.505920
 30
0.0
 10
1024.890100
 20
1000.319590
 30
0.0
 10
1035.882600
 20
1003.239360
 30
0.0
 10
1044.831500
 20
1007.907000
 30
0.0
 10
1052.142600
 20
1013.187920
 30
0.0
 10
1058.221300
 20
1017.947450
 30
0.0
 10
1063.473300
 20
1021.051030
 30
0.0
 10
1068.304100
 20
1021.363980
 30
0.0
 10
1073.119400
 20
1017.751740
 30
0.0
 10
1078.324700
 20
1009.079680
 30
0.0
 10
1081.394200
 20
1000.724830
 30
0.0
 10
1082.504100
 20
992.836090
 30
0.0
 10
1081.836100
 20
985.384440
 30
0.0
 10
1079.571700
 20
978.340890
 30
0.0
 10
1075.892500
 20
971.676410
 30
0.0
 10
1070.980100
 20
965.361990
 30
0.0
 10
1065.016000
 20
959.368610
 30
0.0
 10
1058.181800
 20
953.667270
 30
0.0
 10
1049.242900
 20
948.145390
 30
0.0
 10
1037.636600
 20
942.820540
 30
0.0
 10
1024.552300
 20
937.858900
 30
0.0
 10
1011.179700
 20
933.426720
 30
0.0
 10
998.708060
 20
929.690150
 30
0.0
 10
988.327160
 20
926.815400
 30
0.0
 10
981.226270
 20
924.968660
 30
0.0
 10
978.594970
 20
924.316160
 30
0.0
 10
978.594970
 20
936.663390
 30
0.0
 10
978.594970
 20
949.010610
 30
0.0
 10
978.594970
 20
961.357830
 30
0.0
 10
978.594970
 20
973.705050
 30
0.0
 10
978.594970
 20
986.052270
 30
0.0
 10
978.594970
 20
998.399490
 30
0.0
 10
978.594970
 20
1010.746720
 30
0.0
 10
978.594970
 20
1023.093940
 30
0.0
  0
LWPOLYLINE
  5
152
100
AcDbEntity
  8
Extra_18.5mm
 62
7
100
AcDbPolyline
 90
5
 70
1
 10
1055.636900
 20
390.270680
 30
0.0
 10
1055.813300
 20
390.059010
 30
0.0
 10
1055.989700
 20
390.270680
 30
0.0
 10
1055.813300
 20
390.482340
 30
0.0
 10
1055.636900
 20
390.270680
 30
0.0
  0
LWPOLYLINE
  5
153
100
AcDbEntity
  8
Extra_18.5mm
 62
7
100
AcDbPolyline
 90
5
 70
1
 10
1055.636900
 20
350.759380
 30
0.0
 10
1055.813300
 20
350.547720
 30
0.0
 10
1055.989700
 20
350.759380
 30
0.0
 10
1055.813300
 20
350.971050
 30
0.0
 10
1055.636900
 20
350.759380
 30
0.0
  0
LWPOLYLINE
  5
154
100
AcDbEntity
  8
Extra_18.5mm
 62
7
100
AcDbPolyline
 90
5
 70
1
 10
895.956350
 20
390.270680
 30
0.0
 10
896.132740
 20
390.059010
 30
0.0
 10
896.309130
 20
390.270680
 30
0.0
 10
896.132740
 20
390.482340
 30
0.0
 10
895.956350
 20
390.270680
 30
0.0
  0
LWPOLYLINE
  5
155
100
AcDbEntity
  8
Extra_18.5mm
 62
7
100
AcDbPolyline
 90
5
 70
1
 10
895.956350
 20
350.759380
 30
0.0
 10
896.132740
 20
350.547720
 30
0.0
 10
896.309130
 20
350.759380
 30
0.0
 10
896.132740
 20
350.971050
 30
0.0
 10
895.956350
 20
350.759380
 30
0.0
  0
LWPOLYLINE
  5
156
100
AcDbEntity
  8
Extra_18.5mm
 62
7
100
AcDbPolyline
 90
40
 70
1
 10
1082.692900
 20
942.101510
 30
0.0
 10
1083.306100
 20
916.433840
 30
0.0
 10
1090.737800
 20
896.284110
 30
0.0
 10
1098.673800
 20
884.145160
 30
0.0
 10
1107.792700
 20
871.697020
 30
0.0
 10
1114.365400
 20
859.606410
 30
0.0
 10
1114.663100
 20
848.540040
 30
0.0
 10
1111.425900
 20
840.885250
 30
0.0
 10
1106.570600
 20
834.376430
 30
0.0
 10
1101.286000
 20
827.853280
 30
0.0
 10
1096.760500
 20
820.155570
 30
0.0
 10
1092.044200
 20
810.083330
 30
0.0
 10
1088.956900
 20
801.381140
 30
0.0
 10
1088.605900
 20
793.377540
 30
0.0
 10
1092.098600
 20
785.400650
 30
0.0
 10
1100.541800
 20
776.779020
 30
0.0
 10
1108.694100
 20
771.695790
 30
0.0
 10
1116.408100
 20
769.859070
 30
0.0
 10
1123.710600
 20
770.967800
 30
0.0
 10
1130.628200
 20
774.721330
 30
0.0
 10
1137.187600
 20
780.818730
 30
0.0
 10
1143.415600
 20
788.959120
 30
0.0
 10
1149.339000
 20
798.841920
 30
0.0
 10
1154.984500
 20
810.166130
 30
0.0
 10
1160.473600
 20
824.977410
 30
0.0
 10
1165.794500
 20
844.207810
 30
0.0
 10
1170.773300
 20
865.886780
 30
0.0
 10
1175.236200
 20
888.043320
 30
0.0
 10
1179.009800
 20
908.707110
 30
0.0
 10
1181.920300
 20
925.906700
 30
0.0
 10
1183.794000
 20
937.671600
 30
0.0
 10
1184.457100
 20
942.031180
 30
0.0
 10
1172.367300
 20
942.028180
 30
0.0
 10
1160.277600
 20
942.025180
 30
0.0
 10
1148.187800
 20
942.022180
 30
0.0
 10
1136.098000
 20
942.019180
 30
0.0
 10
1124.008200
 20
942.016180
 30
0.0
 10
1111.918400
 20
942.013180
 30
0.0
 10
1099.828600
 20
942.010180
 30
0.0
 10
1082.692900
 20
942.101510
 30
0.0
  0
LWPOLYLINE
  5
157
100
AcDbEntity
  8
Extra_18.5mm
 62
7
100
AcDbPolyline
 90
5
 70
1
 10
221.819800
 20
377.613480
 30
0.0
 10
221.996190
 20
377.401810
 30
0.0
 10
222.172580
 20
377.613480
 30
0.0
 10
221.996190
 20
377.825140
 30
0.0
 10
221.819800
 20
377.613480
 30
0.0
  0
LWPOLYLINE
  5
158
100
AcDbEntity
  8
Extra_18.5mm
 62
7
100
AcDbPolyline
 90
5
 70
1
 10
221.819800
 20
338.102180
 30
0.0
 10
221.996190
 20
337.890520
 30
0.0
 10
222.172580
 20
338.102180
 30
0.0
 10
221.996190
 20
338.313850
 30
0.0
 10
221.819800
 20
338.102180
 30
0.0
  0
LWPOLYLINE
  5
159
100
AcDbEntity
  8
Shallow_5mm
 62
3
100
AcDbPolyline
 90
105
 70
1
 10
1357.991440
 20
945.560400
 30
0.0
 10
1358.689250
 20
938.713400
 30
0.0
 10
1360.775130
 20
932.222400
 30
0.0
 10
1364.080250
 20
926.264500
 30
0.0
 10
1368.435860
 20
921.016700
 30
0.0
 10
1373.673190
 20
916.656100
 30
0.0
 10
1379.623530
 20
913.359800
 30
0.0
 10
1386.118050
 20
911.304700
 30
0.0
 10
1392.988010
 20
910.667800
 30
0.0
 10
1395.997300
 20
909.925800
 30
0.0
 10
1398.979460
 20
909.082000
 30
0.0
 10
1401.941120
 20
908.161600
 30
0.0
 10
1404.888940
 20
907.190000
 30
0.0
 10
1407.829560
 20
906.192400
 30
0.0
 10
1410.769610
 20
905.194100
 30
0.0
 10
1413.715740
 20
904.220400
 30
0.0
 10
1416.674600
 20
903.296500
 30
0.0
 10
1417.022580
 20
900.660700
 30
0.0
 10
1417.575150
 20
898.060800
 30
0.0
 10
1418.328800
 20
895.513200
 30
0.0
 10
1419.280030
 20
893.034100
 30
0.0
 10
1420.425320
 20
890.639700
 30
0.0
 10
1421.761150
 20
888.346300
 30
0.0
 10
1423.284020
 20
886.170000
 30
0.0
 10
1424.990430
 20
884.127200
 30
0.0
 10
1422.834690
 20
877.753500
 30
0.0
 10
1420.679380
 20
871.377200
 30
0.0
 10
1418.523920
 20
865.000000
 30
0.0
 10
1416.367700
 20
858.623400
 30
0.0
 10
1414.210150
 20
852.249100
 30
0.0
 10
1412.050720
 20
845.878700
 30
0.0
 10
1409.888790
 20
839.514000
 30
0.0
 10
1407.723770
 20
833.156500
 30
0.0
 10
1402.256080
 20
831.011000
 30
0.0
 10
1397.479770
 20
827.747200
 30
0.0
 10
1393.497810
 20
823.570100
 30
0.0
 10
1390.413090
 20
818.684500
 30
0.0
 10
1388.328590
 20
813.295300
 30
0.0
 10
1387.347240
 20
807.607500
 30
0.0
 10
1387.571990
 20
801.825900
 30
0.0
 10
1389.105780
 20
796.155500
 30
0.0
 10
1391.809950
 20
790.601700
 30
0.0
 10
1395.712080
 20
785.924900
 30
0.0
 10
1400.550230
 20
782.223900
 30
0.0
 10
1406.062470
 20
779.597500
 30
0.0
 10
1411.986880
 20
778.144600
 30
0.0
 10
1418.061530
 20
777.964000
 30
0.0
 10
1424.024500
 20
779.154600
 30
0.0
 10
1429.613850
 20
781.815200
 30
0.0
 10
1434.365130
 20
785.208700
 30
0.0
 10
1438.166700
 20
789.512900
 30
0.0
 10
1440.975400
 20
794.506100
 30
0.0
 10
1442.748100
 20
799.966400
 30
0.0
 10
1443.441500
 20
805.671900
 30
0.0
 10
1443.012500
 20
811.400700
 30
0.0
 10
1441.417800
 20
816.931000
 30
0.0
 10
1438.614400
 20
822.040900
 30
0.0
 10
1440.788500
 20
828.682900
 30
0.0
 10
1442.991800
 20
835.315300
 30
0.0
 10
1445.217300
 20
841.940400
 30
0.0
 10
1447.457900
 20
848.560600
 30
0.0
 10
1449.706300
 20
855.178100
 30
0.0
 10
1451.955600
 20
861.795300
 30
0.0
 10
1454.198500
 20
868.414700
 30
0.0
 10
1456.427900
 20
875.038500
 30
0.0
 10
1462.910000
 20
877.498500
 30
0.0
 10
1468.528900
 20
881.373800
 30
0.0
 10
1473.154400
 20
886.387200
 30
0.0
 10
1476.656100
 20
892.261100
 30
0.0
 10
1478.903800
 20
898.718000
 30
0.0
 10
1479.767100
 20
905.480400
 30
0.0
 10
1479.115900
 20
912.270900
 30
0.0
 10
1476.819800
 20
918.811900
 30
0.0
 10
1474.438600
 20
923.201700
 30
0.0
 10
1471.377100
 20
927.099100
 30
0.0
 10
1467.737900
 20
930.450000
 30
0.0
 10
1463.623800
 20
933.200200
 30
0.0
 10
1459.137100
 20
935.295400
 30
0.0
 10
1454.380800
 20
936.681400
 30
0.0
 10
1449.457300
 20
937.304000
 30
0.0
 10
1444.469400
 20
937.109000
 30
0.0
 10
1441.570600
 20
940.586500
 30
0.0
 10
1438.585300
 20
944.006400
 30
0.0
 10
1435.579640
 20
947.413500
 30
0.0
 10
1432.619800
 20
950.852600
 30
0.0
 10
1429.772060
 20
954.368800
 30
0.0
 10
1427.102650
 20
958.006800
 30
0.0
 10
1424.677690
 20
961.811600
 30
0.0
 10
1422.563470
 20
965.828000
 30
0.0
 10
1417.861890
 20
971.638300
 30
0.0
 10
1412.025270
 20
976.150700
 30
0.0
 10
1405.364780
 20
979.315500
 30
0.0
 10
1398.191510
 20
981.083100
 30
0.0
 10
1390.816660
 20
981.404000
 30
0.0
 10
1383.551360
 20
980.228500
 30
0.0
 10
1376.706770
 20
977.507100
 30
0.0
 10
1370.594000
 20
973.190200
 30
0.0
 10
1367.729860
 20
970.485800
 30
0.0
 10
1365.187430
 20
967.493800
 30
0.0
 10
1362.989990
 20
964.251000
 30
0.0
 10
1361.160750
 20
960.794100
 30
0.0
 10
1359.723020
 20
957.159900
 30
0.0
 10
1358.700060
 20
953.385000
 30
0.0
 10
1358.115110
 20
949.506300
 30
0.0
 10
1357.991440
 20
945.560400
 30
0.0
  0
SPLINE
  5
15a
100
AcDbEntity
  8
Shallow_5mm
 62
3
100
AcDbSpline
 70
8
 71
3
 72
8
 73
4
 74
0
 40
0
 40
0
 40
0
 40
0
 40
1
 40
1
 40
1
 40
1
 10
1447.497100
 20
917.972500
 30
0.0
 10
1446.285400
 20
917.813500
 30
0.0
 10
1445.138200
 20
917.414300
 30
0.0
 10
1444.072100
 20
916.967900
 30
0.0
  0
LWPOLYLINE
  5
15b
100
AcDbEntity
  8
Shallow_5mm
 62
3
100
AcDbPolyline
 90
31
 70
1
 10
1444.071700
 20
916.967900
 30
0.0
 10
1447.825600
 20
917.420600
 30
0.0
 10
1451.521100
 20
916.957900
 30
0.0
 10
1455.010700
 20
915.682600
 30
0.0
 10
1458.146800
 20
913.697500
 30
0.0
 10
1460.782200
 20
911.105600
 30
0.0
 10
1462.769100
 20
908.009900
 30
0.0
 10
1463.960300
 20
904.513200
 30
0.0
 10
1464.208200
 20
900.718400
 30
0.0
 10
1464.121200
 20
898.916300
 30
0.0
 10
1463.834500
 20
897.149600
 30
0.0
 10
1463.393300
 20
895.410900
 30
0.0
 10
1462.843200
 20
893.693000
 30
0.0
 10
1462.229600
 20
891.988400
 30
0.0
 10
1461.598000
 20
890.289900
 30
0.0
 10
1460.993600
 20
888.590200
 30
0.0
 10
1460.461900
 20
886.882000
 30
0.0
 10
1463.914000
 20
889.878900
 30
0.0
 10
1466.251300
 20
893.628500
 30
0.0
 10
1467.499500
 20
897.855100
 30
0.0
 10
1467.684400
 20
902.283300
 30
0.0
 10
1466.831600
 20
906.637500
 30
0.0
 10
1464.966700
 20
910.642100
 30
0.0
 10
1462.115600
 20
914.021600
 30
0.0
 10
1458.303900
 20
916.500400
 30
0.0
 10
1456.647100
 20
917.255900
 30
0.0
 10
1454.886900
 20
917.797600
 30
0.0
 10
1453.057600
 20
918.132800
 30
0.0
 10
1451.193300
 20
918.268800
 30
0.0
 10
1449.328400
 20
918.212800
 30
0.0
 10
1447.497100
 20
917.972500
 30
0.0
  0
LWPOLYLINE
  5
15c
100
AcDbEntity
  8
Shallow_5mm
 62
3
100
AcDbPolyline
 90
2
 70
1
 10
1444.072100
 20
916.967900
 30
0.0
 10
1444.071700
 20
916.967900
 30
0.0
  0
LWPOLYLINE
  5
15d
100
AcDbEntity
  8
Shallow_5mm
 62
3
100
AcDbPolyline
 90
49
 70
1
 10
1399.683620
 20
805.395600
 30
0.0
 10
1400.516950
 20
800.994400
 30
0.0
 10
1402.621270
 20
797.214300
 30
0.0
 10
1405.707690
 20
794.183700
 30
0.0
 10
1409.487270
 20
792.031100
 30
0.0
 10
1413.671080
 20
790.885000
 30
0.0
 10
1417.970230
 20
790.874000
 30
0.0
 10
1422.095760
 20
792.126300
 30
0.0
 10
1425.758740
 20
794.770500
 30
0.0
 10
1426.257430
 20
795.215700
 30
0.0
 10
1426.871470
 20
795.874400
 30
0.0
 10
1427.501310
 20
796.618700
 30
0.0
 10
1428.047430
 20
797.320800
 30
0.0
 10
1428.410270
 20
797.852700
 30
0.0
 10
1428.490270
 20
798.086400
 30
0.0
 10
1428.187980
 20
797.894100
 30
0.0
 10
1427.403790
 20
797.147800
 30
0.0
 10
1423.736270
 20
794.752000
 30
0.0
 10
1419.680130
 20
793.602900
 30
0.0
 10
1415.481250
 20
793.592900
 30
0.0
 10
1411.385490
 20
794.627800
 30
0.0
 10
1407.638800
 20
796.599900
 30
0.0
 10
1404.486880
 20
799.405600
 30
0.0
 10
1402.175750
 20
802.942300
 30
0.0
 10
1400.951290
 20
807.106800
 30
0.0
 10
1400.806850
 20
807.858600
 30
0.0
 10
1400.705700
 20
808.616900
 30
0.0
 10
1400.648500
 20
809.379200
 30
0.0
 10
1400.636000
 20
810.143300
 30
0.0
 10
1400.668800
 20
810.906600
 30
0.0
 10
1400.747600
 20
811.666700
 30
0.0
 10
1400.873160
 20
812.421100
 30
0.0
 10
1401.046110
 20
813.167400
 30
0.0
 10
1400.646850
 20
812.252100
 30
0.0
 10
1400.314110
 20
811.311200
 30
0.0
 10
1400.047340
 20
810.349600
 30
0.0
 10
1399.845950
 20
809.371900
 30
0.0
 10
1399.709430
 20
808.382600
 30
0.0
 10
1399.637230
 20
807.386400
 30
0.0
 10
1399.629230
 20
806.387800
 30
0.0
 10
1399.684030
 20
805.391600
 30
0.0
 10
1399.684040
 20
805.391600
 30
0.0
 10
1399.684040
 20
805.391600
 30
0.0
 10
1399.684040
 20
805.391600
 30
0.0
 10
1399.684040
 20
805.391600
 30
0.0
 10
1399.684050
 20
805.391600
 30
0.0
 10
1399.684050
 20
805.391600
 30
0.0
 10
1399.684040
 20
805.391600
 30
0.0
 10
1399.683620
 20
805.395600
 30
0.0
  0
SPLINE
  5
15e
100
AcDbEntity
  8
Shallow_5mm
 62
3
100
AcDbSpline
 70
8
 71
3
 72
8
 73
4
 74
0
 40
0
 40
0
 40
0
 40
0
 40
1
 40
1
 40
1
 40
1
 10
1370.151900
 20
947.910400
 30
0.0
 10
1370.051700
 20
946.854000
 30
0.0
 10
1370.080600
 20
945.786000
 30
0.0
 10
1370.130800
 20
944.723800
 30
0.0
  0
LWPOLYLINE
  5
15f
100
AcDbEntity
  8
Shallow_5mm
 62
3
100
AcDbPolyline
 90
31
 70
1
 10
1370.130760
 20
944.724300
 30
0.0
 10
1370.936160
 20
939.106900
 30
0.0
 10
1373.178950
 20
934.052800
 30
0.0
 10
1376.600100
 20
929.718600
 30
0.0
 10
1380.940650
 20
926.260800
 30
0.0
 10
1385.941550
 20
923.836000
 30
0.0
 10
1391.343760
 20
922.600800
 30
0.0
 10
1396.888320
 20
922.711900
 30
0.0
 10
1402.316210
 20
924.325700
 30
0.0
 10
1407.235280
 20
927.034500
 30
0.0
 10
1411.197440
 20
930.836600
 30
0.0
 10
1414.134310
 20
935.458900
 30
0.0
 10
1415.977460
 20
940.628400
 30
0.0
 10
1416.658550
 20
946.072000
 30
0.0
 10
1416.109200
 20
951.516700
 30
0.0
 10
1414.261000
 20
956.689600
 30
0.0
 10
1411.045580
 20
961.317600
 30
0.0
 10
1406.833920
 20
965.291600
 30
0.0
 10
1401.830400
 20
967.890200
 30
0.0
 10
1396.348480
 20
969.156300
 30
0.0
 10
1390.701600
 20
969.132300
 30
0.0
 10
1385.203250
 20
967.862200
 30
0.0
 10
1380.166890
 20
965.388200
 30
0.0
 10
1375.906000
 20
961.753500
 30
0.0
 10
1372.733980
 20
957.001000
 30
0.0
 10
1371.999500
 20
955.577600
 30
0.0
 10
1371.396220
 20
954.107700
 30
0.0
 10
1370.917000
 20
952.598700
 30
0.0
 10
1370.554630
 20
951.058000
 30
0.0
 10
1370.301980
 20
949.492800
 30
0.0
 10
1370.151900
 20
947.910400
 30
0.0
  0
LWPOLYLINE
  5
160
100
AcDbEntity
  8
Shallow_5mm
 62
3
100
AcDbPolyline
 90
2
 70
1
 10
1370.130800
 20
944.723800
 30
0.0
 10
1370.130760
 20
944.724300
 30
0.0
  0
LWPOLYLINE
  5
161
100
AcDbEntity
  8
Shallow_5mm
 62
3
100
AcDbPolyline
 90
65
 70
1
 10
1411.737150
 20
944.865300
 30
0.0
 10
1410.742880
 20
940.106700
 30
0.0
 10
1408.744830
 20
935.983000
 30
0.0
 10
1405.908230
 20
932.587100
 30
0.0
 10
1402.398400
 20
930.012100
 30
0.0
 10
1398.380530
 20
928.350900
 30
0.0
 10
1394.019900
 20
927.696500
 30
0.0
 10
1389.481760
 20
928.142000
 30
0.0
 10
1384.931350
 20
929.780300
 30
0.0
 10
1383.448520
 20
930.650700
 30
0.0
 10
1382.018930
 20
931.730500
 30
0.0
 10
1380.666560
 20
932.990100
 30
0.0
 10
1379.415400
 20
934.399900
 30
0.0
 10
1378.289440
 20
935.930100
 30
0.0
 10
1377.312620
 20
937.551100
 30
0.0
 10
1376.508970
 20
939.233300
 30
0.0
 10
1375.902430
 20
940.946900
 30
0.0
 10
1375.654730
 20
942.019900
 30
0.0
 10
1375.478150
 20
943.254800
 30
0.0
 10
1375.372630
 20
944.598100
 30
0.0
 10
1375.338130
 20
945.996300
 30
0.0
 10
1375.374630
 20
947.396000
 30
0.0
 10
1375.482050
 20
948.743800
 30
0.0
 10
1375.660350
 20
949.986000
 30
0.0
 10
1375.909480
 20
951.069300
 30
0.0
 10
1376.969090
 20
953.823400
 30
0.0
 10
1378.462040
 20
956.347500
 30
0.0
 10
1380.332400
 20
958.599200
 30
0.0
 10
1382.524330
 20
960.536400
 30
0.0
 10
1384.981870
 20
962.116700
 30
0.0
 10
1387.649150
 20
963.297900
 30
0.0
 10
1390.470260
 20
964.037600
 30
0.0
 10
1393.389310
 20
964.293600
 30
0.0
 10
1394.487280
 20
964.247600
 30
0.0
 10
1395.660510
 20
964.114200
 30
0.0
 10
1396.876650
 20
963.902000
 30
0.0
 10
1398.103270
 20
963.619000
 30
0.0
 10
1399.308060
 20
963.274100
 30
0.0
 10
1400.458620
 20
962.875400
 30
0.0
 10
1401.522600
 20
962.431300
 30
0.0
 10
1402.467590
 20
961.950200
 30
0.0
 10
1403.840350
 20
961.062400
 30
0.0
 10
1405.174010
 20
959.992300
 30
0.0
 10
1406.441950
 20
958.772800
 30
0.0
 10
1407.617640
 20
957.436700
 30
0.0
 10
1408.674440
 20
956.016800
 30
0.0
 10
1409.585720
 20
954.545900
 30
0.0
 10
1410.324930
 20
953.056900
 30
0.0
 10
1410.865510
 20
951.582700
 30
0.0
 10
1411.068610
 20
950.813300
 30
0.0
 10
1411.255210
 20
949.943700
 30
0.0
 10
1411.420100
 20
949.013800
 30
0.0
 10
1411.558080
 20
948.063900
 30
0.0
 10
1411.663940
 20
947.134100
 30
0.0
 10
1411.732540
 20
946.264400
 30
0.0
 10
1411.758540
 20
945.494900
 30
0.0
 10
1411.736540
 20
944.865800
 30
0.0
 10
1411.736580
 20
944.865800
 30
0.0
 10
1411.736630
 20
944.865800
 30
0.0
 10
1411.736680
 20
944.865800
 30
0.0
 10
1411.736730
 20
944.865800
 30
0.0
 10
1411.736780
 20
944.865800
 30
0.0
 10
1411.736830
 20
944.865800
 30
0.0
 10
1411.737040
 20
944.865800
 30
0.0
 10
1411.737150
 20
944.865300
 30
0.0
  0
LWPOLYLINE
  5
162
100
AcDbEntity
  8
Shallow_5mm
 62
3
100
AcDbPolyline
 90
37
 70
1
 10
205.218300
 20
980.115400
 30
0.0
 10
203.728200
 20
981.696400
 30
0.0
 10
201.870700
 20
982.579200
 30
0.0
 10
199.884800
 20
982.528200
 30
0.0
 10
198.009300
 20
981.307100
 30
0.0
 10
189.095800
 20
976.546600
 30
0.0
 10
180.089200
 20
971.930300
 30
0.0
 10
171.138400
 20
967.234300
 30
0.0
 10
162.392100
 20
962.234800
 30
0.0
 10
162.162500
 20
959.776500
 30
0.0
 10
162.471700
 20
957.466000
 30
0.0
 10
163.603600
 20
955.607700
 30
0.0
 10
165.842200
 20
954.505900
 30
0.0
 10
174.675000
 20
949.882300
 30
0.0
 10
183.509400
 20
945.269800
 30
0.0
 10
192.340600
 20
940.660700
 30
0.0
 10
201.163600
 20
936.047300
 30
0.0
 10
202.829400
 20
936.758700
 30
0.0
 10
204.472200
 20
938.028200
 30
0.0
 10
205.098900
 20
939.454200
 30
0.0
 10
203.716300
 20
940.635200
 30
0.0
 10
195.611000
 20
945.058000
 30
0.0
 10
187.273700
 20
949.137100
 30
0.0
 10
179.056700
 20
953.389000
 30
0.0
 10
171.312000
 20
958.330500
 30
0.0
 10
166.857400
 20
959.560200
 30
0.0
 10
167.865600
 20
960.748400
 30
0.0
 10
172.720500
 20
962.655300
 30
0.0
 10
179.806000
 20
966.041100
 30
0.0
 10
186.204600
 20
969.352800
 30
0.0
 10
192.721400
 20
972.532200
 30
0.0
 10
199.129100
 20
975.850800
 30
0.0
 10
205.200700
 20
979.580500
 30
0.0
 10
205.222700
 20
979.720100
 30
0.0
 10
205.232700
 20
979.858000
 30
0.0
 10
205.232700
 20
979.991100
 30
0.0
 10
205.218300
 20
980.115400
 30
0.0
  0
LWPOLYLINE
  5
163
100
AcDbEntity
  8
Shallow_5mm
 62
3
100
AcDbPolyline
 90
25
 70
1
 10
205.265700
 20
911.414900
 30
0.0
 10
200.393500
 20
911.712200
 30
0.0
 10
196.717300
 20
911.688200
 30
0.0
 10
193.594400
 20
911.658200
 30
0.0
 10
190.382300
 20
911.936400
 30
0.0
 10
183.367100
 20
911.881400
 30
0.0
 10
176.234400
 20
912.000500
 30
0.0
 10
169.198100
 20
911.976500
 30
0.0
 10
162.472200
 20
911.492500
 30
0.0
 10
162.248000
 20
909.850200
 30
0.0
 10
162.192000
 20
908.196500
 30
0.0
 10
162.794200
 20
907.057500
 30
0.0
 10
164.544400
 20
906.959500
 30
0.0
 10
174.708800
 20
906.797600
 30
0.0
 10
184.942200
 20
906.730600
 30
0.0
 10
195.107100
 20
906.795600
 30
0.0
 10
205.065900
 20
907.030200
 30
0.0
 10
205.075900
 20
907.188400
 30
0.0
 10
205.085900
 20
907.346700
 30
0.0
 10
205.095900
 20
907.504900
 30
0.0
 10
205.105900
 20
907.663100
 30
0.0
 10
205.254100
 20
908.602000
 30
0.0
 10
205.367200
 20
909.542000
 30
0.0
 10
205.392200
 20
910.480900
 30
0.0
 10
205.265700
 20
911.414900
 30
0.0
  0
LWPOLYLINE
  5
164
100
AcDbEntity
  8
Shallow_5mm
 62
3
100
AcDbPolyline
 90
41
 70
1
 10
205.239700
 20
879.443500
 30
0.0
 10
203.817800
 20
881.395600
 30
0.0
 10
201.658600
 20
882.067200
 30
0.0
 10
199.267000
 20
881.659400
 30
0.0
 10
197.147900
 20
880.373200
 30
0.0
 10
188.429700
 20
875.829400
 30
0.0
 10
179.653600
 20
871.339300
 30
0.0
 10
170.952800
 20
866.744600
 30
0.0
 10
162.460400
 20
861.886900
 30
0.0
 10
162.057900
 20
859.064200
 30
0.0
 10
162.734700
 20
856.611000
 30
0.0
 10
164.407400
 20
854.697900
 30
0.0
 10
166.992300
 20
853.495700
 30
0.0
 10
175.564800
 20
849.038500
 30
0.0
 10
184.136900
 20
844.428700
 30
0.0
 10
192.759600
 20
839.925800
 30
0.0
 10
201.483900
 20
835.789200
 30
0.0
 10
203.289600
 20
836.510900
 30
0.0
 10
204.743100
 20
837.865000
 30
0.0
 10
205.018700
 20
839.363400
 30
0.0
 10
203.290500
 20
840.517700
 30
0.0
 10
195.302400
 20
844.765200
 30
0.0
 10
187.166800
 20
848.785300
 30
0.0
 10
179.120400
 20
852.940100
 30
0.0
 10
171.399900
 20
857.592000
 30
0.0
 10
167.090300
 20
859.294500
 30
0.0
 10
168.123900
 20
860.784500
 30
0.0
 10
172.791800
 20
862.739700
 30
0.0
 10
179.385600
 20
865.837900
 30
0.0
 10
186.567400
 20
869.247100
 30
0.0
 10
193.229100
 20
872.334000
 30
0.0
 10
199.433100
 20
875.524000
 30
0.0
 10
205.241700
 20
879.242400
 30
0.0
 10
205.241700
 20
879.292400
 30
0.0
 10
205.241700
 20
879.342400
 30
0.0
 10
205.241700
 20
879.392400
 30
0.0
 10
205.241700
 20
879.442400
 30
0.0
 10
205.241200
 20
879.442400
 30
0.0
 10
205.240700
 20
879.442400
 30
0.0
 10
205.240200
 20
879.442400
 30
0.0
 10
205.239700
 20
879.443500
 30
0.0
  0
LWPOLYLINE
  5
165
100
AcDbEntity
  8
Shallow_5mm
 62
3
100
AcDbPolyline
 90
57
 70
1
 10
204.968300
 20
791.738400
 30
0.0
 10
204.881300
 20
796.294500
 30
0.0
 10
204.956300
 20
800.952600
 30
0.0
 10
204.871300
 20
805.527500
 30
0.0
 10
204.305200
 20
809.834100
 30
0.0
 10
199.236000
 20
811.495300
 30
0.0
 10
193.825300
 20
811.744600
 30
0.0
 10
188.303900
 20
811.486900
 30
0.0
 10
182.902900
 20
811.626800
 30
0.0
 10
177.614000
 20
811.481800
 30
0.0
 10
172.098500
 20
811.760900
 30
0.0
 10
166.824500
 20
811.239600
 30
0.0
 10
162.260300
 20
808.693500
 30
0.0
 10
162.362400
 20
801.418000
 30
0.0
 10
162.185100
 20
794.085600
 30
0.0
 10
162.240100
 20
786.791000
 30
0.0
 10
163.038100
 20
779.629000
 30
0.0
 10
164.915100
 20
778.316800
 30
0.0
 10
166.320500
 20
778.181800
 30
0.0
 10
167.029300
 20
779.266500
 30
0.0
 10
167.066300
 20
783.060200
 30
0.0
 10
167.005300
 20
787.654900
 30
0.0
 10
167.017300
 20
793.765200
 30
0.0
 10
167.072300
 20
799.938100
 30
0.0
 10
167.689700
 20
805.768200
 30
0.0
 10
170.636900
 20
806.287500
 30
0.0
 10
173.706200
 20
806.527400
 30
0.0
 10
176.799800
 20
806.477400
 30
0.0
 10
179.820000
 20
806.125500
 30
0.0
 10
181.521200
 20
806.190500
 30
0.0
 10
182.000300
 20
805.085700
 30
0.0
 10
181.908300
 20
801.000600
 30
0.0
 10
181.896300
 20
792.125000
 30
0.0
 10
181.751500
 20
789.059300
 30
0.0
 10
181.797500
 20
786.831200
 30
0.0
 10
182.701800
 20
785.719700
 30
0.0
 10
185.133000
 20
786.003900
 30
0.0
 10
185.974900
 20
787.287300
 30
0.0
 10
186.190200
 20
789.464200
 30
0.0
 10
186.127200
 20
792.269900
 30
0.0
 10
186.137200
 20
795.439500
 30
0.0
 10
186.122200
 20
802.391200
 30
0.0
 10
185.677900
 20
805.671900
 30
0.0
 10
186.595300
 20
806.580500
 30
0.0
 10
190.665400
 20
806.415400
 30
0.0
 10
193.560500
 20
806.476400
 30
0.0
 10
196.592800
 20
806.537400
 30
0.0
 10
199.180700
 20
805.795900
 30
0.0
 10
200.742400
 20
803.451400
 30
0.0
 10
201.113200
 20
796.990900
 30
0.0
 10
201.137200
 20
790.350700
 30
0.0
 10
201.209200
 20
783.897600
 30
0.0
 10
201.724500
 20
777.998300
 30
0.0
 10
204.626800
 20
780.121700
 30
0.0
 10
205.201200
 20
783.762600
 30
0.0
 10
204.849200
 20
787.956400
 30
0.0
 10
204.968300
 20
791.738400
 30
0.0
  0
LWPOLYLINE
  5
166
100
AcDbEntity
  8
Shallow_5mm
 62
3
100
AcDbPolyline
 90
39
 70
1
 10
327.199980
 20
887.786200
 30
0.0
 10
316.979800
 20
895.019900
 30
0.0
 10
305.704630
 20
901.824100
 30
0.0
 10
294.239600
 20
908.358100
 30
0.0
 10
282.955940
 20
915.133800
 30
0.0
 10
274.789380
 20
919.803100
 30
0.0
 10
266.785980
 20
924.879200
 30
0.0
 10
258.651740
 20
929.656600
 30
0.0
 10
250.092640
 20
933.429600
 30
0.0
 10
244.657650
 20
932.118300
 30
0.0
 10
239.542620
 20
929.654500
 30
0.0
 10
234.734260
 20
926.505800
 30
0.0
 10
230.219250
 20
923.139800
 30
0.0
 10
228.561580
 20
919.350700
 30
0.0
 10
227.929500
 20
914.386800
 30
0.0
 10
227.829800
 20
908.539500
 30
0.0
 10
227.769200
 20
902.099800
 30
0.0
 10
227.856100
 20
883.752200
 30
0.0
 10
227.695680
 20
865.381900
 30
0.0
 10
227.781480
 20
847.027300
 30
0.0
 10
228.607000
 20
828.726500
 30
0.0
 10
232.638170
 20
824.726100
 30
0.0
 10
237.390310
 20
821.421300
 30
0.0
 10
242.537710
 20
818.651700
 30
0.0
 10
247.754630
 20
816.256900
 30
0.0
 10
253.613850
 20
817.321300
 30
0.0
 10
258.994280
 20
820.216700
 30
0.0
 10
264.187430
 20
823.715900
 30
0.0
 10
269.484850
 20
826.591700
 30
0.0
 10
283.965320
 20
835.272800
 30
0.0
 10
298.565470
 20
843.792700
 30
0.0
 10
313.033680
 20
852.505900
 30
0.0
 10
327.118380
 20
861.766800
 30
0.0
 10
328.526130
 20
867.277200
 30
0.0
 10
328.638200
 20
873.336500
 30
0.0
 10
328.329700
 20
879.574000
 30
0.0
 10
328.264000
 20
884.490100
 30
0.0
 10
327.756790
 20
886.334500
 30
0.0
 10
327.199980
 20
887.786200
 30
0.0
  0
LWPOLYLINE
  5
167
100
AcDbEntity
  8
Shallow_5mm
 62
3
100
AcDbPolyline
 90
33
 70
1
 10
244.653070
 20
858.917200
 30
0.0
 10
245.958170
 20
854.601300
 30
0.0
 10
247.476250
 20
851.295600
 30
0.0
 10
249.338650
 20
848.773700
 30
0.0
 10
251.676680
 20
846.809100
 30
0.0
 10
255.219390
 20
844.880400
 30
0.0
 10
258.769670
 20
844.103500
 30
0.0
 10
262.937760
 20
844.444100
 30
0.0
 10
268.333930
 20
845.867500
 30
0.0
 10
274.903970
 20
848.372300
 30
0.0
 10
281.323210
 20
851.671200
 30
0.0
 10
287.383160
 20
855.642700
 30
0.0
 10
292.875300
 20
860.165300
 30
0.0
 10
295.908480
 20
863.173500
 30
0.0
 10
298.102010
 20
865.864700
 30
0.0
 10
299.636420
 20
868.496700
 30
0.0
 10
300.692220
 20
871.327100
 30
0.0
 10
301.309530
 20
875.574500
 30
0.0
 10
300.506250
 20
879.627800
 30
0.0
 10
298.172230
 20
883.775100
 30
0.0
 10
294.197280
 20
888.304300
 30
0.0
 10
288.645630
 20
893.239300
 30
0.0
 10
282.606580
 20
897.451600
 30
0.0
 10
276.033010
 20
900.969900
 30
0.0
 10
268.877800
 20
903.823300
 30
0.0
 10
258.852780
 20
905.547500
 30
0.0
 10
251.362700
 20
902.936500
 30
0.0
 10
246.239120
 20
895.861000
 30
0.0
 10
243.313630
 20
884.191700
 30
0.0
 10
242.937300
 20
878.351600
 30
0.0
 10
243.077500
 20
871.392100
 30
0.0
 10
243.670630
 20
864.513800
 30
0.0
 10
244.653070
 20
858.917200
 30
0.0
  0
LWPOLYLINE
  5
168
100
AcDbEntity
  8
Shallow_5mm
 62
3
100
AcDbPolyline
 90
73
 70
1
 10
488.871310
 20
378.323280
 30
0.0
 10
485.796170
 20
377.858830
 30
0.0
 10
483.118350
 20
376.645350
 30
0.0
 10
480.868140
 20
374.812450
 30
0.0
 10
479.075800
 20
372.489670
 30
0.0
 10
477.893180
 20
370.148520
 30
0.0
 10
477.310040
 20
367.804600
 30
0.0
 10
477.113480
 20
364.903610
 30
0.0
 10
477.090580
 20
360.891270
 30
0.0
 10
477.124080
 20
333.981280
 30
0.0
 10
477.117080
 20
307.068720
 30
0.0
 10
477.089380
 20
280.154830
 30
0.0
 10
477.060580
 20
253.240870
 30
0.0
 10
477.050380
 20
226.328100
 30
0.0
 10
477.078480
 20
199.417800
 30
0.0
 10
477.164680
 20
172.511100
 30
0.0
 10
477.328560
 20
145.609500
 30
0.0
 10
478.231030
 20
142.782100
 30
0.0
 10
479.789110
 20
140.474500
 30
0.0
 10
481.831640
 20
138.578500
 30
0.0
 10
484.187560
 20
136.986200
 30
0.0
 10
486.086760
 20
136.299200
 30
0.0
 10
488.750460
 20
135.916300
 30
0.0
 10
491.973830
 20
135.741700
 30
0.0
 10
495.552030
 20
135.679700
 30
0.0
 10
522.335790
 20
135.713700
 30
0.0
 10
549.122240
 20
135.703700
 30
0.0
 10
575.910050
 20
135.675700
 30
0.0
 10
602.697950
 20
135.646700
 30
0.0
 10
629.484610
 20
135.636700
 30
0.0
 10
656.268730
 20
135.664700
 30
0.0
 10
683.049000
 20
135.751700
 30
0.0
 10
709.824120
 20
135.918200
 30
0.0
 10
712.699570
 20
136.794200
 30
0.0
 10
715.087810
 20
138.308500
 30
0.0
 10
716.998860
 20
140.342200
 30
0.0
 10
718.442780
 20
142.776300
 30
0.0
 10
719.343660
 20
145.266200
 30
0.0
 10
719.740190
 20
147.768200
 30
0.0
 10
719.814290
 20
150.614500
 30
0.0
 10
719.748290
 20
154.137700
 30
0.0
 10
719.714290
 20
180.921700
 30
0.0
 10
719.721290
 20
207.708400
 30
0.0
 10
719.749390
 20
234.496470
 30
0.0
 10
719.778790
 20
261.284600
 30
0.0
 10
719.789190
 20
288.071500
 30
0.0
 10
719.760590
 20
314.855870
 30
0.0
 10
719.672890
 20
341.636390
 30
0.0
 10
719.506250
 20
368.411780
 30
0.0
 10
718.920590
 20
371.405960
 30
0.0
 10
717.525140
 20
373.794600
 30
0.0
 10
715.510330
 20
375.655830
 30
0.0
 10
713.066660
 20
377.067790
 30
0.0
 10
710.548790
 20
377.935490
 30
0.0
 10
707.965110
 20
378.273790
 30
0.0
 10
704.986740
 20
378.325590
 30
0.0
 10
701.284760
 20
378.333590
 30
0.0
 10
674.733080
 20
378.331590
 30
0.0
 10
648.181380
 20
378.331330
 30
0.0
 10
621.629650
 20
378.333330
 30
0.0
 10
595.077920
 20
378.335330
 30
0.0
 10
568.526210
 20
378.335970
 30
0.0
 10
541.974520
 20
378.333970
 30
0.0
 10
515.422890
 20
378.328970
 30
0.0
 10
488.871310
 20
378.318770
 30
0.0
 10
488.871310
 20
378.318780
 30
0.0
 10
488.871310
 20
378.318780
 30
0.0
 10
488.871310
 20
378.318790
 30
0.0
 10
488.871310
 20
378.318790
 30
0.0
 10
488.871280
 20
378.318720
 30
0.0
 10
488.871260
 20
378.318640
 30
0.0
 10
488.871180
 20
378.318630
 30
0.0
 10
488.871310
 20
378.323280
 30
0.0
  0
LWPOLYLINE
  5
169
100
AcDbEntity
  8
Shallow_5mm
 62
3
100
AcDbPolyline
 90
57
 70
0
 10
609.599680
 20
299.037010
 30
0.0
 10
609.561480
 20
302.711530
 30
0.0
 10
609.523280
 20
306.386050
 30
0.0
 10
609.485080
 20
310.060570
 30
0.0
 10
609.446880
 20
313.735090
 30
0.0
 10
609.408680
 20
317.409610
 30
0.0
 10
609.370480
 20
321.084140
 30
0.0
 10
609.332280
 20
324.758660
 30
0.0
 10
609.294080
 20
328.433180
 30
0.0
 10
609.618620
 20
331.910160
 30
0.0
 10
610.620500
 20
334.919750
 30
0.0
 10
612.226870
 20
337.414190
 30
0.0
 10
614.364890
 20
339.345740
 30
0.0
 10
616.961720
 20
340.666610
 30
0.0
 10
619.944500
 20
341.329050
 30
0.0
 10
623.240380
 20
341.285250
 30
0.0
 10
626.776510
 20
340.487510
 30
0.0
 10
631.154660
 20
339.052250
 30
0.0
 10
635.532810
 20
337.617000
 30
0.0
 10
639.910960
 20
336.181740
 30
0.0
 10
644.289120
 20
334.746490
 30
0.0
 10
648.667270
 20
333.311230
 30
0.0
 10
653.045420
 20
331.875970
 30
0.0
 10
657.423570
 20
330.440720
 30
0.0
 10
661.801720
 20
329.005460
 30
0.0
 10
665.333640
 20
327.487530
 30
0.0
 10
668.619320
 20
325.377120
 30
0.0
 10
671.589480
 20
322.767370
 30
0.0
 10
674.174900
 20
319.751460
 30
0.0
 10
676.306320
 20
316.422490
 30
0.0
 10
677.914490
 20
312.873640
 30
0.0
 10
678.930190
 20
309.198040
 30
0.0
 10
679.284140
 20
305.488860
 30
0.0
 10
679.284140
 20
300.648990
 30
0.0
 10
679.284140
 20
295.809130
 30
0.0
 10
679.284140
 20
290.969270
 30
0.0
 10
679.284140
 20
286.129400
 30
0.0
 10
679.284140
 20
281.289540
 30
0.0
 10
679.284140
 20
276.449680
 30
0.0
 10
679.284140
 20
271.609810
 30
0.0
 10
679.284140
 20
266.769950
 30
0.0
 10
678.934130
 20
263.305550
 30
0.0
 10
677.928020
 20
260.326750
 30
0.0
 10
676.331680
 20
257.870430
 30
0.0
 10
674.210970
 20
255.973430
 30
0.0
 10
671.631740
 20
254.672600
 30
0.0
 10
668.659890
 20
254.004770
 30
0.0
 10
665.361260
 20
254.006770
 30
0.0
 10
661.801720
 20
254.715390
 30
0.0
 10
660.344560
 20
255.142210
 30
0.0
 10
658.887390
 20
255.569030
 30
0.0
 10
657.430220
 20
255.995850
 30
0.0
 10
655.973050
 20
256.422670
 30
0.0
 10
654.515880
 20
256.849490
 30
0.0
 10
653.058710
 20
257.276300
 30
0.0
 10
651.601550
 20
257.703120
 30
0.0
 10
650.144380
 20
258.129940
 30
0.0
  0
LWPOLYLINE
  5
16a
100
AcDbEntity
  8
Shallow_5mm
 62
3
100
AcDbPolyline
 90
41
 70
0
 10
638.219280
 20
359.873580
 30
0.0
 10
638.586360
 20
360.235790
 30
0.0
 10
639.636670
 20
361.163650
 30
0.0
 10
641.293800
 20
362.419000
 30
0.0
 10
643.481350
 20
363.763680
 30
0.0
 10
646.122880
 20
364.959530
 30
0.0
 10
649.142000
 20
365.768390
 30
0.0
 10
652.462300
 20
365.952100
 30
0.0
 10
656.007360
 20
365.272500
 30
0.0
 10
660.385510
 20
363.837240
 30
0.0
 10
664.763670
 20
362.401990
 30
0.0
 10
669.141820
 20
360.966730
 30
0.0
 10
673.519970
 20
359.531480
 30
0.0
 10
677.898130
 20
358.096210
 30
0.0
 10
682.276290
 20
356.660960
 30
0.0
 10
686.654430
 20
355.225700
 30
0.0
 10
691.032590
 20
353.790450
 30
0.0
 10
694.564510
 20
352.272520
 30
0.0
 10
697.850180
 20
350.162110
 30
0.0
 10
700.820350
 20
347.552360
 30
0.0
 10
703.405770
 20
344.536440
 30
0.0
 10
705.537190
 20
341.207470
 30
0.0
 10
707.145360
 20
337.658610
 30
0.0
 10
708.161050
 20
333.983020
 30
0.0
 10
708.515000
 20
330.273830
 30
0.0
 10
708.515000
 20
325.433960
 30
0.0
 10
708.515000
 20
320.594100
 30
0.0
 10
708.515000
 20
315.754250
 30
0.0
 10
708.515000
 20
310.914380
 30
0.0
 10
708.515000
 20
306.074520
 30
0.0
 10
708.515000
 20
301.234660
 30
0.0
 10
708.515000
 20
296.394800
 30
0.0
 10
708.515000
 20
291.554940
 30
0.0
 10
708.098140
 20
288.059450
 30
0.0
 10
706.999140
 20
284.974300
 30
0.0
 10
705.445390
 20
282.316660
 30
0.0
 10
703.664250
 20
280.103720
 30
0.0
 10
701.883110
 20
278.352650
 30
0.0
 10
700.329360
 20
277.080620
 30
0.0
 10
699.230360
 20
276.304810
 30
0.0
 10
698.813500
 20
276.042380
 30
0.0
  0
LWPOLYLINE
  5
16b
100
AcDbEntity
  8
Shallow_5mm
 62
3
100
AcDbPolyline
 90
3
 70
1
 10
613.544730
 20
338.877530
 30
0.0
 10
637.146590
 20
358.931360
 30
0.0
 10
613.544730
 20
338.877530
 30
0.0
  0
LWPOLYLINE
  5
16c
100
AcDbEntity
  8
Shallow_5mm
 62
3
100
AcDbPolyline
 90
3
 70
1
 10
700.518750
 20
277.389620
 30
0.0
 10
676.264760
 20
257.914200
 30
0.0
 10
700.518750
 20
277.389620
 30
0.0
  0
LWPOLYLINE
  5
16d
100
AcDbEntity
  8
Shallow_5mm
 62
3
100
AcDbPolyline
 90
33
 70
0
 10
477.147420
 20
255.712890
 30
0.0
 10
478.802200
 20
256.379340
 30
0.0
 10
483.500440
 20
258.244520
 30
0.0
 10
490.843080
 20
261.107170
 30
0.0
 10
500.431000
 20
264.766020
 30
0.0
 10
511.865120
 20
269.019800
 30
0.0
 10
524.746330
 20
273.667270
 30
0.0
 10
538.675540
 20
278.507140
 30
0.0
 10
553.253660
 20
283.338170
 30
0.0
 10
568.081590
 20
287.959090
 30
0.0
 10
582.760230
 20
292.168620
 30
0.0
 10
596.890490
 20
295.765520
 30
0.0
 10
610.073280
 20
298.548520
 30
0.0
 10
621.909490
 20
300.316350
 30
0.0
 10
632.000030
 20
300.867760
 30
0.0
 10
639.945810
 20
300.001470
 30
0.0
 10
645.347730
 20
297.516230
 30
0.0
 10
647.202880
 20
294.840060
 30
0.0
 10
648.478410
 20
290.535020
 30
0.0
 10
649.215400
 20
284.739380
 30
0.0
 10
649.454960
 20
277.591380
 30
0.0
 10
649.238210
 20
269.229320
 30
0.0
 10
648.606240
 20
259.791440
 30
0.0
 10
647.600160
 20
249.416000
 30
0.0
 10
646.261080
 20
238.241280
 30
0.0
 10
644.630110
 20
226.405540
 30
0.0
 10
642.748330
 20
214.047000
 30
0.0
 10
640.656880
 20
201.304100
 30
0.0
 10
638.396860
 20
188.314800
 30
0.0
 10
636.009350
 20
175.217600
 30
0.0
 10
633.535470
 20
162.150700
 30
0.0
 10
631.016340
 20
149.252400
 30
0.0
 10
628.493040
 20
136.660800
 30
0.0
  0
LWPOLYLINE
  5
16e
100
AcDbEntity
  8
Shallow_5mm
 62
3
100
AcDbPolyline
 90
3
 70
1
 10
514.370006
 20
200.465246
 30
0.0
 10
555.631172
 20
200.465246
 30
0.0
 10
514.370006
 20
200.465246
 30
0.0
  0
LWPOLYLINE
  5
16f
100
AcDbEntity
  8
Shallow_5mm
 62
3
100
AcDbPolyline
 90
3
 70
1
 10
535.000589
 20
221.517934
 30
0.0
 10
535.000589
 20
180.605987
 30
0.0
 10
535.000589
 20
221.517934
 30
0.0
  0
LWPOLYLINE
  5
170
100
AcDbEntity
  8
Shallow_5mm
 62
3
100
AcDbPolyline
 90
3
 70
1
 10
550.652250
 20
250.857000
 30
0.0
 10
591.913420
 20
250.857000
 30
0.0
 10
550.652250
 20
250.857000
 30
0.0
  0
LWPOLYLINE
  5
171
100
AcDbEntity
  8
Shallow_5mm
 62
3
100
AcDbPolyline
 90
3
 70
1
 10
571.282840
 20
271.909690
 30
0.0
 10
571.282840
 20
230.997740
 30
0.0
 10
571.282840
 20
271.909690
 30
0.0
  0
LWPOLYLINE
  5
172
100
AcDbEntity
  8
Shallow_5mm
 62
3
100
AcDbPolyline
 90
3
 70
1
 10
579.892236
 20
196.316946
 30
0.0
 10
621.153402
 20
196.316946
 30
0.0
 10
579.892236
 20
196.316946
 30
0.0
  0
LWPOLYLINE
  5
173
100
AcDbEntity
  8
Shallow_5mm
 62
3
100
AcDbPolyline
 90
3
 70
1
 10
600.522819
 20
217.369634
 30
0.0
 10
600.522819
 20
176.457687
 30
0.0
 10
600.522819
 20
217.369634
 30
0.0
  0
LWPOLYLINE
  5
174
100
AcDbEntity
  8
Shallow_5mm
 62
3
100
AcDbPolyline
 90
2
 70
0
 10
513.243070
 20
898.357620
 30
0.0
 10
949.379490
 20
898.357620
 30
0.0
  0
LWPOLYLINE
  5
175
100
AcDbEntity
  8
Shallow_5mm
 62
3
100
AcDbPolyline
 90
2
 70
0
 10
949.379490
 20
817.045380
 30
0.0
 10
513.243070
 20
817.045380
 30
0.0
  0
LWPOLYLINE
  5
176
100
AcDbEntity
  8
Shallow_5mm
 62
3
100
AcDbPolyline
 90
3
 70
0
 10
513.243070
 20
902.308790
 30
0.0
 10
949.379490
 20
902.308790
 30
0.0
 10
513.243070
 20
902.308790
 30
0.0
  0
LWPOLYLINE
  5
177
100
AcDbEntity
  8
Shallow_5mm
 62
3
100
AcDbPolyline
 90
2
 70
0
 10
949.379490
 20
820.996550
 30
0.0
 10
513.243070
 20
820.996550
 30
0.0
  0
LWPOLYLINE
  5
178
100
AcDbEntity
  8
Shallow_5mm
 62
3
100
AcDbPolyline
 90
2
 70
0
 10
1661.435200
 20
898.357630
 30
0.0
 10
2097.053600
 20
898.357630
 30
0.0
  0
LWPOLYLINE
  5
179
100
AcDbEntity
  8
Shallow_5mm
 62
3
100
AcDbPolyline
 90
2
 70
0
 10
2097.053600
 20
817.045390
 30
0.0
 10
1661.435200
 20
817.045390
 30
0.0
  0
LWPOLYLINE
  5
17a
100
AcDbEntity
  8
Shallow_5mm
 62
3
100
AcDbPolyline
 90
3
 70
0
 10
1661.435200
 20
902.308800
 30
0.0
 10
2097.053600
 20
902.308800
 30
0.0
 10
1661.435200
 20
902.308800
 30
0.0
  0
LWPOLYLINE
  5
17b
100
AcDbEntity
  8
Shallow_5mm
 62
3
100
AcDbPolyline
 90
2
 70
0
 10
2097.053600
 20
820.996560
 30
0.0
 10
1661.435200
 20
820.996560
 30
0.0
  0
ENDSEC
  0
SECTION
  2
OBJECTS
  0
DICTIONARY
  5
C
330
0
100
AcDbDictionary
  3
ACAD_GROUP
350
D
  3
ACAD_MLINESTYLE
350
17
  0
DICTIONARY
  5
D
330
C
100
AcDbDictionary
  0
DICTIONARY
  5
1A
330
C
100
AcDbDictionary
  0
DICTIONARY
  5
17
330
C
100
AcDbDictionary
  3
STANDARD
350
18
  0
DICTIONARY
  5
19
330
C
100
AcDbDictionary
  0
ENDSEC
  0
EOF
