  0
SECTION
  2
HEADER
  9
$ACADVER
  1
AC1012
  9
$DWGCODEPAGE
  3
ansi_1252
  9
$INSBASE
 10
0.0
 20
0.0
 30
0.0
  9
$EXTMIN
 10
0.0
 20
0.0
 30
0.0
  9
$EXTMAX
 10
1000.0
 20
1000.0
 30
0.0
  9
$LIMMIN
 10
0.0
 20
0.0
  9
$LIMMAX
 10
12.0
 20
9.0
  9
$ORTHOMODE
 70
     0
  9
$REGENMODE
 70
     1
  9
$FILLMODE
 70
     0
  9
$QTEXTMODE
 70
     0
  9
$MIRRTEXT
 70
     1
  9
$DRAGMODE
 70
     2
  9
$LTSCALE
 40
1.0
  9
$OSMODE
 70
 16895
  9
$ATTMODE
 70
     1
  9
$TEXTSIZE
 40
0.2
  9
$TRACEWID
 40
0.05
  9
$TEXTSTYLE
  7
STANDARD
  9
$CLAYER
  8
0
  9
$CELTYPE
  6
BYBLOCK
  9
$CECOLOR
 62
   256
  9
$CELTSCALE
 40
1.0
  9
$DELOBJ
 70
     1
  9
$DISPSILH
 70
     0
  9
$DIMSCALE
 40
1.0
  9
$DIMASZ
 40
0.18
  9
$DIMEXO
 40
0.0625
  9
$DIMDLI
 40
0.38
  9
$DIMRND
 40
0.0
  9
$DIMDLE
 40
0.0
  9
$DIMEXE
 40
0.18
  9
$DIMTP
 40
0.0
  9
$DIMTM
 40
0.0
  9
$DIMTXT
 40
0.18
  9
$DIMCEN
 40
0.09
  9
$DIMTSZ
 40
0.0
  9
$DIMTOL
 70
     0
  9
$DIMLIM
 70
     0
  9
$DIMTIH
 70
     1
  9
$DIMTOH
 70
     1
  9
$DIMSE1
 70
     0
  9
$DIMSE2
 70
     0
  9
$DIMTAD
 70
     0
  9
$DIMZIN
 70
     0
  9
$DIMBLK
  1

  9
$DIMASO
 70
     1
  9
$DIMSHO
 70
     1
  9
$DIMPOST
  1

  9
$DIMAPOST
  1

  9
$DIMALT
 70
     0
  9
$DIMALTD
 70
     2
  9
$DIMALTF
 40
25.4
  9
$DIMLFAC
 40
1.0
  9
$DIMTOFL
 70
     0
  9
$DIMTVP
 40
0.0
  9
$DIMTIX
 70
     0
  9
$DIMSOXD
 70
     0
  9
$DIMSAH
 70
     0
  9
$DIMBLK1
  1

  9
$DIMBLK2
  1

  9
$DIMSTYLE
  2
STANDARD
  9
$DIMCLRD
 70
     0
  9
$DIMCLRE
 70
     0
  9
$DIMCLRT
 70
     0
  9
$DIMTFAC
 40
1.0
  9
$DIMGAP
 40
0.09
  9
$DIMJUST
 70
     0
  9
$DIMSD1
 70
     0
  9
$DIMSD2
 70
     0
  9
$DIMTOLJ
 70
     1
  9
$DIMTZIN
 70
     0
  9
$DIMALTZ
 70
     0
  9
$DIMALTTZ
 70
     0
  9
$DIMFIT
 70
     5
  9
$DIMUPT
 70
     0
  9
$DIMUNIT
 70
     2
  9
$DIMDEC
 70
     4
  9
$DIMTDEC
 70
     4
  9
$DIMALTU
 70
     2
  9
$DIMALTTD
 70
     2
  9
$DIMTXSTY
  7
STANDARD
  9
$DIMAUNIT
 70
     0
  9
$LUNITS
 70
     2
  9
$LUPREC
 70
     4
  9
$SKETCHINC
 40
0.1
  9
$FILLETRAD
 40
0.5
  9
$AUNITS
 70
     0
  9
$AUPREC
 70
     0
  9
$MENU
  1
.
  9
$ELEVATION
 40
0.0
  9
$PELEVATION
 40
0.0
  9
$THICKNESS
 40
0.0
  9
$LIMCHECK
 70
     0
  9
$CHAMFERA
 40
0.0
  9
$CHAMFERB
 40
0.0
  9
$CHAMFERC
 40
0.0
  9
$CHAMFERD
 40
0.0
  9
$SKPOLY
 70
     0
  9
$TDCREATE
 40
2457013.837199063
  9
$TDUPDATE
 40
2457013.841828692
  9
$TDINDWG
 40
0.0000000116
  9
$TDUSRTIMER
 40
2457014.045532407
  9
$USRTIMER
 70
     1
  9
$ANGBASE
 50
0.0
  9
$ANGDIR
 70
     0
  9
$PDMODE
 70
     0
  9
$PDSIZE
 40
0.0
  9
$PLINEWID
 40
0.0
  9
$COORDS
 70
     1
  9
$SPLFRAME
 70
     1
  9
$SPLINETYPE
 70
     6
  9
$SPLINESEGS
 70
     8
  9
$ATTDIA
 70
     0
  9
$ATTREQ
 70
     1
  9
$HANDLING
 70
     1
  9
$HANDSEED
  5
1498
  9
$SURFTAB1
 70
     6
  9
$SURFTAB2
 70
     6
  9
$SURFTYPE
 70
     6
  9
$SURFU
 70
     6
  9
$SURFV
 70
     6
  9
$UCSNAME
  2

  9
$UCSORG
 10
0.0
 20
0.0
 30
0.0
  9
$UCSXDIR
 10
1.0
 20
0.0
 30
0.0
  9
$UCSYDIR
 10
0.0
 20
1.0
 30
0.0
  9
$PUCSNAME
  2

  9
$PUCSORG
 10
0.0
 20
0.0
 30
0.0
  9
$PUCSXDIR
 10
1.0
 20
0.0
 30
0.0
  9
$PUCSYDIR
 10
0.0
 20
1.0
 30
0.0
  9
$USERI1
 70
     0
  9
$USERI2
 70
     0
  9
$USERI3
 70
     0
  9
$USERI4
 70
     0
  9
$USERI5
 70
     0
  9
$USERR1
 40
0.0
  9
$USERR2
 40
0.0
  9
$USERR3
 40
0.0
  9
$USERR4
 40
0.0
  9
$USERR5
 40
0.0
  9
$WORLDVIEW
 70
     1
  9
$SHADEDGE
 70
     3
  9
$SHADEDIF
 70
    70
  9
$TILEMODE
 70
     1
  9
$MAXACTVP
 70
    64
  9
$PINSBASE
 10
0.0
 20
0.0
 30
0.0
  9
$PLIMCHECK
 70
     0
  9
$PEXTMIN
 10
1.000000000000000E+20
 20
1.000000000000000E+20
 30
1.000000000000000E+20
  9
$PEXTMAX
 10
-1.000000000000000E+20
 20
-1.000000000000000E+20
 30
-1.000000000000000E+20
  9
$PLIMMIN
 10
0.0
 20
0.0
  9
$PLIMMAX
 10
0.0
 20
0.0
  9
$UNITMODE
 70
     0
  9
$VISRETAIN
 70
     1
  9
$PLINEGEN
 70
     0
  9
$PSLTSCALE
 70
     1
  9
$TREEDEPTH
 70
  3020
  9
$PICKSTYLE
 70
     1
  9
$CMLSTYLE
  2
STANDARD
  9
$CMLJUST
 70
     0
  9
$CMLSCALE
 40
1.0
  9
$SAVEIMAGES
 70
     1
  0
ENDSEC
  0
SECTION
  2
CLASSES
  0
CLASS
  1
ACDBDICTIONARYWDFLT
  2
AcDbDictionaryWithDefault
  3
ObjectDBX Classes
 90
    32768
280
     0
281
     0
  0
CLASS
  1
MATERIAL
  2
AcDbMaterial
  3
ObjectDBX Classes
 90
     1153
280
     0
281
     0
  0
CLASS
  1
SCALE
  2
AcDbScale
  3
ObjectDBX Classes
 90
     1153
280
     0
281
     0
  0
CLASS
  1
VISUALSTYLE
  2
AcDbVisualStyle
  3
ObjectDBX Classes
 90
     4095
280
     0
281
     0
  0
CLASS
  1
TABLESTYLE
  2
AcDbTableStyle
  3
ObjectDBX Classes
 90
     4095
280
     0
281
     0
  0
CLASS
  1
SUN
  2
AcDbSun
  3
SCENEOE
 90
     1153
280
     0
281
     0
  0
CLASS
  1
RASTERVARIABLES
  2
AcDbRasterVariables
  3
ISM
 90
    32768
280
     0
281
     0
  0
CLASS
  1
XRECORD
  2
AcDbXrecord
  3
ObjectDBX Classes
 90
    32768
280
     0
281
     0
  0
ENDSEC
  0
SECTION
  2
TABLES
  0
TABLE
  2
VPORT
  5
8
330
0
100
AcDbSymbolTable
 70
     1
  0
VPORT
  5
6E8
330
8
100
AcDbSymbolTableRecord
100
AcDbViewportTableRecord
  2
*ACTIVE
 70
     0
 10
0.0
 20
0.0
 11
1.0
 21
1.0
 12
419.1035068577834
 22
150.6464135391419
 13
0.0
 23
0.0
 14
0.5
 24
0.5
 15
0.5
 25
0.5
 16
0.0
 26
0.0
 36
1.0
 17
0.0
 27
0.0
 37
0.0
 40
624.5004513516506
 41
2.155102040816327
 42
50.0
 43
0.0
 44
0.0
 50
0.0
 51
0.0
 71
    16
 72
   100
 73
     1
 74
     3
 75
     0
 76
     0
 77
     0
 78
     0
  0
ENDTAB
  0
TABLE
  2
LTYPE
  5
5
330
0
100
AcDbSymbolTable
 70
     1
  0
LTYPE
  5
14
330
5
100
AcDbSymbolTableRecord
100
AcDbLinetypeTableRecord
  2
BYBLOCK
 70
     0
  3

 72
    65
 73
     0
 40
0.0
  0
LTYPE
  5
15
330
5
100
AcDbSymbolTableRecord
100
AcDbLinetypeTableRecord
  2
BYLAYER
 70
     0
  3

 72
    65
 73
     0
 40
0.0
  0
LTYPE
  5
16
330
5
100
AcDbSymbolTableRecord
100
AcDbLinetypeTableRecord
  2
CONTINUOUS
 70
     0
  3
Solid line
 72
    65
 73
     0
 40
0.0
  0
ENDTAB
  0
TABLE
  2
LAYER
  5
2
102
{ACAD_XDICTIONARY
360
DF8
102
}
330
0
100
AcDbSymbolTable
 70
     4
  0
LAYER
  5
10
330
2
100
AcDbSymbolTableRecord
100
AcDbLayerTableRecord
  2
0
 70
     0
 62
     7
  6
CONTINUOUS
  0
LAYER
  5
DFB
330
2
100
AcDbSymbolTableRecord
100
AcDbLayerTableRecord
  2
4_5
 70
     0
 62
     7
  6
CONTINUOUS
1001
ACAECLAYERSTANDARD
1000

1000

  0
LAYER
  5
DFD
330
2
100
AcDbSymbolTableRecord
100
AcDbLayerTableRecord
  2
14_5
 70
     0
 62
     1
  6
CONTINUOUS
1001
ACAECLAYERSTANDARD
1000

1000

  0
LAYER
  5
DFE
330
2
100
AcDbSymbolTableRecord
100
AcDbLayerTableRecord
  2
18_5
 70
     0
 62
     5
  6
CONTINUOUS
1001
ACAECLAYERSTANDARD
1000

1000

  0
ENDTAB
  0
TABLE
  2
STYLE
  5
3
330
0
100
AcDbSymbolTable
 70
     1
  0
STYLE
  5
11
330
3
100
AcDbSymbolTableRecord
100
AcDbTextStyleTableRecord
  2
STANDARD
 70
     0
 40
0.0
 41
1.0
 50
0.0
 71
     0
 42
0.2
  3
txt
  4

  0
ENDTAB
  0
TABLE
  2
VIEW
  5
6
330
0
100
AcDbSymbolTable
 70
     0
  0
ENDTAB
  0
TABLE
  2
UCS
  5
7
330
0
100
AcDbSymbolTable
 70
     0
  0
ENDTAB
  0
TABLE
  2
APPID
  5
9
330
0
100
AcDbSymbolTable
 70
     2
  0
APPID
  5
12
330
9
100
AcDbSymbolTableRecord
100
AcDbRegAppTableRecord
  2
ACAD
 70
     0
  0
APPID
  5
DFC
330
9
100
AcDbSymbolTableRecord
100
AcDbRegAppTableRecord
  2
ACAECLAYERSTANDARD
 70
     0
  0
ENDTAB
  0
TABLE
  2
DIMSTYLE
  5
A
330
0
100
AcDbSymbolTable
 70
     1
  0
DIMSTYLE
105
25
330
A
100
AcDbSymbolTableRecord
100
AcDbDimStyleTableRecord
  2
STANDARD
 70
     0
  3

  4

  5

  6

  7

 40
1.0
 41
0.18
 42
0.0625
 43
0.38
 44
0.18
 45
0.0
 46
0.0
 47
0.0
 48
0.0
140
0.18
141
0.09
142
0.0
143
25.4
144
1.0
145
0.0
146
1.0
147
0.09
 71
     0
 72
     0
 73
     1
 74
     1
 75
     0
 76
     0
 77
     0
 78
     0
170
     0
171
     2
172
     0
173
     0
174
     0
175
     0
176
     0
177
     0
178
     0
270
     2
271
     4
272
     4
273
     2
274
     2
340
11
275
     0
280
     0
281
     0
282
     0
283
     1
284
     0
285
     0
286
     0
287
     3
288
     0
  0
ENDTAB
  0
TABLE
  2
BLOCK_RECORD
  5
1
330
0
100
AcDbSymbolTable
 70
     0
  0
BLOCK_RECORD
  5
1D
330
1
100
AcDbSymbolTableRecord
100
AcDbBlockTableRecord
  2
*MODEL_SPACE
  0
BLOCK_RECORD
  5
1B
330
1
100
AcDbSymbolTableRecord
100
AcDbBlockTableRecord
  2
*PAPER_SPACE
  0
ENDTAB
  0
ENDSEC
  0
SECTION
  2
BLOCKS
  0
BLOCK
  5
70B
330
1D
100
AcDbEntity
  8
0
100
AcDbBlockBegin
  2
*MODEL_SPACE
 70
     0
 10
0.0
 20
0.0
 30
0.0
  3
*MODEL_SPACE
  1

  0
ENDBLK
  5
70C
330
1D
100
AcDbEntity
  8
0
100
AcDbBlockEnd
  0
BLOCK
  5
70D
330
1B
100
AcDbEntity
 67
     1
  8
0
100
AcDbBlockBegin
  2
*PAPER_SPACE
 70
     0
 10
0.0
 20
0.0
 30
0.0
  3
*PAPER_SPACE
  1

  0
ENDBLK
  5
70E
330
1B
100
AcDbEntity
 67
     1
  8
0
100
AcDbBlockEnd
  0
ENDSEC
  0
SECTION
  2
ENTITIES
  0
POLYLINE
  5
26
330
1D
100
AcDbEntity
  8
4_5
 62
     0
100
AcDb2dPolyline
 66
     1
 10
0.0
 20
0.0
 30
0.0
 70
     1
 40
3.175
 41
3.175
  0
VERTEX
  5
E01
330
26
100
AcDbEntity
  8
4_5
 62
     0
100
AcDbVertex
100
AcDb2dVertex
 10
126.8342176
 20
230.5913244
 30
0.0
  0
VERTEX
  5
E02
330
26
100
AcDbEntity
  8
4_5
 62
     0
100
AcDbVertex
100
AcDb2dVertex
 10
126.8342176
 20
228.9733444
 30
0.0
  0
VERTEX
  5
E03
330
26
100
AcDbEntity
  8
4_5
 62
     0
100
AcDbVertex
100
AcDb2dVertex
 10
113.9579416
 20
228.9733444
 30
0.0
  0
VERTEX
  5
E04
330
26
100
AcDbEntity
  8
4_5
 62
     0
100
AcDbVertex
100
AcDb2dVertex
 10
113.9579416
 20
214.1913064
 30
0.0
  0
VERTEX
  5
E05
330
26
100
AcDbEntity
  8
4_5
 62
     0
100
AcDbVertex
100
AcDb2dVertex
 10
112.3399616
 20
214.1913064
 30
0.0
  0
VERTEX
  5
E06
330
26
100
AcDbEntity
  8
4_5
 62
     0
100
AcDbVertex
100
AcDb2dVertex
 10
112.3399616
 20
241.0396144
 30
0.0
  0
VERTEX
  5
E07
330
26
100
AcDbEntity
  8
4_5
 62
     0
100
AcDbVertex
100
AcDb2dVertex
 10
127.9490236
 20
241.0396144
 30
0.0
  0
VERTEX
  5
E08
330
26
100
AcDbEntity
  8
4_5
 62
     0
100
AcDbVertex
100
AcDb2dVertex
 10
127.9490236
 20
239.4216344
 30
0.0
  0
VERTEX
  5
E09
330
26
100
AcDbEntity
  8
4_5
 62
     0
100
AcDbVertex
100
AcDb2dVertex
 10
113.9579416
 20
239.4216344
 30
0.0
  0
VERTEX
  5
E0A
330
26
100
AcDbEntity
  8
4_5
 62
     0
100
AcDbVertex
100
AcDb2dVertex
 10
113.9579416
 20
230.5913244
 30
0.0
  0
VERTEX
  5
E0B
330
26
100
AcDbEntity
  8
4_5
 62
     0
100
AcDbVertex
100
AcDb2dVertex
 10
126.8342176
 20
230.5913244
 30
0.0
  0
SEQEND
  5
146D
330
26
100
AcDbEntity
  8
4_5
 62
     0
  0
POLYLINE
  5
33
330
1D
100
AcDbEntity
  8
4_5
 62
     0
100
AcDb2dPolyline
 66
     1
 10
0.0
 20
0.0
 30
0.0
 70
     1
 40
3.175
 41
3.175
  0
VERTEX
  5
E0C
330
33
100
AcDbEntity
  8
4_5
 62
     0
100
AcDbVertex
100
AcDb2dVertex
 10
138.8644196
 20
232.7134944
 30
0.0
  0
VERTEX
  5
E0D
330
33
100
AcDbEntity
  8
4_5
 62
     0
100
AcDbVertex
100
AcDb2dVertex
 10
140.7125236
 20
232.5301064
 30
0.0
  0
VERTEX
  5
E0E
330
33
100
AcDbEntity
  8
4_5
 62
     0
100
AcDbVertex
100
AcDb2dVertex
 10
142.4790936
 20
231.9763864
 30
0.0
  0
VERTEX
  5
E0F
330
33
100
AcDbEntity
  8
4_5
 62
     0
100
AcDbVertex
100
AcDb2dVertex
 10
144.0871676
 20
231.1094844
 30
0.0
  0
VERTEX
  5
E10
330
33
100
AcDbEntity
  8
4_5
 62
     0
100
AcDbVertex
100
AcDb2dVertex
 10
145.4635936
 20
229.9809624
 30
0.0
  0
VERTEX
  5
E11
330
33
100
AcDbEntity
  8
4_5
 62
     0
100
AcDbVertex
100
AcDb2dVertex
 10
146.5926236
 20
228.6014884
 30
0.0
  0
VERTEX
  5
E12
330
33
100
AcDbEntity
  8
4_5
 62
     0
100
AcDbVertex
100
AcDb2dVertex
 10
147.4607956
 20
226.9766504
 30
0.0
  0
VERTEX
  5
E13
330
33
100
AcDbEntity
  8
4_5
 62
     0
100
AcDbVertex
100
AcDb2dVertex
 10
148.0132456
 20
225.1923004
 30
0.0
  0
VERTEX
  5
E14
330
33
100
AcDbEntity
  8
4_5
 62
     0
100
AcDbVertex
100
AcDb2dVertex
 10
148.1976496
 20
223.3261624
 30
0.0
  0
VERTEX
  5
E15
330
33
100
AcDbEntity
  8
4_5
 62
     0
100
AcDbVertex
100
AcDb2dVertex
 10
148.0132456
 20
221.4480864
 30
0.0
  0
VERTEX
  5
E16
330
33
100
AcDbEntity
  8
4_5
 62
     0
100
AcDbVertex
100
AcDb2dVertex
 10
147.4607956
 20
219.6578944
 30
0.0
  0
VERTEX
  5
E17
330
33
100
AcDbEntity
  8
4_5
 62
     0
100
AcDbVertex
100
AcDb2dVertex
 10
146.5926236
 20
218.0358504
 30
0.0
  0
VERTEX
  5
E18
330
33
100
AcDbEntity
  8
4_5
 62
     0
100
AcDbVertex
100
AcDb2dVertex
 10
145.4635936
 20
216.6551064
 30
0.0
  0
VERTEX
  5
E19
330
33
100
AcDbEntity
  8
4_5
 62
     0
100
AcDbVertex
100
AcDb2dVertex
 10
144.0871676
 20
215.5362364
 30
0.0
  0
VERTEX
  5
E1A
330
33
100
AcDbEntity
  8
4_5
 62
     0
100
AcDbVertex
100
AcDb2dVertex
 10
142.4790936
 20
214.6584124
 30
0.0
  0
VERTEX
  5
E1B
330
33
100
AcDbEntity
  8
4_5
 62
     0
100
AcDbVertex
100
AcDb2dVertex
 10
140.7125236
 20
214.1059624
 30
0.0
  0
VERTEX
  5
E1C
330
33
100
AcDbEntity
  8
4_5
 62
     0
100
AcDbVertex
100
AcDb2dVertex
 10
138.8644196
 20
213.9210504
 30
0.0
  0
VERTEX
  5
E1D
330
33
100
AcDbEntity
  8
4_5
 62
     0
100
AcDbVertex
100
AcDb2dVertex
 10
135.2814956
 20
214.6101524
 30
0.0
  0
VERTEX
  5
E1E
330
33
100
AcDbEntity
  8
4_5
 62
     0
100
AcDbVertex
100
AcDb2dVertex
 10
132.2649916
 20
216.6731404
 30
0.0
  0
VERTEX
  5
E1F
330
33
100
AcDbEntity
  8
4_5
 62
     0
100
AcDbVertex
100
AcDb2dVertex
 10
130.2131796
 20
219.7130124
 30
0.0
  0
VERTEX
  5
E20
330
33
100
AcDbEntity
  8
4_5
 62
     0
100
AcDbVertex
100
AcDb2dVertex
 10
129.5309356
 20
223.3261624
 30
0.0
  0
VERTEX
  5
E21
330
33
100
AcDbEntity
  8
4_5
 62
     0
100
AcDbVertex
100
AcDb2dVertex
 10
129.8410696
 20
225.7818344
 30
0.0
  0
VERTEX
  5
E22
330
33
100
AcDbEntity
  8
4_5
 62
     0
100
AcDbVertex
100
AcDb2dVertex
 10
130.7727416
 20
228.0378624
 30
0.0
  0
VERTEX
  5
E23
330
33
100
AcDbEntity
  8
4_5
 62
     0
100
AcDbVertex
100
AcDb2dVertex
 10
132.2510216
 20
229.9809624
 30
0.0
  0
VERTEX
  5
E24
330
33
100
AcDbEntity
  8
4_5
 62
     0
100
AcDbVertex
100
AcDb2dVertex
 10
134.1710076
 20
231.4551784
 30
0.0
  0
VERTEX
  5
E25
330
33
100
AcDbEntity
  8
4_5
 62
     0
100
AcDbVertex
100
AcDb2dVertex
 10
136.4227176
 20
232.3992964
 30
0.0
  0
VERTEX
  5
E26
330
33
100
AcDbEntity
  8
4_5
 62
     0
100
AcDbVertex
100
AcDb2dVertex
 10
138.8644196
 20
232.7134944
 30
0.0
  0
SEQEND
  5
146E
330
33
100
AcDbEntity
  8
4_5
 62
     0
  0
POLYLINE
  5
50
330
1D
100
AcDbEntity
  8
4_5
 62
     0
100
AcDb2dPolyline
 66
     1
 10
0.0
 20
0.0
 30
0.0
 70
     1
 40
3.175
 41
3.175
  0
VERTEX
  5
E27
330
50
100
AcDbEntity
  8
4_5
 62
     0
100
AcDbVertex
100
AcDb2dVertex
 10
131.1321516
 20
223.3261624
 30
0.0
  0
VERTEX
  5
E28
330
50
100
AcDbEntity
  8
4_5
 62
     0
100
AcDbVertex
100
AcDb2dVertex
 10
131.2728676
 20
221.7747304
 30
0.0
  0
VERTEX
  5
E29
330
50
100
AcDbEntity
  8
4_5
 62
     0
100
AcDbVertex
100
AcDb2dVertex
 10
131.6985716
 20
220.3373444
 30
0.0
  0
VERTEX
  5
E2A
330
50
100
AcDbEntity
  8
4_5
 62
     0
100
AcDbVertex
100
AcDb2dVertex
 10
132.4057076
 20
219.0145124
 30
0.0
  0
VERTEX
  5
E2B
330
50
100
AcDbEntity
  8
4_5
 62
     0
100
AcDbVertex
100
AcDb2dVertex
 10
133.3975776
 20
217.8059804
 30
0.0
  0
VERTEX
  5
E2C
330
50
100
AcDbEntity
  8
4_5
 62
     0
100
AcDbVertex
100
AcDb2dVertex
 10
134.5982356
 20
216.8067444
 30
0.0
  0
VERTEX
  5
E2D
330
50
100
AcDbEntity
  8
4_5
 62
     0
100
AcDbVertex
100
AcDb2dVertex
 10
135.9154796
 20
216.0942744
 30
0.0
  0
VERTEX
  5
E2E
330
50
100
AcDbEntity
  8
4_5
 62
     0
100
AcDbVertex
100
AcDb2dVertex
 10
137.3488016
 20
215.6660304
 30
0.0
  0
VERTEX
  5
E2F
330
50
100
AcDbEntity
  8
4_5
 62
     0
100
AcDbVertex
100
AcDb2dVertex
 10
138.9002336
 20
215.5222664
 30
0.0
  0
VERTEX
  5
E30
330
50
100
AcDbEntity
  8
4_5
 62
     0
100
AcDbVertex
100
AcDb2dVertex
 10
140.4493796
 20
215.6660304
 30
0.0
  0
VERTEX
  5
E31
330
50
100
AcDbEntity
  8
4_5
 62
     0
100
AcDbVertex
100
AcDb2dVertex
 10
141.8793996
 20
216.0942744
 30
0.0
  0
VERTEX
  5
E32
330
50
100
AcDbEntity
  8
4_5
 62
     0
100
AcDbVertex
100
AcDb2dVertex
 10
143.1915636
 20
216.8067444
 30
0.0
  0
VERTEX
  5
E33
330
50
100
AcDbEntity
  8
4_5
 62
     0
100
AcDbVertex
100
AcDb2dVertex
 10
144.3848556
 20
217.8059804
 30
0.0
  0
VERTEX
  5
E34
330
50
100
AcDbEntity
  8
4_5
 62
     0
100
AcDbVertex
100
AcDb2dVertex
 10
145.3840916
 20
219.0145124
 30
0.0
  0
VERTEX
  5
E35
330
50
100
AcDbEntity
  8
4_5
 62
     0
100
AcDbVertex
100
AcDb2dVertex
 10
146.0975776
 20
220.3373444
 30
0.0
  0
VERTEX
  5
E36
330
50
100
AcDbEntity
  8
4_5
 62
     0
100
AcDbVertex
100
AcDb2dVertex
 10
146.5263296
 20
221.7747304
 30
0.0
  0
VERTEX
  5
E37
330
50
100
AcDbEntity
  8
4_5
 62
     0
100
AcDbVertex
100
AcDb2dVertex
 10
146.6695856
 20
223.3261624
 30
0.0
  0
VERTEX
  5
E38
330
50
100
AcDbEntity
  8
4_5
 62
     0
100
AcDbVertex
100
AcDb2dVertex
 10
146.5263296
 20
224.8694664
 30
0.0
  0
VERTEX
  5
E39
330
50
100
AcDbEntity
  8
4_5
 62
     0
100
AcDbVertex
100
AcDb2dVertex
 10
146.0975776
 20
226.2987244
 30
0.0
  0
VERTEX
  5
E3A
330
50
100
AcDbEntity
  8
4_5
 62
     0
100
AcDbVertex
100
AcDb2dVertex
 10
145.3840916
 20
227.6121584
 30
0.0
  0
VERTEX
  5
E3B
330
50
100
AcDbEntity
  8
4_5
 62
     0
100
AcDbVertex
100
AcDb2dVertex
 10
144.3848556
 20
228.8107844
 30
0.0
  0
VERTEX
  5
E3C
330
50
100
AcDbEntity
  8
4_5
 62
     0
100
AcDbVertex
100
AcDb2dVertex
 10
143.1915636
 20
229.8112904
 30
0.0
  0
VERTEX
  5
E3D
330
50
100
AcDbEntity
  8
4_5
 62
     0
100
AcDbVertex
100
AcDb2dVertex
 10
141.8793996
 20
230.5252844
 30
0.0
  0
VERTEX
  5
E3E
330
50
100
AcDbEntity
  8
4_5
 62
     0
100
AcDbVertex
100
AcDb2dVertex
 10
140.4493796
 20
230.9540364
 30
0.0
  0
VERTEX
  5
E3F
330
50
100
AcDbEntity
  8
4_5
 62
     0
100
AcDbVertex
100
AcDb2dVertex
 10
138.9002336
 20
231.0957684
 30
0.0
  0
VERTEX
  5
E40
330
50
100
AcDbEntity
  8
4_5
 62
     0
100
AcDbVertex
100
AcDb2dVertex
 10
137.3488016
 20
230.9540364
 30
0.0
  0
VERTEX
  5
E41
330
50
100
AcDbEntity
  8
4_5
 62
     0
100
AcDbVertex
100
AcDb2dVertex
 10
135.9154796
 20
230.5252844
 30
0.0
  0
VERTEX
  5
E42
330
50
100
AcDbEntity
  8
4_5
 62
     0
100
AcDbVertex
100
AcDb2dVertex
 10
134.5982356
 20
229.8112904
 30
0.0
  0
VERTEX
  5
E43
330
50
100
AcDbEntity
  8
4_5
 62
     0
100
AcDbVertex
100
AcDb2dVertex
 10
133.3975776
 20
228.8107844
 30
0.0
  0
VERTEX
  5
E44
330
50
100
AcDbEntity
  8
4_5
 62
     0
100
AcDbVertex
100
AcDb2dVertex
 10
132.4057076
 20
227.6121584
 30
0.0
  0
VERTEX
  5
E45
330
50
100
AcDbEntity
  8
4_5
 62
     0
100
AcDbVertex
100
AcDb2dVertex
 10
131.6985716
 20
226.2987244
 30
0.0
  0
VERTEX
  5
E46
330
50
100
AcDbEntity
  8
4_5
 62
     0
100
AcDbVertex
100
AcDb2dVertex
 10
131.2728676
 20
224.8694664
 30
0.0
  0
VERTEX
  5
E47
330
50
100
AcDbEntity
  8
4_5
 62
     0
100
AcDbVertex
100
AcDb2dVertex
 10
131.1321516
 20
223.3261624
 30
0.0
  0
SEQEND
  5
146F
330
50
100
AcDbEntity
  8
4_5
 62
     0
  0
POLYLINE
  5
73
330
1D
100
AcDbEntity
  8
4_5
 62
     0
100
AcDb2dPolyline
 66
     1
 10
0.0
 20
0.0
 30
0.0
 70
     1
 40
3.175
 41
3.175
  0
VERTEX
  5
E48
330
73
100
AcDbEntity
  8
4_5
 62
     0
100
AcDbVertex
100
AcDb2dVertex
 10
152.9629436
 20
232.4254584
 30
0.0
  0
VERTEX
  5
E49
330
73
100
AcDbEntity
  8
4_5
 62
     0
100
AcDbVertex
100
AcDb2dVertex
 10
154.6898896
 20
232.4254584
 30
0.0
  0
VERTEX
  5
E4A
330
73
100
AcDbEntity
  8
4_5
 62
     0
100
AcDbVertex
100
AcDb2dVertex
 10
155.0317736
 20
230.0165224
 30
0.0
  0
VERTEX
  5
E4B
330
73
100
AcDbEntity
  8
4_5
 62
     0
100
AcDbVertex
100
AcDb2dVertex
 10
155.0317736
 20
227.7500804
 30
0.0
  0
VERTEX
  5
E4C
330
73
100
AcDbEntity
  8
4_5
 62
     0
100
AcDbVertex
100
AcDb2dVertex
 10
155.7178276
 20
229.1620664
 30
0.0
  0
VERTEX
  5
E4D
330
73
100
AcDbEntity
  8
4_5
 62
     0
100
AcDbVertex
100
AcDb2dVertex
 10
156.9553156
 20
230.6271384
 30
0.0
  0
VERTEX
  5
E4E
330
73
100
AcDbEntity
  8
4_5
 62
     0
100
AcDbVertex
100
AcDb2dVertex
 10
158.4699176
 20
231.8961224
 30
0.0
  0
VERTEX
  5
E4F
330
73
100
AcDbEntity
  8
4_5
 62
     0
100
AcDbVertex
100
AcDb2dVertex
 10
159.9939176
 20
232.7134944
 30
0.0
  0
VERTEX
  5
E50
330
73
100
AcDbEntity
  8
4_5
 62
     0
100
AcDbVertex
100
AcDb2dVertex
 10
161.7924916
 20
231.4376524
 30
0.0
  0
VERTEX
  5
E51
330
73
100
AcDbEntity
  8
4_5
 62
     0
100
AcDbVertex
100
AcDb2dVertex
 10
160.2100716
 20
231.1592684
 30
0.0
  0
VERTEX
  5
E52
330
73
100
AcDbEntity
  8
4_5
 62
     0
100
AcDbVertex
100
AcDb2dVertex
 10
158.6284136
 20
230.3213224
 30
0.0
  0
VERTEX
  5
E53
330
73
100
AcDbEntity
  8
4_5
 62
     0
100
AcDbVertex
100
AcDb2dVertex
 10
157.1978856
 20
229.0231284
 30
0.0
  0
VERTEX
  5
E54
330
73
100
AcDbEntity
  8
4_5
 62
     0
100
AcDbVertex
100
AcDb2dVertex
 10
156.0376136
 20
227.3540944
 30
0.0
  0
VERTEX
  5
E55
330
73
100
AcDbEntity
  8
4_5
 62
     0
100
AcDbVertex
100
AcDb2dVertex
 10
155.2824716
 20
225.4897344
 30
0.0
  0
VERTEX
  5
E56
330
73
100
AcDbEntity
  8
4_5
 62
     0
100
AcDbVertex
100
AcDb2dVertex
 10
155.0317736
 20
223.5608584
 30
0.0
  0
VERTEX
  5
E57
330
73
100
AcDbEntity
  8
4_5
 62
     0
100
AcDbVertex
100
AcDb2dVertex
 10
155.0317736
 20
214.1913064
 30
0.0
  0
VERTEX
  5
E58
330
73
100
AcDbEntity
  8
4_5
 62
     0
100
AcDbVertex
100
AcDb2dVertex
 10
153.4125236
 20
214.1913064
 30
0.0
  0
VERTEX
  5
E59
330
73
100
AcDbEntity
  8
4_5
 62
     0
100
AcDbVertex
100
AcDb2dVertex
 10
153.4125236
 20
230.0165224
 30
0.0
  0
VERTEX
  5
E5A
330
73
100
AcDbEntity
  8
4_5
 62
     0
100
AcDbVertex
100
AcDb2dVertex
 10
153.2992396
 20
231.3934564
 30
0.0
  0
VERTEX
  5
E5B
330
73
100
AcDbEntity
  8
4_5
 62
     0
100
AcDbVertex
100
AcDb2dVertex
 10
152.9629436
 20
232.4254584
 30
0.0
  0
SEQEND
  5
1470
330
73
100
AcDbEntity
  8
4_5
 62
     0
  0
POLYLINE
  5
89
330
1D
100
AcDbEntity
  8
4_5
 62
     0
100
AcDb2dPolyline
 66
     1
 10
0.0
 20
0.0
 30
0.0
 70
     1
 40
3.175
 41
3.175
  0
VERTEX
  5
E5C
330
89
100
AcDbEntity
  8
4_5
 62
     0
100
AcDbVertex
100
AcDb2dVertex
 10
115.8830076
 20
178.0989224
 30
0.0
  0
VERTEX
  5
E5D
330
89
100
AcDbEntity
  8
4_5
 62
     0
100
AcDbVertex
100
AcDb2dVertex
 10
126.7087416
 20
178.0989224
 30
0.0
  0
VERTEX
  5
E5E
330
89
100
AcDbEntity
  8
4_5
 62
     0
100
AcDbVertex
100
AcDb2dVertex
 10
121.2779676
 20
191.1364884
 30
0.0
  0
VERTEX
  5
E5F
330
89
100
AcDbEntity
  8
4_5
 62
     0
100
AcDbVertex
100
AcDb2dVertex
 10
115.8830076
 20
178.0989224
 30
0.0
  0
SEQEND
  5
1471
330
89
100
AcDbEntity
  8
4_5
 62
     0
  0
POLYLINE
  5
8F
330
1D
100
AcDbEntity
  8
4_5
 62
     0
100
AcDb2dPolyline
 66
     1
 10
0.0
 20
0.0
 30
0.0
 70
     1
 40
3.175
 41
3.175
  0
VERTEX
  5
E60
330
8F
100
AcDbEntity
  8
4_5
 62
     0
100
AcDbVertex
100
AcDb2dVertex
 10
127.3549176
 20
176.4811964
 30
0.0
  0
VERTEX
  5
E61
330
8F
100
AcDbEntity
  8
4_5
 62
     0
100
AcDbVertex
100
AcDb2dVertex
 10
115.1100856
 20
176.4811964
 30
0.0
  0
VERTEX
  5
E62
330
8F
100
AcDbEntity
  8
4_5
 62
     0
100
AcDbVertex
100
AcDb2dVertex
 10
111.6922616
 20
168.1553304
 30
0.0
  0
VERTEX
  5
E63
330
8F
100
AcDbEntity
  8
4_5
 62
     0
100
AcDbVertex
100
AcDb2dVertex
 10
109.9655696
 20
168.1553304
 30
0.0
  0
VERTEX
  5
E64
330
8F
100
AcDbEntity
  8
4_5
 62
     0
100
AcDbVertex
100
AcDb2dVertex
 10
121.2228496
 20
195.3272344
 30
0.0
  0
VERTEX
  5
E65
330
8F
100
AcDbEntity
  8
4_5
 62
     0
100
AcDbVertex
100
AcDb2dVertex
 10
132.5172136
 20
168.1553304
 30
0.0
  0
VERTEX
  5
E66
330
8F
100
AcDbEntity
  8
4_5
 62
     0
100
AcDbVertex
100
AcDb2dVertex
 10
130.7905216
 20
168.1553304
 30
0.0
  0
VERTEX
  5
E67
330
8F
100
AcDbEntity
  8
4_5
 62
     0
100
AcDbVertex
100
AcDb2dVertex
 10
127.3549176
 20
176.4811964
 30
0.0
  0
SEQEND
  5
1472
330
8F
100
AcDbEntity
  8
4_5
 62
     0
  0
POLYLINE
  5
99
330
1D
100
AcDbEntity
  8
4_5
 62
     0
100
AcDb2dPolyline
 66
     1
 10
0.0
 20
0.0
 30
0.0
 70
     1
 40
3.175
 41
3.175
  0
VERTEX
  5
E68
330
99
100
AcDbEntity
  8
4_5
 62
     0
100
AcDbVertex
100
AcDb2dVertex
 10
135.6990716
 20
186.3892284
 30
0.0
  0
VERTEX
  5
E69
330
99
100
AcDbEntity
  8
4_5
 62
     0
100
AcDbVertex
100
AcDb2dVertex
 10
137.4257636
 20
186.3892284
 30
0.0
  0
VERTEX
  5
E6A
330
99
100
AcDbEntity
  8
4_5
 62
     0
100
AcDbVertex
100
AcDb2dVertex
 10
137.7673936
 20
183.9805464
 30
0.0
  0
VERTEX
  5
E6B
330
99
100
AcDbEntity
  8
4_5
 62
     0
100
AcDbVertex
100
AcDb2dVertex
 10
137.7673936
 20
181.2464904
 30
0.0
  0
VERTEX
  5
E6C
330
99
100
AcDbEntity
  8
4_5
 62
     0
100
AcDbVertex
100
AcDb2dVertex
 10
138.9456996
 20
183.3290364
 30
0.0
  0
VERTEX
  5
E6D
330
99
100
AcDbEntity
  8
4_5
 62
     0
100
AcDbVertex
100
AcDb2dVertex
 10
140.5014496
 20
185.0775724
 30
0.0
  0
VERTEX
  5
E6E
330
99
100
AcDbEntity
  8
4_5
 62
     0
100
AcDbVertex
100
AcDb2dVertex
 10
142.2365236
 20
186.2777224
 30
0.0
  0
VERTEX
  5
E6F
330
99
100
AcDbEntity
  8
4_5
 62
     0
100
AcDbVertex
100
AcDb2dVertex
 10
143.9177496
 20
186.6775184
 30
0.0
  0
VERTEX
  5
E70
330
99
100
AcDbEntity
  8
4_5
 62
     0
100
AcDbVertex
100
AcDb2dVertex
 10
145.6073576
 20
186.4209784
 30
0.0
  0
VERTEX
  5
E71
330
99
100
AcDbEntity
  8
4_5
 62
     0
100
AcDbVertex
100
AcDb2dVertex
 10
147.0114696
 20
185.6518664
 30
0.0
  0
VERTEX
  5
E72
330
99
100
AcDbEntity
  8
4_5
 62
     0
100
AcDbVertex
100
AcDb2dVertex
 10
148.1069716
 20
184.4834664
 30
0.0
  0
VERTEX
  5
E73
330
99
100
AcDbEntity
  8
4_5
 62
     0
100
AcDbVertex
100
AcDb2dVertex
 10
148.8453496
 20
183.0270304
 30
0.0
  0
VERTEX
  5
E74
330
99
100
AcDbEntity
  8
4_5
 62
     0
100
AcDbVertex
100
AcDb2dVertex
 10
149.2753716
 20
181.3237064
 30
0.0
  0
VERTEX
  5
E75
330
99
100
AcDbEntity
  8
4_5
 62
     0
100
AcDbVertex
100
AcDb2dVertex
 10
149.4201516
 20
179.4123564
 30
0.0
  0
VERTEX
  5
E76
330
99
100
AcDbEntity
  8
4_5
 62
     0
100
AcDbVertex
100
AcDb2dVertex
 10
149.4201516
 20
168.1553304
 30
0.0
  0
VERTEX
  5
E77
330
99
100
AcDbEntity
  8
4_5
 62
     0
100
AcDbVertex
100
AcDb2dVertex
 10
147.8382396
 20
168.1553304
 30
0.0
  0
VERTEX
  5
E78
330
99
100
AcDbEntity
  8
4_5
 62
     0
100
AcDbVertex
100
AcDb2dVertex
 10
147.8382396
 20
179.4123564
 30
0.0
  0
VERTEX
  5
E79
330
99
100
AcDbEntity
  8
4_5
 62
     0
100
AcDbVertex
100
AcDb2dVertex
 10
147.6396116
 20
181.3181184
 30
0.0
  0
VERTEX
  5
E7A
330
99
100
AcDbEntity
  8
4_5
 62
     0
100
AcDbVertex
100
AcDb2dVertex
 10
147.0472836
 20
183.1164384
 30
0.0
  0
VERTEX
  5
E7B
330
99
100
AcDbEntity
  8
4_5
 62
     0
100
AcDbVertex
100
AcDb2dVertex
 10
146.5291236
 20
183.9089184
 30
0.0
  0
VERTEX
  5
E7C
330
99
100
AcDbEntity
  8
4_5
 62
     0
100
AcDbVertex
100
AcDb2dVertex
 10
145.8054776
 20
184.5195344
 30
0.0
  0
VERTEX
  5
E7D
330
99
100
AcDbEntity
  8
4_5
 62
     0
100
AcDbVertex
100
AcDb2dVertex
 10
144.9197796
 20
184.9246644
 30
0.0
  0
VERTEX
  5
E7E
330
99
100
AcDbEntity
  8
4_5
 62
     0
100
AcDbVertex
100
AcDb2dVertex
 10
143.8819356
 20
185.0595384
 30
0.0
  0
VERTEX
  5
E7F
330
99
100
AcDbEntity
  8
4_5
 62
     0
100
AcDbVertex
100
AcDb2dVertex
 10
142.7988796
 20
184.8530364
 30
0.0
  0
VERTEX
  5
E80
330
99
100
AcDbEntity
  8
4_5
 62
     0
100
AcDbVertex
100
AcDb2dVertex
 10
141.6703576
 20
184.2312444
 30
0.0
  0
VERTEX
  5
E81
330
99
100
AcDbEntity
  8
4_5
 62
     0
100
AcDbVertex
100
AcDb2dVertex
 10
139.6911896
 20
182.2000064
 30
0.0
  0
VERTEX
  5
E82
330
99
100
AcDbEntity
  8
4_5
 62
     0
100
AcDbVertex
100
AcDb2dVertex
 10
138.3076516
 20
179.6645784
 30
0.0
  0
VERTEX
  5
E83
330
99
100
AcDbEntity
  8
4_5
 62
     0
100
AcDbVertex
100
AcDb2dVertex
 10
137.9025216
 20
178.3968644
 30
0.0
  0
VERTEX
  5
E84
330
99
100
AcDbEntity
  8
4_5
 62
     0
100
AcDbVertex
100
AcDb2dVertex
 10
137.7673936
 20
177.2901864
 30
0.0
  0
VERTEX
  5
E85
330
99
100
AcDbEntity
  8
4_5
 62
     0
100
AcDbVertex
100
AcDb2dVertex
 10
137.7673936
 20
168.1553304
 30
0.0
  0
VERTEX
  5
E86
330
99
100
AcDbEntity
  8
4_5
 62
     0
100
AcDbVertex
100
AcDb2dVertex
 10
136.1496676
 20
168.1553304
 30
0.0
  0
VERTEX
  5
E87
330
99
100
AcDbEntity
  8
4_5
 62
     0
100
AcDbVertex
100
AcDb2dVertex
 10
136.1496676
 20
183.9805464
 30
0.0
  0
VERTEX
  5
E88
330
99
100
AcDbEntity
  8
4_5
 62
     0
100
AcDbVertex
100
AcDb2dVertex
 10
136.0368916
 20
185.3574804
 30
0.0
  0
VERTEX
  5
E89
330
99
100
AcDbEntity
  8
4_5
 62
     0
100
AcDbVertex
100
AcDb2dVertex
 10
135.6990716
 20
186.3892284
 30
0.0
  0
SEQEND
  5
1473
330
99
100
AcDbEntity
  8
4_5
 62
     0
  0
POLYLINE
  5
BD
330
1D
100
AcDbEntity
  8
4_5
 62
     0
100
AcDb2dPolyline
 66
     1
 10
0.0
 20
0.0
 30
0.0
 70
     1
 40
3.175
 41
3.175
  0
VERTEX
  5
E8A
330
BD
100
AcDbEntity
  8
4_5
 62
     0
100
AcDbVertex
100
AcDb2dVertex
 10
154.9764016
 20
186.3892284
 30
0.0
  0
VERTEX
  5
E8B
330
BD
100
AcDbEntity
  8
4_5
 62
     0
100
AcDbVertex
100
AcDb2dVertex
 10
156.7030936
 20
186.3892284
 30
0.0
  0
VERTEX
  5
E8C
330
BD
100
AcDbEntity
  8
4_5
 62
     0
100
AcDbVertex
100
AcDb2dVertex
 10
157.0449776
 20
183.9805464
 30
0.0
  0
VERTEX
  5
E8D
330
BD
100
AcDbEntity
  8
4_5
 62
     0
100
AcDbVertex
100
AcDb2dVertex
 10
157.0449776
 20
181.2464904
 30
0.0
  0
VERTEX
  5
E8E
330
BD
100
AcDbEntity
  8
4_5
 62
     0
100
AcDbVertex
100
AcDb2dVertex
 10
158.2230296
 20
183.3290364
 30
0.0
  0
VERTEX
  5
E8F
330
BD
100
AcDbEntity
  8
4_5
 62
     0
100
AcDbVertex
100
AcDb2dVertex
 10
159.7790336
 20
185.0775724
 30
0.0
  0
VERTEX
  5
E90
330
BD
100
AcDbEntity
  8
4_5
 62
     0
100
AcDbVertex
100
AcDb2dVertex
 10
161.5141076
 20
186.2777224
 30
0.0
  0
VERTEX
  5
E91
330
BD
100
AcDbEntity
  8
4_5
 62
     0
100
AcDbVertex
100
AcDb2dVertex
 10
163.1950796
 20
186.6775184
 30
0.0
  0
VERTEX
  5
E92
330
BD
100
AcDbEntity
  8
4_5
 62
     0
100
AcDbVertex
100
AcDb2dVertex
 10
164.8859576
 20
186.4209784
 30
0.0
  0
VERTEX
  5
E93
330
BD
100
AcDbEntity
  8
4_5
 62
     0
100
AcDbVertex
100
AcDb2dVertex
 10
166.2887996
 20
185.6518664
 30
0.0
  0
VERTEX
  5
E94
330
BD
100
AcDbEntity
  8
4_5
 62
     0
100
AcDbVertex
100
AcDb2dVertex
 10
167.3843016
 20
184.4834664
 30
0.0
  0
VERTEX
  5
E95
330
BD
100
AcDbEntity
  8
4_5
 62
     0
100
AcDbVertex
100
AcDb2dVertex
 10
168.1229336
 20
183.0270304
 30
0.0
  0
VERTEX
  5
E96
330
BD
100
AcDbEntity
  8
4_5
 62
     0
100
AcDbVertex
100
AcDb2dVertex
 10
168.5529556
 20
181.3237064
 30
0.0
  0
VERTEX
  5
E97
330
BD
100
AcDbEntity
  8
4_5
 62
     0
100
AcDbVertex
100
AcDb2dVertex
 10
168.6977356
 20
179.4123564
 30
0.0
  0
VERTEX
  5
E98
330
BD
100
AcDbEntity
  8
4_5
 62
     0
100
AcDbVertex
100
AcDb2dVertex
 10
168.6977356
 20
168.1553304
 30
0.0
  0
VERTEX
  5
E99
330
BD
100
AcDbEntity
  8
4_5
 62
     0
100
AcDbVertex
100
AcDb2dVertex
 10
167.1155696
 20
168.1553304
 30
0.0
  0
VERTEX
  5
E9A
330
BD
100
AcDbEntity
  8
4_5
 62
     0
100
AcDbVertex
100
AcDb2dVertex
 10
167.1155696
 20
179.4123564
 30
0.0
  0
VERTEX
  5
E9B
330
BD
100
AcDbEntity
  8
4_5
 62
     0
100
AcDbVertex
100
AcDb2dVertex
 10
166.9171956
 20
181.3181184
 30
0.0
  0
VERTEX
  5
E9C
330
BD
100
AcDbEntity
  8
4_5
 62
     0
100
AcDbVertex
100
AcDb2dVertex
 10
166.3246136
 20
183.1164384
 30
0.0
  0
VERTEX
  5
E9D
330
BD
100
AcDbEntity
  8
4_5
 62
     0
100
AcDbVertex
100
AcDb2dVertex
 10
165.8067076
 20
183.9089184
 30
0.0
  0
VERTEX
  5
E9E
330
BD
100
AcDbEntity
  8
4_5
 62
     0
100
AcDbVertex
100
AcDb2dVertex
 10
165.0830616
 20
184.5195344
 30
0.0
  0
VERTEX
  5
E9F
330
BD
100
AcDbEntity
  8
4_5
 62
     0
100
AcDbVertex
100
AcDb2dVertex
 10
164.1968556
 20
184.9246644
 30
0.0
  0
VERTEX
  5
EA0
330
BD
100
AcDbEntity
  8
4_5
 62
     0
100
AcDbVertex
100
AcDb2dVertex
 10
163.1592656
 20
185.0595384
 30
0.0
  0
VERTEX
  5
EA1
330
BD
100
AcDbEntity
  8
4_5
 62
     0
100
AcDbVertex
100
AcDb2dVertex
 10
162.0759556
 20
184.8530364
 30
0.0
  0
VERTEX
  5
EA2
330
BD
100
AcDbEntity
  8
4_5
 62
     0
100
AcDbVertex
100
AcDb2dVertex
 10
160.9474336
 20
184.2312444
 30
0.0
  0
VERTEX
  5
EA3
330
BD
100
AcDbEntity
  8
4_5
 62
     0
100
AcDbVertex
100
AcDb2dVertex
 10
158.9687736
 20
182.2000064
 30
0.0
  0
VERTEX
  5
EA4
330
BD
100
AcDbEntity
  8
4_5
 62
     0
100
AcDbVertex
100
AcDb2dVertex
 10
157.5852356
 20
179.6645784
 30
0.0
  0
VERTEX
  5
EA5
330
BD
100
AcDbEntity
  8
4_5
 62
     0
100
AcDbVertex
100
AcDb2dVertex
 10
157.1798516
 20
178.3968644
 30
0.0
  0
VERTEX
  5
EA6
330
BD
100
AcDbEntity
  8
4_5
 62
     0
100
AcDbVertex
100
AcDb2dVertex
 10
157.0449776
 20
177.2901864
 30
0.0
  0
VERTEX
  5
EA7
330
BD
100
AcDbEntity
  8
4_5
 62
     0
100
AcDbVertex
100
AcDb2dVertex
 10
157.0449776
 20
168.1553304
 30
0.0
  0
VERTEX
  5
EA8
330
BD
100
AcDbEntity
  8
4_5
 62
     0
100
AcDbVertex
100
AcDb2dVertex
 10
155.4272516
 20
168.1553304
 30
0.0
  0
VERTEX
  5
EA9
330
BD
100
AcDbEntity
  8
4_5
 62
     0
100
AcDbVertex
100
AcDb2dVertex
 10
155.4272516
 20
183.9805464
 30
0.0
  0
VERTEX
  5
EAA
330
BD
100
AcDbEntity
  8
4_5
 62
     0
100
AcDbVertex
100
AcDb2dVertex
 10
155.3139676
 20
185.3574804
 30
0.0
  0
VERTEX
  5
EAB
330
BD
100
AcDbEntity
  8
4_5
 62
     0
100
AcDbVertex
100
AcDb2dVertex
 10
154.9764016
 20
186.3892284
 30
0.0
  0
SEQEND
  5
1474
330
BD
100
AcDbEntity
  8
4_5
 62
     0
  0
POLYLINE
  5
E1
330
1D
100
AcDbEntity
  8
4_5
 62
     0
100
AcDb2dPolyline
 66
     1
 10
0.0
 20
0.0
 30
0.0
 70
     1
 40
3.175
 41
3.175
  0
VERTEX
  5
EAC
330
E1
100
AcDbEntity
  8
4_5
 62
     0
100
AcDbVertex
100
AcDb2dVertex
 10
175.6758776
 20
178.8182504
 30
0.0
  0
VERTEX
  5
EAD
330
E1
100
AcDbEntity
  8
4_5
 62
     0
100
AcDbVertex
100
AcDb2dVertex
 10
188.9288356
 20
178.8182504
 30
0.0
  0
VERTEX
  5
EAE
330
E1
100
AcDbEntity
  8
4_5
 62
     0
100
AcDbVertex
100
AcDb2dVertex
 10
188.0825076
 20
181.2962744
 30
0.0
  0
VERTEX
  5
EAF
330
E1
100
AcDbEntity
  8
4_5
 62
     0
100
AcDbVertex
100
AcDb2dVertex
 10
186.5557136
 20
183.2972864
 30
0.0
  0
VERTEX
  5
EB0
330
E1
100
AcDbEntity
  8
4_5
 62
     0
100
AcDbVertex
100
AcDb2dVertex
 10
184.5491136
 20
184.6185944
 30
0.0
  0
VERTEX
  5
EB1
330
E1
100
AcDbEntity
  8
4_5
 62
     0
100
AcDbVertex
100
AcDb2dVertex
 10
182.2753056
 20
185.0595384
 30
0.0
  0
VERTEX
  5
EB2
330
E1
100
AcDbEntity
  8
4_5
 62
     0
100
AcDbVertex
100
AcDb2dVertex
 10
180.0139436
 20
184.6185944
 30
0.0
  0
VERTEX
  5
EB3
330
E1
100
AcDbEntity
  8
4_5
 62
     0
100
AcDbVertex
100
AcDb2dVertex
 10
178.0131856
 20
183.2972864
 30
0.0
  0
VERTEX
  5
EB4
330
E1
100
AcDbEntity
  8
4_5
 62
     0
100
AcDbVertex
100
AcDb2dVertex
 10
176.5013776
 20
181.2962744
 30
0.0
  0
VERTEX
  5
EB5
330
E1
100
AcDbEntity
  8
4_5
 62
     0
100
AcDbVertex
100
AcDb2dVertex
 10
175.6758776
 20
178.8182504
 30
0.0
  0
SEQEND
  5
1475
330
E1
100
AcDbEntity
  8
4_5
 62
     0
  0
POLYLINE
  5
ED
330
1D
100
AcDbEntity
  8
4_5
 62
     0
100
AcDb2dPolyline
 66
     1
 10
0.0
 20
0.0
 30
0.0
 70
     1
 40
3.175
 41
3.175
  0
VERTEX
  5
EB6
330
ED
100
AcDbEntity
  8
4_5
 62
     0
100
AcDbVertex
100
AcDb2dVertex
 10
190.6913416
 20
177.2901864
 30
0.0
  0
VERTEX
  5
EB7
330
ED
100
AcDbEntity
  8
4_5
 62
     0
100
AcDbVertex
100
AcDb2dVertex
 10
175.4236556
 20
177.2901864
 30
0.0
  0
VERTEX
  5
EB8
330
ED
100
AcDbEntity
  8
4_5
 62
     0
100
AcDbVertex
100
AcDb2dVertex
 10
175.5493856
 20
175.7428184
 30
0.0
  0
VERTEX
  5
EB9
330
ED
100
AcDbEntity
  8
4_5
 62
     0
100
AcDbVertex
100
AcDb2dVertex
 10
175.9268296
 20
174.3150844
 30
0.0
  0
VERTEX
  5
EBA
330
ED
100
AcDbEntity
  8
4_5
 62
     0
100
AcDbVertex
100
AcDb2dVertex
 10
176.5549716
 20
173.0087624
 30
0.0
  0
VERTEX
  5
EBB
330
ED
100
AcDbEntity
  8
4_5
 62
     0
100
AcDbVertex
100
AcDb2dVertex
 10
177.4371136
 20
171.8233444
 30
0.0
  0
VERTEX
  5
EBC
330
ED
100
AcDbEntity
  8
4_5
 62
     0
100
AcDbVertex
100
AcDb2dVertex
 10
178.4899436
 20
170.8408724
 30
0.0
  0
VERTEX
  5
EBD
330
ED
100
AcDbEntity
  8
4_5
 62
     0
100
AcDbVertex
100
AcDb2dVertex
 10
179.6364996
 20
170.1383084
 30
0.0
  0
VERTEX
  5
EBE
330
ED
100
AcDbEntity
  8
4_5
 62
     0
100
AcDbVertex
100
AcDb2dVertex
 10
180.8737336
 20
169.7166684
 30
0.0
  0
VERTEX
  5
EBF
330
ED
100
AcDbEntity
  8
4_5
 62
     0
100
AcDbVertex
100
AcDb2dVertex
 10
182.2036776
 20
169.5759524
 30
0.0
  0
VERTEX
  5
EC0
330
ED
100
AcDbEntity
  8
4_5
 62
     0
100
AcDbVertex
100
AcDb2dVertex
 10
184.0007276
 20
169.8200464
 30
0.0
  0
VERTEX
  5
EC1
330
ED
100
AcDbEntity
  8
4_5
 62
     0
100
AcDbVertex
100
AcDb2dVertex
 10
185.7632336
 20
170.5475024
 30
0.0
  0
VERTEX
  5
EC2
330
ED
100
AcDbEntity
  8
4_5
 62
     0
100
AcDbVertex
100
AcDb2dVertex
 10
187.3009496
 20
171.6844064
 30
0.0
  0
VERTEX
  5
EC3
330
ED
100
AcDbEntity
  8
4_5
 62
     0
100
AcDbVertex
100
AcDb2dVertex
 10
188.4256616
 20
173.1548124
 30
0.0
  0
VERTEX
  5
EC4
330
ED
100
AcDbEntity
  8
4_5
 62
     0
100
AcDbVertex
100
AcDb2dVertex
 10
189.8462836
 20
172.3458224
 30
0.0
  0
VERTEX
  5
EC5
330
ED
100
AcDbEntity
  8
4_5
 62
     0
100
AcDbVertex
100
AcDb2dVertex
 10
188.4878916
 20
170.5612184
 30
0.0
  0
VERTEX
  5
EC6
330
ED
100
AcDbEntity
  8
4_5
 62
     0
100
AcDbVertex
100
AcDb2dVertex
 10
186.6093076
 20
169.1268804
 30
0.0
  0
VERTEX
  5
EC7
330
ED
100
AcDbEntity
  8
4_5
 62
     0
100
AcDbVertex
100
AcDb2dVertex
 10
184.4376076
 20
168.1964784
 30
0.0
  0
VERTEX
  5
EC8
330
ED
100
AcDbEntity
  8
4_5
 62
     0
100
AcDbVertex
100
AcDb2dVertex
 10
182.2036776
 20
167.8850744
 30
0.0
  0
VERTEX
  5
EC9
330
ED
100
AcDbEntity
  8
4_5
 62
     0
100
AcDbVertex
100
AcDb2dVertex
 10
180.0083556
 20
168.2046064
 30
0.0
  0
VERTEX
  5
ECA
330
ED
100
AcDbEntity
  8
4_5
 62
     0
100
AcDbVertex
100
AcDb2dVertex
 10
177.9951516
 20
169.1624404
 30
0.0
  0
VERTEX
  5
ECB
330
ED
100
AcDbEntity
  8
4_5
 62
     0
100
AcDbVertex
100
AcDb2dVertex
 10
176.2905576
 20
170.6602784
 30
0.0
  0
VERTEX
  5
ECC
330
ED
100
AcDbEntity
  8
4_5
 62
     0
100
AcDbVertex
100
AcDb2dVertex
 10
174.9926176
 20
172.5967744
 30
0.0
  0
VERTEX
  5
ECD
330
ED
100
AcDbEntity
  8
4_5
 62
     0
100
AcDbVertex
100
AcDb2dVertex
 10
174.1823576
 20
174.8594064
 30
0.0
  0
VERTEX
  5
ECE
330
ED
100
AcDbEntity
  8
4_5
 62
     0
100
AcDbVertex
100
AcDb2dVertex
 10
173.9133716
 20
177.2901864
 30
0.0
  0
VERTEX
  5
ECF
330
ED
100
AcDbEntity
  8
4_5
 62
     0
100
AcDbVertex
100
AcDb2dVertex
 10
174.1861676
 20
179.7059804
 30
0.0
  0
VERTEX
  5
ED0
330
ED
100
AcDbEntity
  8
4_5
 62
     0
100
AcDbVertex
100
AcDb2dVertex
 10
175.0101436
 20
181.9477844
 30
0.0
  0
VERTEX
  5
ED1
330
ED
100
AcDbEntity
  8
4_5
 62
     0
100
AcDbVertex
100
AcDb2dVertex
 10
176.3263716
 20
183.8870744
 30
0.0
  0
VERTEX
  5
ED2
330
ED
100
AcDbEntity
  8
4_5
 62
     0
100
AcDbVertex
100
AcDb2dVertex
 10
178.0489996
 20
185.3833884
 30
0.0
  0
VERTEX
  5
ED3
330
ED
100
AcDbEntity
  8
4_5
 62
     0
100
AcDbVertex
100
AcDb2dVertex
 10
180.0761736
 20
186.3549384
 30
0.0
  0
VERTEX
  5
ED4
330
ED
100
AcDbEntity
  8
4_5
 62
     0
100
AcDbVertex
100
AcDb2dVertex
 10
182.2753056
 20
186.6775184
 30
0.0
  0
VERTEX
  5
ED5
330
ED
100
AcDbEntity
  8
4_5
 62
     0
100
AcDbVertex
100
AcDb2dVertex
 10
184.3563276
 20
186.3854184
 30
0.0
  0
VERTEX
  5
ED6
330
ED
100
AcDbEntity
  8
4_5
 62
     0
100
AcDbVertex
100
AcDb2dVertex
 10
186.2854576
 20
185.5086104
 30
0.0
  0
VERTEX
  5
ED7
330
ED
100
AcDbEntity
  8
4_5
 62
     0
100
AcDbVertex
100
AcDb2dVertex
 10
187.9748116
 20
184.1555524
 30
0.0
  0
VERTEX
  5
ED8
330
ED
100
AcDbEntity
  8
4_5
 62
     0
100
AcDbVertex
100
AcDb2dVertex
 10
189.3062796
 20
182.3973644
 30
0.0
  0
VERTEX
  5
ED9
330
ED
100
AcDbEntity
  8
4_5
 62
     0
100
AcDbVertex
100
AcDb2dVertex
 10
190.2183936
 20
180.3440284
 30
0.0
  0
VERTEX
  5
EDA
330
ED
100
AcDbEntity
  8
4_5
 62
     0
100
AcDbVertex
100
AcDb2dVertex
 10
190.6552736
 20
178.0989224
 30
0.0
  0
VERTEX
  5
EDB
330
ED
100
AcDbEntity
  8
4_5
 62
     0
100
AcDbVertex
100
AcDb2dVertex
 10
190.6913416
 20
177.2901864
 30
0.0
  0
SEQEND
  5
1476
330
ED
100
AcDbEntity
  8
4_5
 62
     0
  0
POLYLINE
  5
115
330
1D
100
AcDbEntity
  8
4_5
 62
     0
100
AcDb2dPolyline
 66
     1
 10
0.0
 20
0.0
 30
0.0
 70
     1
 40
3.175
 41
3.175
  0
VERTEX
  5
EDC
330
115
100
AcDbEntity
  8
4_5
 62
     0
100
AcDbVertex
100
AcDb2dVertex
 10
208.2239456
 20
168.1553304
 30
0.0
  0
VERTEX
  5
EDD
330
115
100
AcDbEntity
  8
4_5
 62
     0
100
AcDbVertex
100
AcDb2dVertex
 10
206.6417796
 20
168.1553304
 30
0.0
  0
VERTEX
  5
EDE
330
115
100
AcDbEntity
  8
4_5
 62
     0
100
AcDbVertex
100
AcDb2dVertex
 10
211.7847716
 20
195.3272344
 30
0.0
  0
VERTEX
  5
EDF
330
115
100
AcDbEntity
  8
4_5
 62
     0
100
AcDbVertex
100
AcDb2dVertex
 10
221.5853616
 20
172.0219724
 30
0.0
  0
VERTEX
  5
EE0
330
115
100
AcDbEntity
  8
4_5
 62
     0
100
AcDbVertex
100
AcDb2dVertex
 10
231.5485116
 20
195.3272344
 30
0.0
  0
VERTEX
  5
EE1
330
115
100
AcDbEntity
  8
4_5
 62
     0
100
AcDbVertex
100
AcDb2dVertex
 10
236.5467236
 20
168.1553304
 30
0.0
  0
VERTEX
  5
EE2
330
115
100
AcDbEntity
  8
4_5
 62
     0
100
AcDbVertex
100
AcDb2dVertex
 10
234.8573696
 20
168.1553304
 30
0.0
  0
VERTEX
  5
EE3
330
115
100
AcDbEntity
  8
4_5
 62
     0
100
AcDbVertex
100
AcDb2dVertex
 10
230.9188456
 20
189.7354244
 30
0.0
  0
VERTEX
  5
EE4
330
115
100
AcDbEntity
  8
4_5
 62
     0
100
AcDbVertex
100
AcDb2dVertex
 10
221.4779196
 20
167.8492604
 30
0.0
  0
VERTEX
  5
EE5
330
115
100
AcDbEntity
  8
4_5
 62
     0
100
AcDbVertex
100
AcDb2dVertex
 10
212.3250296
 20
189.7354244
 30
0.0
  0
VERTEX
  5
EE6
330
115
100
AcDbEntity
  8
4_5
 62
     0
100
AcDbVertex
100
AcDb2dVertex
 10
208.2239456
 20
168.1553304
 30
0.0
  0
SEQEND
  5
1477
330
115
100
AcDbEntity
  8
4_5
 62
     0
  0
POLYLINE
  5
122
330
1D
100
AcDbEntity
  8
4_5
 62
     0
100
AcDb2dPolyline
 66
     1
 10
0.0
 20
0.0
 30
0.0
 70
     1
 40
3.175
 41
3.175
  0
VERTEX
  5
EE7
330
122
100
AcDbEntity
  8
4_5
 62
     0
100
AcDbVertex
100
AcDb2dVertex
 10
253.6843576
 20
168.1553304
 30
0.0
  0
VERTEX
  5
EE8
330
122
100
AcDbEntity
  8
4_5
 62
     0
100
AcDbVertex
100
AcDb2dVertex
 10
251.9596976
 20
168.1553304
 30
0.0
  0
VERTEX
  5
EE9
330
122
100
AcDbEntity
  8
4_5
 62
     0
100
AcDbVertex
100
AcDb2dVertex
 10
251.6345776
 20
170.5655364
 30
0.0
  0
VERTEX
  5
EEA
330
122
100
AcDbEntity
  8
4_5
 62
     0
100
AcDbVertex
100
AcDb2dVertex
 10
251.6345776
 20
171.9861584
 30
0.0
  0
VERTEX
  5
EEB
330
122
100
AcDbEntity
  8
4_5
 62
     0
100
AcDbVertex
100
AcDb2dVertex
 10
250.2086216
 20
170.3450644
 30
0.0
  0
VERTEX
  5
EEC
330
122
100
AcDbEntity
  8
4_5
 62
     0
100
AcDbVertex
100
AcDb2dVertex
 10
248.5230776
 20
169.0179144
 30
0.0
  0
VERTEX
  5
EED
330
122
100
AcDbEntity
  8
4_5
 62
     0
100
AcDbVertex
100
AcDb2dVertex
 10
246.6711636
 20
168.1428844
 30
0.0
  0
VERTEX
  5
EEE
330
122
100
AcDbEntity
  8
4_5
 62
     0
100
AcDbVertex
100
AcDb2dVertex
 10
244.7118076
 20
167.8492604
 30
0.0
  0
VERTEX
  5
EEF
330
122
100
AcDbEntity
  8
4_5
 62
     0
100
AcDbVertex
100
AcDb2dVertex
 10
243.3305556
 20
167.9622904
 30
0.0
  0
VERTEX
  5
EF0
330
122
100
AcDbEntity
  8
4_5
 62
     0
100
AcDbVertex
100
AcDb2dVertex
 10
242.1042436
 20
168.2985864
 30
0.0
  0
VERTEX
  5
EF1
330
122
100
AcDbEntity
  8
4_5
 62
     0
100
AcDbVertex
100
AcDb2dVertex
 10
241.0872276
 20
168.8385904
 30
0.0
  0
VERTEX
  5
EF2
330
122
100
AcDbEntity
  8
4_5
 62
     0
100
AcDbVertex
100
AcDb2dVertex
 10
240.3059236
 20
169.5223584
 30
0.0
  0
VERTEX
  5
EF3
330
122
100
AcDbEntity
  8
4_5
 62
     0
100
AcDbVertex
100
AcDb2dVertex
 10
239.2988136
 20
171.1220504
 30
0.0
  0
VERTEX
  5
EF4
330
122
100
AcDbEntity
  8
4_5
 62
     0
100
AcDbVertex
100
AcDb2dVertex
 10
238.9569296
 20
172.8665224
 30
0.0
  0
VERTEX
  5
EF5
330
122
100
AcDbEntity
  8
4_5
 62
     0
100
AcDbVertex
100
AcDb2dVertex
 10
239.2271856
 20
174.5574004
 30
0.0
  0
VERTEX
  5
EF6
330
122
100
AcDbEntity
  8
4_5
 62
     0
100
AcDbVertex
100
AcDb2dVertex
 10
239.9465136
 20
175.8695644
 30
0.0
  0
VERTEX
  5
EF7
330
122
100
AcDbEntity
  8
4_5
 62
     0
100
AcDbVertex
100
AcDb2dVertex
 10
241.1149136
 20
176.8588944
 30
0.0
  0
VERTEX
  5
EF8
330
122
100
AcDbEntity
  8
4_5
 62
     0
100
AcDbVertex
100
AcDb2dVertex
 10
242.5177556
 20
177.5782224
 30
0.0
  0
VERTEX
  5
EF9
330
122
100
AcDbEntity
  8
4_5
 62
     0
100
AcDbVertex
100
AcDb2dVertex
 10
244.2086336
 20
178.0633624
 30
0.0
  0
VERTEX
  5
EFA
330
122
100
AcDbEntity
  8
4_5
 62
     0
100
AcDbVertex
100
AcDb2dVertex
 10
245.9518356
 20
178.3691784
 30
0.0
  0
VERTEX
  5
EFB
330
122
100
AcDbEntity
  8
4_5
 62
     0
100
AcDbVertex
100
AcDb2dVertex
 10
247.7857156
 20
178.5317384
 30
0.0
  0
VERTEX
  5
EFC
330
122
100
AcDbEntity
  8
4_5
 62
     0
100
AcDbVertex
100
AcDb2dVertex
 10
249.5126616
 20
178.5855864
 30
0.0
  0
VERTEX
  5
EFD
330
122
100
AcDbEntity
  8
4_5
 62
     0
100
AcDbVertex
100
AcDb2dVertex
 10
251.1494376
 20
178.6033664
 30
0.0
  0
VERTEX
  5
EFE
330
122
100
AcDbEntity
  8
4_5
 62
     0
100
AcDbVertex
100
AcDb2dVertex
 10
251.6345776
 20
178.6033664
 30
0.0
  0
VERTEX
  5
EFF
330
122
100
AcDbEntity
  8
4_5
 62
     0
100
AcDbVertex
100
AcDb2dVertex
 10
251.1494376
 20
181.2701124
 30
0.0
  0
VERTEX
  5
F00
330
122
100
AcDbEntity
  8
4_5
 62
     0
100
AcDbVertex
100
AcDb2dVertex
 10
249.8720716
 20
183.3328464
 30
0.0
  0
VERTEX
  5
F01
330
122
100
AcDbEntity
  8
4_5
 62
     0
100
AcDbVertex
100
AcDb2dVertex
 10
248.0877216
 20
184.6556784
 30
0.0
  0
VERTEX
  5
F02
330
122
100
AcDbEntity
  8
4_5
 62
     0
100
AcDbVertex
100
AcDb2dVertex
 10
246.0427676
 20
185.0953524
 30
0.0
  0
VERTEX
  5
F03
330
122
100
AcDbEntity
  8
4_5
 62
     0
100
AcDbVertex
100
AcDb2dVertex
 10
244.7775936
 20
184.9302524
 30
0.0
  0
VERTEX
  5
F04
330
122
100
AcDbEntity
  8
4_5
 62
     0
100
AcDbVertex
100
AcDb2dVertex
 10
243.5428996
 20
184.4298724
 30
0.0
  0
VERTEX
  5
F05
330
122
100
AcDbEntity
  8
4_5
 62
     0
100
AcDbVertex
100
AcDb2dVertex
 10
242.4143776
 20
183.6125004
 30
0.0
  0
VERTEX
  5
F06
330
122
100
AcDbEntity
  8
4_5
 62
     0
100
AcDbVertex
100
AcDb2dVertex
 10
241.4387636
 20
182.4882964
 30
0.0
  0
VERTEX
  5
F07
330
122
100
AcDbEntity
  8
4_5
 62
     0
100
AcDbVertex
100
AcDb2dVertex
 10
240.1611436
 20
183.3328464
 30
0.0
  0
VERTEX
  5
F08
330
122
100
AcDbEntity
  8
4_5
 62
     0
100
AcDbVertex
100
AcDb2dVertex
 10
241.3711996
 20
184.8131584
 30
0.0
  0
VERTEX
  5
F09
330
122
100
AcDbEntity
  8
4_5
 62
     0
100
AcDbVertex
100
AcDb2dVertex
 10
242.8057916
 20
185.8685284
 30
0.0
  0
VERTEX
  5
F0A
330
122
100
AcDbEntity
  8
4_5
 62
     0
100
AcDbVertex
100
AcDb2dVertex
 10
244.3879576
 20
186.5025124
 30
0.0
  0
VERTEX
  5
F0B
330
122
100
AcDbEntity
  8
4_5
 62
     0
100
AcDbVertex
100
AcDb2dVertex
 10
246.0427676
 20
186.7130784
 30
0.0
  0
VERTEX
  5
F0C
330
122
100
AcDbEntity
  8
4_5
 62
     0
100
AcDbVertex
100
AcDb2dVertex
 10
248.6678576
 20
186.1563104
 30
0.0
  0
VERTEX
  5
F0D
330
122
100
AcDbEntity
  8
4_5
 62
     0
100
AcDbVertex
100
AcDb2dVertex
 10
249.8763896
 20
185.5007364
 30
0.0
  0
VERTEX
  5
F0E
330
122
100
AcDbEntity
  8
4_5
 62
     0
100
AcDbVertex
100
AcDb2dVertex
 10
250.9513176
 20
184.6086884
 30
0.0
  0
VERTEX
  5
F0F
330
122
100
AcDbEntity
  8
4_5
 62
     0
100
AcDbVertex
100
AcDb2dVertex
 10
251.8580976
 20
183.4773724
 30
0.0
  0
VERTEX
  5
F10
330
122
100
AcDbEntity
  8
4_5
 62
     0
100
AcDbVertex
100
AcDb2dVertex
 10
252.5718376
 20
182.0554804
 30
0.0
  0
VERTEX
  5
F11
330
122
100
AcDbEntity
  8
4_5
 62
     0
100
AcDbVertex
100
AcDb2dVertex
 10
253.0493576
 20
180.4113384
 30
0.0
  0
VERTEX
  5
F12
330
122
100
AcDbEntity
  8
4_5
 62
     0
100
AcDbVertex
100
AcDb2dVertex
 10
253.2373176
 20
178.6033664
 30
0.0
  0
VERTEX
  5
F13
330
122
100
AcDbEntity
  8
4_5
 62
     0
100
AcDbVertex
100
AcDb2dVertex
 10
253.2373176
 20
170.5655364
 30
0.0
  0
VERTEX
  5
F14
330
122
100
AcDbEntity
  8
4_5
 62
     0
100
AcDbVertex
100
AcDb2dVertex
 10
253.3465376
 20
169.1804744
 30
0.0
  0
VERTEX
  5
F15
330
122
100
AcDbEntity
  8
4_5
 62
     0
100
AcDbVertex
100
AcDb2dVertex
 10
253.6843576
 20
168.1553304
 30
0.0
  0
SEQEND
  5
1478
330
122
100
AcDbEntity
  8
4_5
 62
     0
  0
POLYLINE
  5
153
330
1D
100
AcDbEntity
  8
4_5
 62
     0
100
AcDb2dPolyline
 66
     1
 10
0.0
 20
0.0
 30
0.0
 70
     1
 40
3.175
 41
3.175
  0
VERTEX
  5
F16
330
153
100
AcDbEntity
  8
4_5
 62
     0
100
AcDbVertex
100
AcDb2dVertex
 10
244.7118076
 20
169.4507304
 30
0.0
  0
VERTEX
  5
F17
330
153
100
AcDbEntity
  8
4_5
 62
     0
100
AcDbVertex
100
AcDb2dVertex
 10
246.7468556
 20
169.7976944
 30
0.0
  0
VERTEX
  5
F18
330
153
100
AcDbEntity
  8
4_5
 62
     0
100
AcDbVertex
100
AcDb2dVertex
 10
248.7217056
 20
170.8342684
 30
0.0
  0
VERTEX
  5
F19
330
153
100
AcDbEntity
  8
4_5
 62
     0
100
AcDbVertex
100
AcDb2dVertex
 10
250.4207116
 20
172.3183904
 30
0.0
  0
VERTEX
  5
F1A
330
153
100
AcDbEntity
  8
4_5
 62
     0
100
AcDbVertex
100
AcDb2dVertex
 10
251.6345776
 20
173.9993624
 30
0.0
  0
VERTEX
  5
F1B
330
153
100
AcDbEntity
  8
4_5
 62
     0
100
AcDbVertex
100
AcDb2dVertex
 10
251.6345776
 20
177.4527464
 30
0.0
  0
VERTEX
  5
F1C
330
153
100
AcDbEntity
  8
4_5
 62
     0
100
AcDbVertex
100
AcDb2dVertex
 10
250.2139556
 20
177.4171864
 30
0.0
  0
VERTEX
  5
F1D
330
153
100
AcDbEntity
  8
4_5
 62
     0
100
AcDbVertex
100
AcDb2dVertex
 10
248.6678576
 20
177.3260004
 30
0.0
  0
VERTEX
  5
F1E
330
153
100
AcDbEntity
  8
4_5
 62
     0
100
AcDbVertex
100
AcDb2dVertex
 10
247.0127936
 20
177.1827444
 30
0.0
  0
VERTEX
  5
F1F
330
153
100
AcDbEntity
  8
4_5
 62
     0
100
AcDbVertex
100
AcDb2dVertex
 10
245.4131016
 20
176.9305224
 30
0.0
  0
VERTEX
  5
F20
330
153
100
AcDbEntity
  8
4_5
 62
     0
100
AcDbVertex
100
AcDb2dVertex
 10
243.8847836
 20
176.5172644
 30
0.0
  0
VERTEX
  5
F21
330
153
100
AcDbEntity
  8
4_5
 62
     0
100
AcDbVertex
100
AcDb2dVertex
 10
242.5713496
 20
175.9424624
 30
0.0
  0
VERTEX
  5
F22
330
153
100
AcDbEntity
  8
4_5
 62
     0
100
AcDbVertex
100
AcDb2dVertex
 10
241.4926116
 20
175.1680164
 30
0.0
  0
VERTEX
  5
F23
330
153
100
AcDbEntity
  8
4_5
 62
     0
100
AcDbVertex
100
AcDb2dVertex
 10
240.8088436
 20
174.1619224
 30
0.0
  0
VERTEX
  5
F24
330
153
100
AcDbEntity
  8
4_5
 62
     0
100
AcDbVertex
100
AcDb2dVertex
 10
240.5581456
 20
172.8665224
 30
0.0
  0
VERTEX
  5
F25
330
153
100
AcDbEntity
  8
4_5
 62
     0
100
AcDbVertex
100
AcDb2dVertex
 10
240.8268776
 20
171.6318284
 30
0.0
  0
VERTEX
  5
F26
330
153
100
AcDbEntity
  8
4_5
 62
     0
100
AcDbVertex
100
AcDb2dVertex
 10
241.6373916
 20
170.5116884
 30
0.0
  0
VERTEX
  5
F27
330
153
100
AcDbEntity
  8
4_5
 62
     0
100
AcDbVertex
100
AcDb2dVertex
 10
242.9437136
 20
169.7166684
 30
0.0
  0
VERTEX
  5
F28
330
153
100
AcDbEntity
  8
4_5
 62
     0
100
AcDbVertex
100
AcDb2dVertex
 10
244.7118076
 20
169.4507304
 30
0.0
  0
SEQEND
  5
1479
330
153
100
AcDbEntity
  8
4_5
 62
     0
  0
POLYLINE
  5
168
330
1D
100
AcDbEntity
  8
4_5
 62
     0
100
AcDb2dPolyline
 66
     1
 10
0.0
 20
0.0
 30
0.0
 70
     1
 40
3.175
 41
3.175
  0
VERTEX
  5
F29
330
168
100
AcDbEntity
  8
4_5
 62
     0
100
AcDbVertex
100
AcDb2dVertex
 10
258.7745176
 20
186.3892284
 30
0.0
  0
VERTEX
  5
F2A
330
168
100
AcDbEntity
  8
4_5
 62
     0
100
AcDbVertex
100
AcDb2dVertex
 10
260.5017176
 20
186.3892284
 30
0.0
  0
VERTEX
  5
F2B
330
168
100
AcDbEntity
  8
4_5
 62
     0
100
AcDbVertex
100
AcDb2dVertex
 10
260.8420776
 20
183.9805464
 30
0.0
  0
VERTEX
  5
F2C
330
168
100
AcDbEntity
  8
4_5
 62
     0
100
AcDbVertex
100
AcDb2dVertex
 10
260.8420776
 20
181.7135964
 30
0.0
  0
VERTEX
  5
F2D
330
168
100
AcDbEntity
  8
4_5
 62
     0
100
AcDbVertex
100
AcDb2dVertex
 10
261.5278776
 20
183.1260904
 30
0.0
  0
VERTEX
  5
F2E
330
168
100
AcDbEntity
  8
4_5
 62
     0
100
AcDbVertex
100
AcDb2dVertex
 10
262.7673976
 20
184.5911624
 30
0.0
  0
VERTEX
  5
F2F
330
168
100
AcDbEntity
  8
4_5
 62
     0
100
AcDbVertex
100
AcDb2dVertex
 10
264.2812376000001
 20
185.8601464
 30
0.0
  0
VERTEX
  5
F30
330
168
100
AcDbEntity
  8
4_5
 62
     0
100
AcDbVertex
100
AcDb2dVertex
 10
265.8052376
 20
186.6775184
 30
0.0
  0
VERTEX
  5
F31
330
168
100
AcDbEntity
  8
4_5
 62
     0
100
AcDbVertex
100
AcDb2dVertex
 10
267.6035576
 20
185.4014224
 30
0.0
  0
VERTEX
  5
F32
330
168
100
AcDbEntity
  8
4_5
 62
     0
100
AcDbVertex
100
AcDb2dVertex
 10
266.0211376
 20
185.1227844
 30
0.0
  0
VERTEX
  5
F33
330
168
100
AcDbEntity
  8
4_5
 62
     0
100
AcDbVertex
100
AcDb2dVertex
 10
264.4387176
 20
184.2863624
 30
0.0
  0
VERTEX
  5
F34
330
168
100
AcDbEntity
  8
4_5
 62
     0
100
AcDbVertex
100
AcDb2dVertex
 10
263.0086976
 20
182.9871524
 30
0.0
  0
VERTEX
  5
F35
330
168
100
AcDbEntity
  8
4_5
 62
     0
100
AcDbVertex
100
AcDb2dVertex
 10
261.8479176
 20
181.3181184
 30
0.0
  0
VERTEX
  5
F36
330
168
100
AcDbEntity
  8
4_5
 62
     0
100
AcDbVertex
100
AcDb2dVertex
 10
261.0909976
 20
179.4537584
 30
0.0
  0
VERTEX
  5
F37
330
168
100
AcDbEntity
  8
4_5
 62
     0
100
AcDbVertex
100
AcDb2dVertex
 10
260.8420776
 20
177.5243744
 30
0.0
  0
VERTEX
  5
F38
330
168
100
AcDbEntity
  8
4_5
 62
     0
100
AcDbVertex
100
AcDb2dVertex
 10
260.8420776
 20
168.1553304
 30
0.0
  0
VERTEX
  5
F39
330
168
100
AcDbEntity
  8
4_5
 62
     0
100
AcDbVertex
100
AcDb2dVertex
 10
259.2240976
 20
168.1553304
 30
0.0
  0
VERTEX
  5
F3A
330
168
100
AcDbEntity
  8
4_5
 62
     0
100
AcDbVertex
100
AcDb2dVertex
 10
259.2240976
 20
183.9805464
 30
0.0
  0
VERTEX
  5
F3B
330
168
100
AcDbEntity
  8
4_5
 62
     0
100
AcDbVertex
100
AcDb2dVertex
 10
259.1097976
 20
185.3574804
 30
0.0
  0
VERTEX
  5
F3C
330
168
100
AcDbEntity
  8
4_5
 62
     0
100
AcDbVertex
100
AcDb2dVertex
 10
258.7745176
 20
186.3892284
 30
0.0
  0
SEQEND
  5
147A
330
168
100
AcDbEntity
  8
4_5
 62
     0
  0
POLYLINE
  5
17E
330
1D
100
AcDbEntity
  8
4_5
 62
     0
100
AcDb2dPolyline
 66
     1
 10
0.0
 20
0.0
 30
0.0
 70
     1
 40
3.175
 41
3.175
  0
VERTEX
  5
F3D
330
17E
100
AcDbEntity
  8
4_5
 62
     0
100
AcDbVertex
100
AcDb2dVertex
 10
270.2299176
 20
190.7054504
 30
0.0
  0
VERTEX
  5
F3E
330
17E
100
AcDbEntity
  8
4_5
 62
     0
100
AcDbVertex
100
AcDb2dVertex
 10
270.6439376
 20
191.7305944
 30
0.0
  0
VERTEX
  5
F3F
330
17E
100
AcDbEntity
  8
4_5
 62
     0
100
AcDbVertex
100
AcDb2dVertex
 10
271.6853376
 20
192.1621404
 30
0.0
  0
VERTEX
  5
F40
330
17E
100
AcDbEntity
  8
4_5
 62
     0
100
AcDbVertex
100
AcDb2dVertex
 10
272.6937176
 20
191.7305944
 30
0.0
  0
VERTEX
  5
F41
330
17E
100
AcDbEntity
  8
4_5
 62
     0
100
AcDbVertex
100
AcDb2dVertex
 10
273.1229776
 20
190.7054504
 30
0.0
  0
VERTEX
  5
F42
330
17E
100
AcDbEntity
  8
4_5
 62
     0
100
AcDbVertex
100
AcDb2dVertex
 10
272.7114976
 20
189.6622724
 30
0.0
  0
VERTEX
  5
F43
330
17E
100
AcDbEntity
  8
4_5
 62
     0
100
AcDbVertex
100
AcDb2dVertex
 10
271.6853376
 20
189.2490144
 30
0.0
  0
VERTEX
  5
F44
330
17E
100
AcDbEntity
  8
4_5
 62
     0
100
AcDbVertex
100
AcDb2dVertex
 10
270.6439376
 20
189.6622724
 30
0.0
  0
VERTEX
  5
F45
330
17E
100
AcDbEntity
  8
4_5
 62
     0
100
AcDbVertex
100
AcDb2dVertex
 10
270.2299176
 20
190.7054504
 30
0.0
  0
SEQEND
  5
147B
330
17E
100
AcDbEntity
  8
4_5
 62
     0
  0
POLYLINE
  5
189
330
1D
100
AcDbEntity
  8
4_5
 62
     0
100
AcDb2dPolyline
 66
     1
 10
0.0
 20
0.0
 30
0.0
 70
     1
 40
3.175
 41
3.175
  0
VERTEX
  5
F46
330
189
100
AcDbEntity
  8
4_5
 62
     0
100
AcDbVertex
100
AcDb2dVertex
 10
272.4955976000001
 20
168.1553304
 30
0.0
  0
VERTEX
  5
F47
330
189
100
AcDbEntity
  8
4_5
 62
     0
100
AcDbVertex
100
AcDb2dVertex
 10
270.8750776
 20
168.1553304
 30
0.0
  0
VERTEX
  5
F48
330
189
100
AcDbEntity
  8
4_5
 62
     0
100
AcDbVertex
100
AcDb2dVertex
 10
270.8750776
 20
186.3892284
 30
0.0
  0
VERTEX
  5
F49
330
189
100
AcDbEntity
  8
4_5
 62
     0
100
AcDbVertex
100
AcDb2dVertex
 10
272.4955976000001
 20
186.3892284
 30
0.0
  0
VERTEX
  5
F4A
330
189
100
AcDbEntity
  8
4_5
 62
     0
100
AcDbVertex
100
AcDb2dVertex
 10
272.4955976000001
 20
168.1553304
 30
0.0
  0
SEQEND
  5
147C
330
189
100
AcDbEntity
  8
4_5
 62
     0
  0
POLYLINE
  5
190
330
1D
100
AcDbEntity
  8
4_5
 62
     0
100
AcDb2dPolyline
 66
     1
 10
0.0
 20
0.0
 30
0.0
 70
     1
 40
3.175
 41
3.175
  0
VERTEX
  5
F4B
330
190
100
AcDbEntity
  8
4_5
 62
     0
100
AcDbVertex
100
AcDb2dVertex
 10
279.4729776
 20
178.8182504
 30
0.0
  0
VERTEX
  5
F4C
330
190
100
AcDbEntity
  8
4_5
 62
     0
100
AcDbVertex
100
AcDb2dVertex
 10
292.7241576
 20
178.8182504
 30
0.0
  0
VERTEX
  5
F4D
330
190
100
AcDbEntity
  8
4_5
 62
     0
100
AcDbVertex
100
AcDb2dVertex
 10
291.8808776
 20
181.2962744
 30
0.0
  0
VERTEX
  5
F4E
330
190
100
AcDbEntity
  8
4_5
 62
     0
100
AcDbVertex
100
AcDb2dVertex
 10
290.3517976
 20
183.2972864
 30
0.0
  0
VERTEX
  5
F4F
330
190
100
AcDbEntity
  8
4_5
 62
     0
100
AcDbVertex
100
AcDb2dVertex
 10
288.3451976000001
 20
184.6185944
 30
0.0
  0
VERTEX
  5
F50
330
190
100
AcDbEntity
  8
4_5
 62
     0
100
AcDbVertex
100
AcDb2dVertex
 10
286.0718976
 20
185.0595384
 30
0.0
  0
VERTEX
  5
F51
330
190
100
AcDbEntity
  8
4_5
 62
     0
100
AcDbVertex
100
AcDb2dVertex
 10
283.8112976
 20
184.6185944
 30
0.0
  0
VERTEX
  5
F52
330
190
100
AcDbEntity
  8
4_5
 62
     0
100
AcDbVertex
100
AcDb2dVertex
 10
281.8097776
 20
183.2972864
 30
0.0
  0
VERTEX
  5
F53
330
190
100
AcDbEntity
  8
4_5
 62
     0
100
AcDbVertex
100
AcDb2dVertex
 10
280.2984776
 20
181.2962744
 30
0.0
  0
VERTEX
  5
F54
330
190
100
AcDbEntity
  8
4_5
 62
     0
100
AcDbVertex
100
AcDb2dVertex
 10
279.4729776
 20
178.8182504
 30
0.0
  0
SEQEND
  5
147D
330
190
100
AcDbEntity
  8
4_5
 62
     0
  0
POLYLINE
  5
19C
330
1D
100
AcDbEntity
  8
4_5
 62
     0
100
AcDb2dPolyline
 66
     1
 10
0.0
 20
0.0
 30
0.0
 70
     1
 40
3.175
 41
3.175
  0
VERTEX
  5
F55
330
19C
100
AcDbEntity
  8
4_5
 62
     0
100
AcDbVertex
100
AcDb2dVertex
 10
294.4869176
 20
177.2901864
 30
0.0
  0
VERTEX
  5
F56
330
19C
100
AcDbEntity
  8
4_5
 62
     0
100
AcDbVertex
100
AcDb2dVertex
 10
279.2215176
 20
177.2901864
 30
0.0
  0
VERTEX
  5
F57
330
19C
100
AcDbEntity
  8
4_5
 62
     0
100
AcDbVertex
100
AcDb2dVertex
 10
279.3459776
 20
175.7428184
 30
0.0
  0
VERTEX
  5
F58
330
19C
100
AcDbEntity
  8
4_5
 62
     0
100
AcDbVertex
100
AcDb2dVertex
 10
279.7244376
 20
174.3150844
 30
0.0
  0
VERTEX
  5
F59
330
19C
100
AcDbEntity
  8
4_5
 62
     0
100
AcDbVertex
100
AcDb2dVertex
 10
280.3543576
 20
173.0087624
 30
0.0
  0
VERTEX
  5
F5A
330
19C
100
AcDbEntity
  8
4_5
 62
     0
100
AcDbVertex
100
AcDb2dVertex
 10
281.2357376
 20
171.8233444
 30
0.0
  0
VERTEX
  5
F5B
330
19C
100
AcDbEntity
  8
4_5
 62
     0
100
AcDbVertex
100
AcDb2dVertex
 10
282.2872976
 20
170.8408724
 30
0.0
  0
VERTEX
  5
F5C
330
19C
100
AcDbEntity
  8
4_5
 62
     0
100
AcDbVertex
100
AcDb2dVertex
 10
283.4328376
 20
170.1383084
 30
0.0
  0
VERTEX
  5
F5D
330
19C
100
AcDbEntity
  8
4_5
 62
     0
100
AcDbVertex
100
AcDb2dVertex
 10
284.6698176
 20
169.7166684
 30
0.0
  0
VERTEX
  5
F5E
330
19C
100
AcDbEntity
  8
4_5
 62
     0
100
AcDbVertex
100
AcDb2dVertex
 10
286.0007776
 20
169.5759524
 30
0.0
  0
VERTEX
  5
F5F
330
19C
100
AcDbEntity
  8
4_5
 62
     0
100
AcDbVertex
100
AcDb2dVertex
 10
287.7990976
 20
169.8200464
 30
0.0
  0
VERTEX
  5
F60
330
19C
100
AcDbEntity
  8
4_5
 62
     0
100
AcDbVertex
100
AcDb2dVertex
 10
289.5618576
 20
170.5475024
 30
0.0
  0
VERTEX
  5
F61
330
19C
100
AcDbEntity
  8
4_5
 62
     0
100
AcDbVertex
100
AcDb2dVertex
 10
291.0985576
 20
171.6844064
 30
0.0
  0
VERTEX
  5
F62
330
19C
100
AcDbEntity
  8
4_5
 62
     0
100
AcDbVertex
100
AcDb2dVertex
 10
292.2212376000001
 20
173.1548124
 30
0.0
  0
VERTEX
  5
F63
330
19C
100
AcDbEntity
  8
4_5
 62
     0
100
AcDbVertex
100
AcDb2dVertex
 10
293.6436376
 20
172.3458224
 30
0.0
  0
VERTEX
  5
F64
330
19C
100
AcDbEntity
  8
4_5
 62
     0
100
AcDbVertex
100
AcDb2dVertex
 10
292.2847376
 20
170.5612184
 30
0.0
  0
VERTEX
  5
F65
330
19C
100
AcDbEntity
  8
4_5
 62
     0
100
AcDbVertex
100
AcDb2dVertex
 10
290.4051376
 20
169.1268804
 30
0.0
  0
VERTEX
  5
F66
330
19C
100
AcDbEntity
  8
4_5
 62
     0
100
AcDbVertex
100
AcDb2dVertex
 10
288.2334376000001
 20
168.1964784
 30
0.0
  0
VERTEX
  5
F67
330
19C
100
AcDbEntity
  8
4_5
 62
     0
100
AcDbVertex
100
AcDb2dVertex
 10
286.0007776
 20
167.8850744
 30
0.0
  0
VERTEX
  5
F68
330
19C
100
AcDbEntity
  8
4_5
 62
     0
100
AcDbVertex
100
AcDb2dVertex
 10
283.8062176
 20
168.2046064
 30
0.0
  0
VERTEX
  5
F69
330
19C
100
AcDbEntity
  8
4_5
 62
     0
100
AcDbVertex
100
AcDb2dVertex
 10
281.7919976
 20
169.1624404
 30
0.0
  0
VERTEX
  5
F6A
330
19C
100
AcDbEntity
  8
4_5
 62
     0
100
AcDbVertex
100
AcDb2dVertex
 10
280.0876576
 20
170.6602784
 30
0.0
  0
VERTEX
  5
F6B
330
19C
100
AcDbEntity
  8
4_5
 62
     0
100
AcDbVertex
100
AcDb2dVertex
 10
278.7897176
 20
172.5967744
 30
0.0
  0
VERTEX
  5
F6C
330
19C
100
AcDbEntity
  8
4_5
 62
     0
100
AcDbVertex
100
AcDb2dVertex
 10
277.9794576
 20
174.8594064
 30
0.0
  0
VERTEX
  5
F6D
330
19C
100
AcDbEntity
  8
4_5
 62
     0
100
AcDbVertex
100
AcDb2dVertex
 10
277.7102176
 20
177.2901864
 30
0.0
  0
VERTEX
  5
F6E
330
19C
100
AcDbEntity
  8
4_5
 62
     0
100
AcDbVertex
100
AcDb2dVertex
 10
277.9819976
 20
179.7059804
 30
0.0
  0
VERTEX
  5
F6F
330
19C
100
AcDbEntity
  8
4_5
 62
     0
100
AcDbVertex
100
AcDb2dVertex
 10
278.8074976
 20
181.9477844
 30
0.0
  0
VERTEX
  5
F70
330
19C
100
AcDbEntity
  8
4_5
 62
     0
100
AcDbVertex
100
AcDb2dVertex
 10
280.1232176
 20
183.8870744
 30
0.0
  0
VERTEX
  5
F71
330
19C
100
AcDbEntity
  8
4_5
 62
     0
100
AcDbVertex
100
AcDb2dVertex
 10
281.8453376000001
 20
185.3833884
 30
0.0
  0
VERTEX
  5
F72
330
19C
100
AcDbEntity
  8
4_5
 62
     0
100
AcDbVertex
100
AcDb2dVertex
 10
283.8722576
 20
186.3549384
 30
0.0
  0
VERTEX
  5
F73
330
19C
100
AcDbEntity
  8
4_5
 62
     0
100
AcDbVertex
100
AcDb2dVertex
 10
286.0718976
 20
186.6775184
 30
0.0
  0
VERTEX
  5
F74
330
19C
100
AcDbEntity
  8
4_5
 62
     0
100
AcDbVertex
100
AcDb2dVertex
 10
288.1521576000001
 20
186.3854184
 30
0.0
  0
VERTEX
  5
F75
330
19C
100
AcDbEntity
  8
4_5
 62
     0
100
AcDbVertex
100
AcDb2dVertex
 10
290.0825576
 20
185.5086104
 30
0.0
  0
VERTEX
  5
F76
330
19C
100
AcDbEntity
  8
4_5
 62
     0
100
AcDbVertex
100
AcDb2dVertex
 10
291.7716576
 20
184.1555524
 30
0.0
  0
VERTEX
  5
F77
330
19C
100
AcDbEntity
  8
4_5
 62
     0
100
AcDbVertex
100
AcDb2dVertex
 10
293.1026176
 20
182.3973644
 30
0.0
  0
VERTEX
  5
F78
330
19C
100
AcDbEntity
  8
4_5
 62
     0
100
AcDbVertex
100
AcDb2dVertex
 10
294.0144776
 20
180.3440284
 30
0.0
  0
VERTEX
  5
F79
330
19C
100
AcDbEntity
  8
4_5
 62
     0
100
AcDbVertex
100
AcDb2dVertex
 10
294.4513576000001
 20
178.0989224
 30
0.0
  0
VERTEX
  5
F7A
330
19C
100
AcDbEntity
  8
4_5
 62
     0
100
AcDbVertex
100
AcDb2dVertex
 10
294.4869176
 20
177.2901864
 30
0.0
  0
SEQEND
  5
147E
330
19C
100
AcDbEntity
  8
4_5
 62
     0
  0
POLYLINE
  5
1C4
330
1D
100
AcDbEntity
  8
18_5
 62
     5
100
AcDb2dPolyline
 66
     1
 10
0.0
 20
0.0
 30
0.0
 70
     1
 40
6.35
 41
6.35
  0
VERTEX
  5
F7B
330
1C4
100
AcDbEntity
  8
18_5
 62
     5
100
AcDbVertex
100
AcDb2dVertex
 10
0.1249460000000107
 20
406.4385724
 30
0.0
  0
VERTEX
  5
F7C
330
1C4
100
AcDbEntity
  8
18_5
 62
     5
100
AcDbVertex
100
AcDb2dVertex
 10
406.3739176
 20
406.4385724
 30
0.0
  0
VERTEX
  5
F7D
330
1C4
100
AcDbEntity
  8
18_5
 62
     5
100
AcDbVertex
100
AcDb2dVertex
 10
406.3739176
 20
0.1929790000000002
 30
0.0
  0
VERTEX
  5
F7E
330
1C4
100
AcDbEntity
  8
18_5
 62
     5
100
AcDbVertex
100
AcDb2dVertex
 10
0.1249460000000107
 20
0.1929790000000002
 30
0.0
  0
VERTEX
  5
F7F
330
1C4
100
AcDbEntity
  8
18_5
 62
     5
100
AcDbVertex
100
AcDb2dVertex
 10
0.1249460000000107
 20
406.4385724
 30
0.0
  0
SEQEND
  5
147F
330
1C4
100
AcDbEntity
  8
18_5
 62
     5
  0
POLYLINE
  5
1CB
330
1D
100
AcDbEntity
  8
14_5
 62
     1
100
AcDb2dPolyline
 66
     1
 10
0.0
 20
0.0
 30
0.0
 40
6.007176199999999
 41
6.007176199999999
  0
VERTEX
  5
F80
330
1CB
100
AcDbEntity
  8
14_5
 62
     1
100
AcDbVertex
100
AcDb2dVertex
 10
174.0058276
 20
67.21522239999999
 30
0.0
  0
VERTEX
  5
F81
330
1CB
100
AcDbEntity
  8
14_5
 62
     1
100
AcDbVertex
100
AcDb2dVertex
 10
174.3088496
 20
67.02091239999999
 30
0.0
  0
VERTEX
  5
F82
330
1CB
100
AcDbEntity
  8
14_5
 62
     1
100
AcDbVertex
100
AcDb2dVertex
 10
174.3032616
 20
66.68182239999999
 30
0.0
  0
VERTEX
  5
F83
330
1CB
100
AcDbEntity
  8
14_5
 62
     1
100
AcDbVertex
100
AcDb2dVertex
 10
174.1079356
 20
66.3333344
 30
0.0
  0
VERTEX
  5
F84
330
1CB
100
AcDbEntity
  8
14_5
 62
     1
100
AcDbVertex
100
AcDb2dVertex
 10
173.8376796
 20
66.10575039999999
 30
0.0
  0
VERTEX
  5
F85
330
1CB
100
AcDbEntity
  8
14_5
 62
     1
100
AcDbVertex
100
AcDb2dVertex
 10
173.1277496
 20
66.01761239999999
 30
0.0
  0
VERTEX
  5
F86
330
1CB
100
AcDbEntity
  8
14_5
 62
     1
100
AcDbVertex
100
AcDb2dVertex
 10
172.5008776
 20
66.31530039999998
 30
0.0
  0
VERTEX
  5
F87
330
1CB
100
AcDbEntity
  8
14_5
 62
     1
100
AcDbVertex
100
AcDb2dVertex
 10
172.0269136
 20
66.86241639999999
 30
0.0
  0
VERTEX
  5
F88
330
1CB
100
AcDbEntity
  8
14_5
 62
     1
100
AcDbVertex
100
AcDb2dVertex
 10
171.7774856
 20
67.5210384
 30
0.0
  0
VERTEX
  5
F89
330
1CB
100
AcDbEntity
  8
14_5
 62
     1
100
AcDbVertex
100
AcDb2dVertex
 10
171.8684176
 20
68.6482904
 30
0.0
  0
VERTEX
  5
F8A
330
1CB
100
AcDbEntity
  8
14_5
 62
     1
100
AcDbVertex
100
AcDb2dVertex
 10
172.4472836
 20
69.57996239999999
 30
0.0
  0
VERTEX
  5
F8B
330
1CB
100
AcDbEntity
  8
14_5
 62
     1
100
AcDbVertex
100
AcDb2dVertex
 10
173.3581276
 20
70.23325039999999
 30
0.0
  0
VERTEX
  5
F8C
330
1CB
100
AcDbEntity
  8
14_5
 62
     1
100
AcDbVertex
100
AcDb2dVertex
 10
174.4495656
 20
70.5212864
 30
0.0
  0
VERTEX
  5
F8D
330
1CB
100
AcDbEntity
  8
14_5
 62
     1
100
AcDbVertex
100
AcDb2dVertex
 10
175.2486496
 20
70.4852184
 30
0.0
  0
VERTEX
  5
F8E
330
1CB
100
AcDbEntity
  8
14_5
 62
     1
100
AcDbVertex
100
AcDb2dVertex
 10
175.9903296
 20
70.27185839999999
 30
0.0
  0
VERTEX
  5
F8F
330
1CB
100
AcDbEntity
  8
14_5
 62
     1
100
AcDbVertex
100
AcDb2dVertex
 10
176.6570796
 20
69.90660639999999
 30
0.0
  0
VERTEX
  5
F90
330
1CB
100
AcDbEntity
  8
14_5
 62
     1
100
AcDbVertex
100
AcDb2dVertex
 10
177.2359456
 20
69.4115604
 30
0.0
  0
VERTEX
  5
F91
330
1CB
100
AcDbEntity
  8
14_5
 62
     1
100
AcDbVertex
100
AcDb2dVertex
 10
177.7139736
 20
68.8123744
 30
0.0
  0
VERTEX
  5
F92
330
1CB
100
AcDbEntity
  8
14_5
 62
     1
100
AcDbVertex
100
AcDb2dVertex
 10
178.0779556
 20
68.1288604
 30
0.0
  0
VERTEX
  5
F93
330
1CB
100
AcDbEntity
  8
14_5
 62
     1
100
AcDbVertex
100
AcDb2dVertex
 10
178.3121436
 20
67.38743439999999
 30
0.0
  0
VERTEX
  5
F94
330
1CB
100
AcDbEntity
  8
14_5
 62
     1
100
AcDbVertex
100
AcDb2dVertex
 10
178.4043456
 20
66.60892439999999
 30
0.0
  0
VERTEX
  5
F95
330
1CB
100
AcDbEntity
  8
14_5
 62
     1
100
AcDbVertex
100
AcDb2dVertex
 10
178.3080796
 20
65.5959724
 30
0.0
  0
VERTEX
  5
F96
330
1CB
100
AcDbEntity
  8
14_5
 62
     1
100
AcDbVertex
100
AcDb2dVertex
 10
177.9992156
 20
64.66201439999999
 30
0.0
  0
VERTEX
  5
F97
330
1CB
100
AcDbEntity
  8
14_5
 62
     1
100
AcDbVertex
100
AcDb2dVertex
 10
177.5046776
 20
63.8253384
 30
0.0
  0
VERTEX
  5
F98
330
1CB
100
AcDbEntity
  8
14_5
 62
     1
100
AcDbVertex
100
AcDb2dVertex
 10
176.8529136
 20
63.1047404
 30
0.0
  0
VERTEX
  5
F99
330
1CB
100
AcDbEntity
  8
14_5
 62
     1
100
AcDbVertex
100
AcDb2dVertex
 10
176.0700856
 20
62.5162224
 30
0.0
  0
VERTEX
  5
F9A
330
1CB
100
AcDbEntity
  8
14_5
 62
     1
100
AcDbVertex
100
AcDb2dVertex
 10
175.1866736
 20
62.0768024
 30
0.0
  0
VERTEX
  5
F9B
330
1CB
100
AcDbEntity
  8
14_5
 62
     1
100
AcDbVertex
100
AcDb2dVertex
 10
174.2303636
 20
61.80502240000001
 30
0.0
  0
VERTEX
  5
F9C
330
1CB
100
AcDbEntity
  8
14_5
 62
     1
100
AcDbVertex
100
AcDb2dVertex
 10
173.2301116
 20
61.71840839999999
 30
0.0
  0
VERTEX
  5
F9D
330
1CB
100
AcDbEntity
  8
14_5
 62
     1
100
AcDbVertex
100
AcDb2dVertex
 10
170.8651176
 20
62.27212839999999
 30
0.0
  0
VERTEX
  5
F9E
330
1CB
100
AcDbEntity
  8
14_5
 62
     1
100
AcDbVertex
100
AcDb2dVertex
 10
168.9898356
 20
63.69986239999999
 30
0.0
  0
VERTEX
  5
F9F
330
1CB
100
AcDbEntity
  8
14_5
 62
     1
100
AcDbVertex
100
AcDb2dVertex
 10
167.7716516
 20
65.74075239999999
 30
0.0
  0
VERTEX
  5
FA0
330
1CB
100
AcDbEntity
  8
14_5
 62
     1
100
AcDbVertex
100
AcDb2dVertex
 10
167.3799836
 20
68.1275904
 30
0.0
  0
VERTEX
  5
FA1
330
1CB
100
AcDbEntity
  8
14_5
 62
     1
100
AcDbVertex
100
AcDb2dVertex
 10
168.0830556
 20
70.89720639999999
 30
0.0
  0
VERTEX
  5
FA2
330
1CB
100
AcDbEntity
  8
14_5
 62
     1
100
AcDbVertex
100
AcDb2dVertex
 10
169.8013656
 20
73.08440039999999
 30
0.0
  0
VERTEX
  5
FA3
330
1CB
100
AcDbEntity
  8
14_5
 62
     1
100
AcDbVertex
100
AcDb2dVertex
 10
172.2268116
 20
74.49003639999998
 30
0.0
  0
VERTEX
  5
FA4
330
1CB
100
AcDbEntity
  8
14_5
 62
     1
100
AcDbVertex
100
AcDb2dVertex
 10
175.0558636
 20
74.91015239999999
 30
0.0
  0
VERTEX
  5
FA5
330
1CB
100
AcDbEntity
  8
14_5
 62
     1
100
AcDbVertex
100
AcDb2dVertex
 10
176.7190556
 20
74.65107239999999
 30
0.0
  0
VERTEX
  5
FA6
330
1CB
100
AcDbEntity
  8
14_5
 62
     1
100
AcDbVertex
100
AcDb2dVertex
 10
178.2430556
 20
74.06001439999999
 30
0.0
  0
VERTEX
  5
FA7
330
1CB
100
AcDbEntity
  8
14_5
 62
     1
100
AcDbVertex
100
AcDb2dVertex
 10
179.5963676
 20
73.18346039999999
 30
0.0
  0
VERTEX
  5
FA8
330
1CB
100
AcDbEntity
  8
14_5
 62
     1
100
AcDbVertex
100
AcDb2dVertex
 10
180.7513056
 20
72.06179639999999
 30
0.0
  0
VERTEX
  5
FA9
330
1CB
100
AcDbEntity
  8
14_5
 62
     1
100
AcDbVertex
100
AcDb2dVertex
 10
181.6789136
 20
70.74023439999999
 30
0.0
  0
VERTEX
  5
FAA
330
1CB
100
AcDbEntity
  8
14_5
 62
     1
100
AcDbVertex
100
AcDb2dVertex
 10
182.3484576
 20
69.26043039999999
 30
0.0
  0
VERTEX
  5
FAB
330
1CB
100
AcDbEntity
  8
14_5
 62
     1
100
AcDbVertex
100
AcDb2dVertex
 10
182.7330136
 20
67.6670884
 30
0.0
  0
VERTEX
  5
FAC
330
1CB
100
AcDbEntity
  8
14_5
 62
     1
100
AcDbVertex
100
AcDb2dVertex
 10
182.8031176
 20
66.0023724
 30
0.0
  0
VERTEX
  5
FAD
330
1CB
100
AcDbEntity
  8
14_5
 62
     1
100
AcDbVertex
100
AcDb2dVertex
 10
182.4876496
 20
64.12836039999999
 30
0.0
  0
VERTEX
  5
FAE
330
1CB
100
AcDbEntity
  8
14_5
 62
     1
100
AcDbVertex
100
AcDb2dVertex
 10
181.8026116
 20
62.4128444
 30
0.0
  0
VERTEX
  5
FAF
330
1CB
100
AcDbEntity
  8
14_5
 62
     1
100
AcDbVertex
100
AcDb2dVertex
 10
180.7939776
 20
60.8913844
 30
0.0
  0
VERTEX
  5
FB0
330
1CB
100
AcDbEntity
  8
14_5
 62
     1
100
AcDbVertex
100
AcDb2dVertex
 10
179.5138176
 20
59.59446040000001
 30
0.0
  0
VERTEX
  5
FB1
330
1CB
100
AcDbEntity
  8
14_5
 62
     1
100
AcDbVertex
100
AcDb2dVertex
 10
178.0063276
 20
58.5583944
 30
0.0
  0
VERTEX
  5
FB2
330
1CB
100
AcDbEntity
  8
14_5
 62
     1
100
AcDbVertex
100
AcDb2dVertex
 10
176.3235776
 20
57.8131584
 30
0.0
  0
VERTEX
  5
FB3
330
1CB
100
AcDbEntity
  8
14_5
 62
     1
100
AcDbVertex
100
AcDb2dVertex
 10
174.5128116
 20
57.3925344
 30
0.0
  0
VERTEX
  5
FB4
330
1CB
100
AcDbEntity
  8
14_5
 62
     1
100
AcDbVertex
100
AcDb2dVertex
 10
172.6238136
 20
57.3290344
 30
0.0
  0
VERTEX
  5
FB5
330
1CB
100
AcDbEntity
  8
14_5
 62
     1
100
AcDbVertex
100
AcDb2dVertex
 10
170.5260276
 20
57.6970804
 30
0.0
  0
VERTEX
  5
FB6
330
1CB
100
AcDbEntity
  8
14_5
 62
     1
100
AcDbVertex
100
AcDb2dVertex
 10
168.6108676
 20
58.47559039999999
 30
0.0
  0
VERTEX
  5
FB7
330
1CB
100
AcDbEntity
  8
14_5
 62
     1
100
AcDbVertex
100
AcDb2dVertex
 10
166.9128776
 20
59.6084304
 30
0.0
  0
VERTEX
  5
FB8
330
1CB
100
AcDbEntity
  8
14_5
 62
     1
100
AcDbVertex
100
AcDb2dVertex
 10
165.4691416
 20
61.04302239999999
 30
0.0
  0
VERTEX
  5
FB9
330
1CB
100
AcDbEntity
  8
14_5
 62
     1
100
AcDbVertex
100
AcDb2dVertex
 10
164.3167436
 20
62.7283124
 30
0.0
  0
VERTEX
  5
FBA
330
1CB
100
AcDbEntity
  8
14_5
 62
     1
100
AcDbVertex
100
AcDb2dVertex
 10
163.4942916
 20
64.6063884
 30
0.0
  0
VERTEX
  5
FBB
330
1CB
100
AcDbEntity
  8
14_5
 62
     1
100
AcDbVertex
100
AcDb2dVertex
 10
163.0365836
 20
66.62695839999999
 30
0.0
  0
VERTEX
  5
FBC
330
1CB
100
AcDbEntity
  8
14_5
 62
     1
100
AcDbVertex
100
AcDb2dVertex
 10
162.9814656
 20
68.73388839999998
 30
0.0
  0
VERTEX
  5
FBD
330
1CB
100
AcDbEntity
  8
14_5
 62
     1
100
AcDbVertex
100
AcDb2dVertex
 10
163.4031056
 20
71.0407164
 30
0.0
  0
VERTEX
  5
FBE
330
1CB
100
AcDbEntity
  8
14_5
 62
     1
100
AcDbVertex
100
AcDb2dVertex
 10
164.2755956
 20
73.14764639999999
 30
0.0
  0
VERTEX
  5
FBF
330
1CB
100
AcDbEntity
  8
14_5
 62
     1
100
AcDbVertex
100
AcDb2dVertex
 10
165.5392456
 20
75.01200639999999
 30
0.0
  0
VERTEX
  5
FC0
330
1CB
100
AcDbEntity
  8
14_5
 62
     1
100
AcDbVertex
100
AcDb2dVertex
 10
167.1361436
 20
76.5969664
 30
0.0
  0
VERTEX
  5
FC1
330
1CB
100
AcDbEntity
  8
14_5
 62
     1
100
AcDbVertex
100
AcDb2dVertex
 10
169.0048216
 20
77.85782239999999
 30
0.0
  0
VERTEX
  5
FC2
330
1CB
100
AcDbEntity
  8
14_5
 62
     1
100
AcDbVertex
100
AcDb2dVertex
 10
171.0899076
 20
78.75647439999999
 30
0.0
  0
VERTEX
  5
FC3
330
1CB
100
AcDbEntity
  8
14_5
 62
     1
100
AcDbVertex
100
AcDb2dVertex
 10
173.3279016
 20
79.24948839999999
 30
0.0
  0
VERTEX
  5
FC4
330
1CB
100
AcDbEntity
  8
14_5
 62
     1
100
AcDbVertex
100
AcDb2dVertex
 10
175.6636856
 20
79.29800239999999
 30
0.0
  0
VERTEX
  5
FC5
330
1CB
100
AcDbEntity
  8
14_5
 62
     1
100
AcDbVertex
100
AcDb2dVertex
 10
178.1909856
 20
78.82378439999998
 30
0.0
  0
VERTEX
  5
FC6
330
1CB
100
AcDbEntity
  8
14_5
 62
     1
100
AcDbVertex
100
AcDb2dVertex
 10
180.4990836
 20
77.8606164
 30
0.0
  0
VERTEX
  5
FC7
330
1CB
100
AcDbEntity
  8
14_5
 62
     1
100
AcDbVertex
100
AcDb2dVertex
 10
182.5412436
 20
76.4714904
 30
0.0
  0
VERTEX
  5
FC8
330
1CB
100
AcDbEntity
  8
14_5
 62
     1
100
AcDbVertex
100
AcDb2dVertex
 10
184.2735236
 20
74.72143039999999
 30
0.0
  0
VERTEX
  5
FC9
330
1CB
100
AcDbEntity
  8
14_5
 62
     1
100
AcDbVertex
100
AcDb2dVertex
 10
185.6504576
 20
72.6749524
 30
0.0
  0
VERTEX
  5
FCA
330
1CB
100
AcDbEntity
  8
14_5
 62
     1
100
AcDbVertex
100
AcDb2dVertex
 10
186.6273416
 20
70.3970804
 30
0.0
  0
VERTEX
  5
FCB
330
1CB
100
AcDbEntity
  8
14_5
 62
     1
100
AcDbVertex
100
AcDb2dVertex
 10
187.1576936
 20
67.9497904
 30
0.0
  0
VERTEX
  5
FCC
330
1CB
100
AcDbEntity
  8
14_5
 62
     1
100
AcDbVertex
100
AcDb2dVertex
 10
187.2006196
 20
65.39785239999999
 30
0.0
  0
VERTEX
  5
FCD
330
1CB
100
AcDbEntity
  8
14_5
 62
     1
100
AcDbVertex
100
AcDb2dVertex
 10
186.1531236
 20
61.2662884
 30
0.0
  0
VERTEX
  5
FCE
330
1CB
100
AcDbEntity
  8
14_5
 62
     1
100
AcDbVertex
100
AcDb2dVertex
 10
183.9082716
 20
57.7151144
 30
0.0
  0
VERTEX
  5
FCF
330
1CB
100
AcDbEntity
  8
14_5
 62
     1
100
AcDbVertex
100
AcDb2dVertex
 10
180.7015216
 20
54.9851224
 30
0.0
  0
VERTEX
  5
FD0
330
1CB
100
AcDbEntity
  8
14_5
 62
     1
100
AcDbVertex
100
AcDb2dVertex
 10
176.7726496
 20
53.3160884
 30
0.0
  0
SEQEND
  5
1480
330
1CB
100
AcDbEntity
  8
14_5
 62
     1
  0
POLYLINE
  5
21E
330
1D
100
AcDbEntity
  8
14_5
 62
     1
100
AcDb2dPolyline
 66
     1
 10
0.0
 20
0.0
 30
0.0
 70
     1
 40
4.6391576
 41
4.6391576
  0
VERTEX
  5
FD1
330
21E
100
AcDbEntity
  8
14_5
 62
     1
100
AcDbVertex
100
AcDb2dVertex
 10
188.2242396
 20
66.44103039999999
 30
0.0
  0
VERTEX
  5
FD2
330
21E
100
AcDbEntity
  8
14_5
 62
     1
100
AcDbVertex
100
AcDb2dVertex
 10
187.9435696
 20
63.65998439999999
 30
0.0
  0
VERTEX
  5
FD3
330
21E
100
AcDbEntity
  8
14_5
 62
     1
100
AcDbVertex
100
AcDb2dVertex
 10
187.1399136
 20
61.07070839999999
 30
0.0
  0
VERTEX
  5
FD4
330
21E
100
AcDbEntity
  8
14_5
 62
     1
100
AcDbVertex
100
AcDb2dVertex
 10
185.8666116
 20
58.7262884
 30
0.0
  0
VERTEX
  5
FD5
330
21E
100
AcDbEntity
  8
14_5
 62
     1
100
AcDbVertex
100
AcDb2dVertex
 10
184.1825916
 20
56.6841284
 30
0.0
  0
VERTEX
  5
FD6
330
21E
100
AcDbEntity
  8
14_5
 62
     1
100
AcDbVertex
100
AcDb2dVertex
 10
182.1401776
 20
54.9988384
 30
0.0
  0
VERTEX
  5
FD7
330
21E
100
AcDbEntity
  8
14_5
 62
     1
100
AcDbVertex
100
AcDb2dVertex
 10
179.7965196
 20
53.7273144
 30
0.0
  0
VERTEX
  5
FD8
330
21E
100
AcDbEntity
  8
14_5
 62
     1
100
AcDbVertex
100
AcDb2dVertex
 10
177.2057196
 20
52.9221344
 30
0.0
  0
VERTEX
  5
FD9
330
21E
100
AcDbEntity
  8
14_5
 62
     1
100
AcDbVertex
100
AcDb2dVertex
 10
174.4246736
 20
52.6409564
 30
0.0
  0
VERTEX
  5
FDA
330
21E
100
AcDbEntity
  8
14_5
 62
     1
100
AcDbVertex
100
AcDb2dVertex
 10
171.6426116
 20
52.9221344
 30
0.0
  0
VERTEX
  5
FDB
330
21E
100
AcDbEntity
  8
14_5
 62
     1
100
AcDbVertex
100
AcDb2dVertex
 10
169.0518116
 20
53.7273144
 30
0.0
  0
VERTEX
  5
FDC
330
21E
100
AcDbEntity
  8
14_5
 62
     1
100
AcDbVertex
100
AcDb2dVertex
 10
166.7076456
 20
54.9988384
 30
0.0
  0
VERTEX
  5
FDD
330
21E
100
AcDbEntity
  8
14_5
 62
     1
100
AcDbVertex
100
AcDb2dVertex
 10
164.6654856
 20
56.6841284
 30
0.0
  0
VERTEX
  5
FDE
330
21E
100
AcDbEntity
  8
14_5
 62
     1
100
AcDbVertex
100
AcDb2dVertex
 10
162.9814656
 20
58.7262884
 30
0.0
  0
VERTEX
  5
FDF
330
21E
100
AcDbEntity
  8
14_5
 62
     1
100
AcDbVertex
100
AcDb2dVertex
 10
161.7081636
 20
61.07070839999999
 30
0.0
  0
VERTEX
  5
FE0
330
21E
100
AcDbEntity
  8
14_5
 62
     1
100
AcDbVertex
100
AcDb2dVertex
 10
160.9047616
 20
63.65998439999999
 30
0.0
  0
VERTEX
  5
FE1
330
21E
100
AcDbEntity
  8
14_5
 62
     1
100
AcDbVertex
100
AcDb2dVertex
 10
160.6251076
 20
66.44103039999999
 30
0.0
  0
VERTEX
  5
FE2
330
21E
100
AcDbEntity
  8
14_5
 62
     1
100
AcDbVertex
100
AcDb2dVertex
 10
160.9047616
 20
69.2228384
 30
0.0
  0
VERTEX
  5
FE3
330
21E
100
AcDbEntity
  8
14_5
 62
     1
100
AcDbVertex
100
AcDb2dVertex
 10
161.7081636
 20
71.81363839999999
 30
0.0
  0
VERTEX
  5
FE4
330
21E
100
AcDbEntity
  8
14_5
 62
     1
100
AcDbVertex
100
AcDb2dVertex
 10
162.9814656
 20
74.15805839999999
 30
0.0
  0
VERTEX
  5
FE5
330
21E
100
AcDbEntity
  8
14_5
 62
     1
100
AcDbVertex
100
AcDb2dVertex
 10
164.6654856
 20
76.20021839999998
 30
0.0
  0
VERTEX
  5
FE6
330
21E
100
AcDbEntity
  8
14_5
 62
     1
100
AcDbVertex
100
AcDb2dVertex
 10
166.7076456
 20
77.88550839999999
 30
0.0
  0
VERTEX
  5
FE7
330
21E
100
AcDbEntity
  8
14_5
 62
     1
100
AcDbVertex
100
AcDb2dVertex
 10
169.0518116
 20
79.15728639999999
 30
0.0
  0
VERTEX
  5
FE8
330
21E
100
AcDbEntity
  8
14_5
 62
     1
100
AcDbVertex
100
AcDb2dVertex
 10
171.6426116
 20
79.96221239999998
 30
0.0
  0
VERTEX
  5
FE9
330
21E
100
AcDbEntity
  8
14_5
 62
     1
100
AcDbVertex
100
AcDb2dVertex
 10
174.4246736
 20
80.24186639999999
 30
0.0
  0
VERTEX
  5
FEA
330
21E
100
AcDbEntity
  8
14_5
 62
     1
100
AcDbVertex
100
AcDb2dVertex
 10
177.2057196
 20
79.96221239999998
 30
0.0
  0
VERTEX
  5
FEB
330
21E
100
AcDbEntity
  8
14_5
 62
     1
100
AcDbVertex
100
AcDb2dVertex
 10
179.7965196
 20
79.15728639999999
 30
0.0
  0
VERTEX
  5
FEC
330
21E
100
AcDbEntity
  8
14_5
 62
     1
100
AcDbVertex
100
AcDb2dVertex
 10
182.1401776
 20
77.88550839999999
 30
0.0
  0
VERTEX
  5
FED
330
21E
100
AcDbEntity
  8
14_5
 62
     1
100
AcDbVertex
100
AcDb2dVertex
 10
184.1825916
 20
76.20021839999998
 30
0.0
  0
VERTEX
  5
FEE
330
21E
100
AcDbEntity
  8
14_5
 62
     1
100
AcDbVertex
100
AcDb2dVertex
 10
185.8666116
 20
74.15805839999999
 30
0.0
  0
VERTEX
  5
FEF
330
21E
100
AcDbEntity
  8
14_5
 62
     1
100
AcDbVertex
100
AcDb2dVertex
 10
187.1399136
 20
71.81363839999999
 30
0.0
  0
VERTEX
  5
FF0
330
21E
100
AcDbEntity
  8
14_5
 62
     1
100
AcDbVertex
100
AcDb2dVertex
 10
187.9435696
 20
69.2228384
 30
0.0
  0
VERTEX
  5
FF1
330
21E
100
AcDbEntity
  8
14_5
 62
     1
100
AcDbVertex
100
AcDb2dVertex
 10
188.2242396
 20
66.44103039999999
 30
0.0
  0
SEQEND
  5
1481
330
21E
100
AcDbEntity
  8
14_5
 62
     1
  0
POLYLINE
  5
241
330
1D
100
AcDbEntity
  8
14_5
 62
     1
100
AcDb2dPolyline
 66
     1
 10
0.0
 20
0.0
 30
0.0
 40
6.007176199999999
 41
6.007176199999999
  0
VERTEX
  5
FF2
330
241
100
AcDbEntity
  8
14_5
 62
     1
100
AcDbVertex
100
AcDb2dVertex
 10
286.7526176
 20
67.21522239999999
 30
0.0
  0
VERTEX
  5
FF3
330
241
100
AcDbEntity
  8
14_5
 62
     1
100
AcDbVertex
100
AcDb2dVertex
 10
287.0548776000001
 20
67.02091239999999
 30
0.0
  0
VERTEX
  5
FF4
330
241
100
AcDbEntity
  8
14_5
 62
     1
100
AcDbVertex
100
AcDb2dVertex
 10
287.0523376
 20
66.68182239999999
 30
0.0
  0
VERTEX
  5
FF5
330
241
100
AcDbEntity
  8
14_5
 62
     1
100
AcDbVertex
100
AcDb2dVertex
 10
286.8542176
 20
66.3333344
 30
0.0
  0
VERTEX
  5
FF6
330
241
100
AcDbEntity
  8
14_5
 62
     1
100
AcDbVertex
100
AcDb2dVertex
 10
286.5849776000001
 20
66.10575039999999
 30
0.0
  0
VERTEX
  5
FF7
330
241
100
AcDbEntity
  8
14_5
 62
     1
100
AcDbVertex
100
AcDb2dVertex
 10
285.8737776
 20
66.01761239999999
 30
0.0
  0
VERTEX
  5
FF8
330
241
100
AcDbEntity
  8
14_5
 62
     1
100
AcDbVertex
100
AcDb2dVertex
 10
285.2489376
 20
66.31530039999998
 30
0.0
  0
VERTEX
  5
FF9
330
241
100
AcDbEntity
  8
14_5
 62
     1
100
AcDbVertex
100
AcDb2dVertex
 10
284.7764976
 20
66.86241639999999
 30
0.0
  0
VERTEX
  5
FFA
330
241
100
AcDbEntity
  8
14_5
 62
     1
100
AcDbVertex
100
AcDb2dVertex
 10
284.5250376
 20
67.5210384
 30
0.0
  0
VERTEX
  5
FFB
330
241
100
AcDbEntity
  8
14_5
 62
     1
100
AcDbVertex
100
AcDb2dVertex
 10
284.6164776000001
 20
68.6482904
 30
0.0
  0
VERTEX
  5
FFC
330
241
100
AcDbEntity
  8
14_5
 62
     1
100
AcDbVertex
100
AcDb2dVertex
 10
285.1930576
 20
69.57996239999999
 30
0.0
  0
VERTEX
  5
FFD
330
241
100
AcDbEntity
  8
14_5
 62
     1
100
AcDbVertex
100
AcDb2dVertex
 10
286.1074576
 20
70.23325039999999
 30
0.0
  0
VERTEX
  5
FFE
330
241
100
AcDbEntity
  8
14_5
 62
     1
100
AcDbVertex
100
AcDb2dVertex
 10
287.1971176
 20
70.5212864
 30
0.0
  0
VERTEX
  5
FFF
330
241
100
AcDbEntity
  8
14_5
 62
     1
100
AcDbVertex
100
AcDb2dVertex
 10
287.9972176000001
 20
70.4852184
 30
0.0
  0
VERTEX
  5
1000
330
241
100
AcDbEntity
  8
14_5
 62
     1
100
AcDbVertex
100
AcDb2dVertex
 10
288.7363576
 20
70.27185839999999
 30
0.0
  0
VERTEX
  5
1001
330
241
100
AcDbEntity
  8
14_5
 62
     1
100
AcDbVertex
100
AcDb2dVertex
 10
289.4043776
 20
69.90660639999999
 30
0.0
  0
VERTEX
  5
1002
330
241
100
AcDbEntity
  8
14_5
 62
     1
100
AcDbVertex
100
AcDb2dVertex
 10
289.9834976
 20
69.4115604
 30
0.0
  0
VERTEX
  5
1003
330
241
100
AcDbEntity
  8
14_5
 62
     1
100
AcDbVertex
100
AcDb2dVertex
 10
290.4635576
 20
68.8123744
 30
0.0
  0
VERTEX
  5
1004
330
241
100
AcDbEntity
  8
14_5
 62
     1
100
AcDbVertex
100
AcDb2dVertex
 10
290.8242376000001
 20
68.1288604
 30
0.0
  0
VERTEX
  5
1005
330
241
100
AcDbEntity
  8
14_5
 62
     1
100
AcDbVertex
100
AcDb2dVertex
 10
291.0579176000001
 20
67.38743439999999
 30
0.0
  0
VERTEX
  5
1006
330
241
100
AcDbEntity
  8
14_5
 62
     1
100
AcDbVertex
100
AcDb2dVertex
 10
291.1518976
 20
66.60892439999999
 30
0.0
  0
VERTEX
  5
1007
330
241
100
AcDbEntity
  8
14_5
 62
     1
100
AcDbVertex
100
AcDb2dVertex
 10
291.0553776
 20
65.5959724
 30
0.0
  0
VERTEX
  5
1008
330
241
100
AcDbEntity
  8
14_5
 62
     1
100
AcDbVertex
100
AcDb2dVertex
 10
290.7454976
 20
64.66201439999999
 30
0.0
  0
VERTEX
  5
1009
330
241
100
AcDbEntity
  8
14_5
 62
     1
100
AcDbVertex
100
AcDb2dVertex
 10
290.2501976
 20
63.8253384
 30
0.0
  0
VERTEX
  5
100A
330
241
100
AcDbEntity
  8
14_5
 62
     1
100
AcDbVertex
100
AcDb2dVertex
 10
289.5999576
 20
63.1047404
 30
0.0
  0
VERTEX
  5
100B
330
241
100
AcDbEntity
  8
14_5
 62
     1
100
AcDbVertex
100
AcDb2dVertex
 10
288.8176376
 20
62.5162224
 30
0.0
  0
VERTEX
  5
100C
330
241
100
AcDbEntity
  8
14_5
 62
     1
100
AcDbVertex
100
AcDb2dVertex
 10
287.9362576
 20
62.0768024
 30
0.0
  0
VERTEX
  5
100D
330
241
100
AcDbEntity
  8
14_5
 62
     1
100
AcDbVertex
100
AcDb2dVertex
 10
286.9786776
 20
61.80502240000001
 30
0.0
  0
VERTEX
  5
100E
330
241
100
AcDbEntity
  8
14_5
 62
     1
100
AcDbVertex
100
AcDb2dVertex
 10
285.9779176
 20
61.71840839999999
 30
0.0
  0
VERTEX
  5
100F
330
241
100
AcDbEntity
  8
14_5
 62
     1
100
AcDbVertex
100
AcDb2dVertex
 10
283.6131776
 20
62.27212839999999
 30
0.0
  0
VERTEX
  5
1010
330
241
100
AcDbEntity
  8
14_5
 62
     1
100
AcDbVertex
100
AcDb2dVertex
 10
281.7361176
 20
63.69986239999999
 30
0.0
  0
VERTEX
  5
1011
330
241
100
AcDbEntity
  8
14_5
 62
     1
100
AcDbVertex
100
AcDb2dVertex
 10
280.5194576
 20
65.74075239999999
 30
0.0
  0
VERTEX
  5
1012
330
241
100
AcDbEntity
  8
14_5
 62
     1
100
AcDbVertex
100
AcDb2dVertex
 10
280.1282976
 20
68.1275904
 30
0.0
  0
VERTEX
  5
1013
330
241
100
AcDbEntity
  8
14_5
 62
     1
100
AcDbVertex
100
AcDb2dVertex
 10
280.8293376
 20
70.89720639999999
 30
0.0
  0
VERTEX
  5
1014
330
241
100
AcDbEntity
  8
14_5
 62
     1
100
AcDbVertex
100
AcDb2dVertex
 10
282.5489176
 20
73.08440039999999
 30
0.0
  0
VERTEX
  5
1015
330
241
100
AcDbEntity
  8
14_5
 62
     1
100
AcDbVertex
100
AcDb2dVertex
 10
284.9746176
 20
74.49003639999998
 30
0.0
  0
VERTEX
  5
1016
330
241
100
AcDbEntity
  8
14_5
 62
     1
100
AcDbVertex
100
AcDb2dVertex
 10
287.8041776000001
 20
74.91015239999999
 30
0.0
  0
VERTEX
  5
1017
330
241
100
AcDbEntity
  8
14_5
 62
     1
100
AcDbVertex
100
AcDb2dVertex
 10
289.4678776000001
 20
74.65107239999999
 30
0.0
  0
VERTEX
  5
1018
330
241
100
AcDbEntity
  8
14_5
 62
     1
100
AcDbVertex
100
AcDb2dVertex
 10
290.9918776
 20
74.06001439999999
 30
0.0
  0
VERTEX
  5
1019
330
241
100
AcDbEntity
  8
14_5
 62
     1
100
AcDbVertex
100
AcDb2dVertex
 10
292.3456976
 20
73.18346039999999
 30
0.0
  0
VERTEX
  5
101A
330
241
100
AcDbEntity
  8
14_5
 62
     1
100
AcDbVertex
100
AcDb2dVertex
 10
293.4988576
 20
72.06179639999999
 30
0.0
  0
VERTEX
  5
101B
330
241
100
AcDbEntity
  8
14_5
 62
     1
100
AcDbVertex
100
AcDb2dVertex
 10
294.4259576000001
 20
70.74023439999999
 30
0.0
  0
VERTEX
  5
101C
330
241
100
AcDbEntity
  8
14_5
 62
     1
100
AcDbVertex
100
AcDb2dVertex
 10
295.0965176
 20
69.26043039999999
 30
0.0
  0
VERTEX
  5
101D
330
241
100
AcDbEntity
  8
14_5
 62
     1
100
AcDbVertex
100
AcDb2dVertex
 10
295.4800576
 20
67.6670884
 30
0.0
  0
VERTEX
  5
101E
330
241
100
AcDbEntity
  8
14_5
 62
     1
100
AcDbVertex
100
AcDb2dVertex
 10
295.5511776
 20
66.0023724
 30
0.0
  0
VERTEX
  5
101F
330
241
100
AcDbEntity
  8
14_5
 62
     1
100
AcDbVertex
100
AcDb2dVertex
 10
295.2336776
 20
64.12836039999999
 30
0.0
  0
VERTEX
  5
1020
330
241
100
AcDbEntity
  8
14_5
 62
     1
100
AcDbVertex
100
AcDb2dVertex
 10
294.5504176
 20
62.4128444
 30
0.0
  0
VERTEX
  5
1021
330
241
100
AcDbEntity
  8
14_5
 62
     1
100
AcDbVertex
100
AcDb2dVertex
 10
293.5420376
 20
60.8913844
 30
0.0
  0
VERTEX
  5
1022
330
241
100
AcDbEntity
  8
14_5
 62
     1
100
AcDbVertex
100
AcDb2dVertex
 10
292.2618776
 20
59.59446040000001
 30
0.0
  0
VERTEX
  5
1023
330
241
100
AcDbEntity
  8
14_5
 62
     1
100
AcDbVertex
100
AcDb2dVertex
 10
290.7556576
 20
58.5583944
 30
0.0
  0
VERTEX
  5
1024
330
241
100
AcDbEntity
  8
14_5
 62
     1
100
AcDbVertex
100
AcDb2dVertex
 10
289.0716376
 20
57.8131584
 30
0.0
  0
VERTEX
  5
1025
330
241
100
AcDbEntity
  8
14_5
 62
     1
100
AcDbVertex
100
AcDb2dVertex
 10
287.2606176
 20
57.3925344
 30
0.0
  0
VERTEX
  5
1026
330
241
100
AcDbEntity
  8
14_5
 62
     1
100
AcDbVertex
100
AcDb2dVertex
 10
285.3708576
 20
57.3290344
 30
0.0
  0
VERTEX
  5
1027
330
241
100
AcDbEntity
  8
14_5
 62
     1
100
AcDbVertex
100
AcDb2dVertex
 10
283.2728176000001
 20
57.6970804
 30
0.0
  0
VERTEX
  5
1028
330
241
100
AcDbEntity
  8
14_5
 62
     1
100
AcDbVertex
100
AcDb2dVertex
 10
281.3601976
 20
58.47559039999999
 30
0.0
  0
VERTEX
  5
1029
330
241
100
AcDbEntity
  8
14_5
 62
     1
100
AcDbVertex
100
AcDb2dVertex
 10
279.6609376
 20
59.6084304
 30
0.0
  0
VERTEX
  5
102A
330
241
100
AcDbEntity
  8
14_5
 62
     1
100
AcDbVertex
100
AcDb2dVertex
 10
278.2182176
 20
61.04302239999999
 30
0.0
  0
VERTEX
  5
102B
330
241
100
AcDbEntity
  8
14_5
 62
     1
100
AcDbVertex
100
AcDb2dVertex
 10
277.0650576
 20
62.7283124
 30
0.0
  0
VERTEX
  5
102C
330
241
100
AcDbEntity
  8
14_5
 62
     1
100
AcDbVertex
100
AcDb2dVertex
 10
276.2420976
 20
64.6063884
 30
0.0
  0
VERTEX
  5
102D
330
241
100
AcDbEntity
  8
14_5
 62
     1
100
AcDbVertex
100
AcDb2dVertex
 10
275.7848976
 20
66.62695839999999
 30
0.0
  0
VERTEX
  5
102E
330
241
100
AcDbEntity
  8
14_5
 62
     1
100
AcDbVertex
100
AcDb2dVertex
 10
275.7290176
 20
68.73388839999998
 30
0.0
  0
VERTEX
  5
102F
330
241
100
AcDbEntity
  8
14_5
 62
     1
100
AcDbVertex
100
AcDb2dVertex
 10
276.1506576
 20
71.0407164
 30
0.0
  0
VERTEX
  5
1030
330
241
100
AcDbEntity
  8
14_5
 62
     1
100
AcDbVertex
100
AcDb2dVertex
 10
277.0218776
 20
73.14764639999999
 30
0.0
  0
VERTEX
  5
1031
330
241
100
AcDbEntity
  8
14_5
 62
     1
100
AcDbVertex
100
AcDb2dVertex
 10
278.2867976
 20
75.01200639999999
 30
0.0
  0
VERTEX
  5
1032
330
241
100
AcDbEntity
  8
14_5
 62
     1
100
AcDbVertex
100
AcDb2dVertex
 10
279.8844576
 20
76.5969664
 30
0.0
  0
VERTEX
  5
1033
330
241
100
AcDbEntity
  8
14_5
 62
     1
100
AcDbVertex
100
AcDb2dVertex
 10
281.7538976
 20
77.85782239999999
 30
0.0
  0
VERTEX
  5
1034
330
241
100
AcDbEntity
  8
14_5
 62
     1
100
AcDbVertex
100
AcDb2dVertex
 10
283.8366976
 20
78.75647439999999
 30
0.0
  0
VERTEX
  5
1035
330
241
100
AcDbEntity
  8
14_5
 62
     1
100
AcDbVertex
100
AcDb2dVertex
 10
286.0769776
 20
79.24948839999999
 30
0.0
  0
VERTEX
  5
1036
330
241
100
AcDbEntity
  8
14_5
 62
     1
100
AcDbVertex
100
AcDb2dVertex
 10
288.4112376
 20
79.29800239999999
 30
0.0
  0
VERTEX
  5
1037
330
241
100
AcDbEntity
  8
14_5
 62
     1
100
AcDbVertex
100
AcDb2dVertex
 10
290.9385376
 20
78.82378439999998
 30
0.0
  0
VERTEX
  5
1038
330
241
100
AcDbEntity
  8
14_5
 62
     1
100
AcDbVertex
100
AcDb2dVertex
 10
293.2473976000001
 20
77.8606164
 30
0.0
  0
VERTEX
  5
1039
330
241
100
AcDbEntity
  8
14_5
 62
     1
100
AcDbVertex
100
AcDb2dVertex
 10
295.2895576
 20
76.4714904
 30
0.0
  0
VERTEX
  5
103A
330
241
100
AcDbEntity
  8
14_5
 62
     1
100
AcDbVertex
100
AcDb2dVertex
 10
297.0218376
 20
74.72143039999999
 30
0.0
  0
VERTEX
  5
103B
330
241
100
AcDbEntity
  8
14_5
 62
     1
100
AcDbVertex
100
AcDb2dVertex
 10
298.3985176
 20
72.6749524
 30
0.0
  0
VERTEX
  5
103C
330
241
100
AcDbEntity
  8
14_5
 62
     1
100
AcDbVertex
100
AcDb2dVertex
 10
299.3764176
 20
70.3970804
 30
0.0
  0
VERTEX
  5
103D
330
241
100
AcDbEntity
  8
14_5
 62
     1
100
AcDbVertex
100
AcDb2dVertex
 10
299.9072776
 20
67.9497904
 30
0.0
  0
VERTEX
  5
103E
330
241
100
AcDbEntity
  8
14_5
 62
     1
100
AcDbVertex
100
AcDb2dVertex
 10
299.9479176
 20
65.39785239999999
 30
0.0
  0
VERTEX
  5
103F
330
241
100
AcDbEntity
  8
14_5
 62
     1
100
AcDbVertex
100
AcDb2dVertex
 10
298.9014376
 20
61.2662884
 30
0.0
  0
VERTEX
  5
1040
330
241
100
AcDbEntity
  8
14_5
 62
     1
100
AcDbVertex
100
AcDb2dVertex
 10
296.6560776
 20
57.7151144
 30
0.0
  0
VERTEX
  5
1041
330
241
100
AcDbEntity
  8
14_5
 62
     1
100
AcDbVertex
100
AcDb2dVertex
 10
293.4505976
 20
54.9851224
 30
0.0
  0
VERTEX
  5
1042
330
241
100
AcDbEntity
  8
14_5
 62
     1
100
AcDbVertex
100
AcDb2dVertex
 10
289.5212176
 20
53.3160884
 30
0.0
  0
SEQEND
  5
1482
330
241
100
AcDbEntity
  8
14_5
 62
     1
  0
POLYLINE
  5
294
330
1D
100
AcDbEntity
  8
14_5
 62
     1
100
AcDb2dPolyline
 66
     1
 10
0.0
 20
0.0
 30
0.0
 70
     1
 40
4.6391576
 41
4.6391576
  0
VERTEX
  5
1043
330
294
100
AcDbEntity
  8
14_5
 62
     1
100
AcDbVertex
100
AcDb2dVertex
 10
300.9715376
 20
66.44103039999999
 30
0.0
  0
VERTEX
  5
1044
330
294
100
AcDbEntity
  8
14_5
 62
     1
100
AcDbVertex
100
AcDb2dVertex
 10
300.6921376
 20
63.65998439999999
 30
0.0
  0
VERTEX
  5
1045
330
294
100
AcDbEntity
  8
14_5
 62
     1
100
AcDbVertex
100
AcDb2dVertex
 10
299.8869576
 20
61.07070839999999
 30
0.0
  0
VERTEX
  5
1046
330
294
100
AcDbEntity
  8
14_5
 62
     1
100
AcDbVertex
100
AcDb2dVertex
 10
298.6144176
 20
58.7262884
 30
0.0
  0
VERTEX
  5
1047
330
294
100
AcDbEntity
  8
14_5
 62
     1
100
AcDbVertex
100
AcDb2dVertex
 10
296.9303976
 20
56.6841284
 30
0.0
  0
VERTEX
  5
1048
330
294
100
AcDbEntity
  8
14_5
 62
     1
100
AcDbVertex
100
AcDb2dVertex
 10
294.8882376
 20
54.9988384
 30
0.0
  0
VERTEX
  5
1049
330
294
100
AcDbEntity
  8
14_5
 62
     1
100
AcDbVertex
100
AcDb2dVertex
 10
292.5438176
 20
53.7273144
 30
0.0
  0
VERTEX
  5
104A
330
294
100
AcDbEntity
  8
14_5
 62
     1
100
AcDbVertex
100
AcDb2dVertex
 10
289.9530176000001
 20
52.9221344
 30
0.0
  0
VERTEX
  5
104B
330
294
100
AcDbEntity
  8
14_5
 62
     1
100
AcDbVertex
100
AcDb2dVertex
 10
287.1742576
 20
52.6409564
 30
0.0
  0
VERTEX
  5
104C
330
294
100
AcDbEntity
  8
14_5
 62
     1
100
AcDbVertex
100
AcDb2dVertex
 10
284.3904176
 20
52.9221344
 30
0.0
  0
VERTEX
  5
104D
330
294
100
AcDbEntity
  8
14_5
 62
     1
100
AcDbVertex
100
AcDb2dVertex
 10
281.7996176
 20
53.7273144
 30
0.0
  0
VERTEX
  5
104E
330
294
100
AcDbEntity
  8
14_5
 62
     1
100
AcDbVertex
100
AcDb2dVertex
 10
279.4551976
 20
54.9988384
 30
0.0
  0
VERTEX
  5
104F
330
294
100
AcDbEntity
  8
14_5
 62
     1
100
AcDbVertex
100
AcDb2dVertex
 10
277.4130376000001
 20
56.6841284
 30
0.0
  0
VERTEX
  5
1050
330
294
100
AcDbEntity
  8
14_5
 62
     1
100
AcDbVertex
100
AcDb2dVertex
 10
275.7290176
 20
58.7262884
 30
0.0
  0
VERTEX
  5
1051
330
294
100
AcDbEntity
  8
14_5
 62
     1
100
AcDbVertex
100
AcDb2dVertex
 10
274.4564776
 20
61.07070839999999
 30
0.0
  0
VERTEX
  5
1052
330
294
100
AcDbEntity
  8
14_5
 62
     1
100
AcDbVertex
100
AcDb2dVertex
 10
273.6512976
 20
63.65998439999999
 30
0.0
  0
VERTEX
  5
1053
330
294
100
AcDbEntity
  8
14_5
 62
     1
100
AcDbVertex
100
AcDb2dVertex
 10
273.3718976
 20
66.44103039999999
 30
0.0
  0
VERTEX
  5
1054
330
294
100
AcDbEntity
  8
14_5
 62
     1
100
AcDbVertex
100
AcDb2dVertex
 10
273.6512976
 20
69.2228384
 30
0.0
  0
VERTEX
  5
1055
330
294
100
AcDbEntity
  8
14_5
 62
     1
100
AcDbVertex
100
AcDb2dVertex
 10
274.4564776
 20
71.81363839999999
 30
0.0
  0
VERTEX
  5
1056
330
294
100
AcDbEntity
  8
14_5
 62
     1
100
AcDbVertex
100
AcDb2dVertex
 10
275.7290176
 20
74.15805839999999
 30
0.0
  0
VERTEX
  5
1057
330
294
100
AcDbEntity
  8
14_5
 62
     1
100
AcDbVertex
100
AcDb2dVertex
 10
277.4130376000001
 20
76.20021839999998
 30
0.0
  0
VERTEX
  5
1058
330
294
100
AcDbEntity
  8
14_5
 62
     1
100
AcDbVertex
100
AcDb2dVertex
 10
279.4551976
 20
77.88550839999999
 30
0.0
  0
VERTEX
  5
1059
330
294
100
AcDbEntity
  8
14_5
 62
     1
100
AcDbVertex
100
AcDb2dVertex
 10
281.7996176
 20
79.15728639999999
 30
0.0
  0
VERTEX
  5
105A
330
294
100
AcDbEntity
  8
14_5
 62
     1
100
AcDbVertex
100
AcDb2dVertex
 10
284.3904176
 20
79.96221239999998
 30
0.0
  0
VERTEX
  5
105B
330
294
100
AcDbEntity
  8
14_5
 62
     1
100
AcDbVertex
100
AcDb2dVertex
 10
287.1742576
 20
80.24186639999999
 30
0.0
  0
VERTEX
  5
105C
330
294
100
AcDbEntity
  8
14_5
 62
     1
100
AcDbVertex
100
AcDb2dVertex
 10
289.9530176000001
 20
79.96221239999998
 30
0.0
  0
VERTEX
  5
105D
330
294
100
AcDbEntity
  8
14_5
 62
     1
100
AcDbVertex
100
AcDb2dVertex
 10
292.5438176
 20
79.15728639999999
 30
0.0
  0
VERTEX
  5
105E
330
294
100
AcDbEntity
  8
14_5
 62
     1
100
AcDbVertex
100
AcDb2dVertex
 10
294.8882376
 20
77.88550839999999
 30
0.0
  0
VERTEX
  5
105F
330
294
100
AcDbEntity
  8
14_5
 62
     1
100
AcDbVertex
100
AcDb2dVertex
 10
296.9303976
 20
76.20021839999998
 30
0.0
  0
VERTEX
  5
1060
330
294
100
AcDbEntity
  8
14_5
 62
     1
100
AcDbVertex
100
AcDb2dVertex
 10
298.6144176
 20
74.15805839999999
 30
0.0
  0
VERTEX
  5
1061
330
294
100
AcDbEntity
  8
14_5
 62
     1
100
AcDbVertex
100
AcDb2dVertex
 10
299.8869576
 20
71.81363839999999
 30
0.0
  0
VERTEX
  5
1062
330
294
100
AcDbEntity
  8
14_5
 62
     1
100
AcDbVertex
100
AcDb2dVertex
 10
300.6921376
 20
69.2228384
 30
0.0
  0
VERTEX
  5
1063
330
294
100
AcDbEntity
  8
14_5
 62
     1
100
AcDbVertex
100
AcDb2dVertex
 10
300.9715376
 20
66.44103039999999
 30
0.0
  0
SEQEND
  5
1483
330
294
100
AcDbEntity
  8
14_5
 62
     1
  0
POLYLINE
  5
2B7
330
1D
100
AcDbEntity
  8
14_5
 62
     1
100
AcDb2dPolyline
 66
     1
 10
0.0
 20
0.0
 30
0.0
 40
6.007176199999999
 41
6.007176199999999
  0
VERTEX
  5
1064
330
2B7
100
AcDbEntity
  8
14_5
 62
     1
100
AcDbVertex
100
AcDb2dVertex
 10
230.4504696
 20
67.21522239999999
 30
0.0
  0
VERTEX
  5
1065
330
2B7
100
AcDbEntity
  8
14_5
 62
     1
100
AcDbVertex
100
AcDb2dVertex
 10
230.7534916
 20
67.02091239999999
 30
0.0
  0
VERTEX
  5
1066
330
2B7
100
AcDbEntity
  8
14_5
 62
     1
100
AcDbVertex
100
AcDb2dVertex
 10
230.7476496
 20
66.68182239999999
 30
0.0
  0
VERTEX
  5
1067
330
2B7
100
AcDbEntity
  8
14_5
 62
     1
100
AcDbVertex
100
AcDb2dVertex
 10
230.5507996
 20
66.3333344
 30
0.0
  0
VERTEX
  5
1068
330
2B7
100
AcDbEntity
  8
14_5
 62
     1
100
AcDbVertex
100
AcDb2dVertex
 10
230.2820676
 20
66.10575039999999
 30
0.0
  0
VERTEX
  5
1069
330
2B7
100
AcDbEntity
  8
14_5
 62
     1
100
AcDbVertex
100
AcDb2dVertex
 10
229.5711216
 20
66.01761239999999
 30
0.0
  0
VERTEX
  5
106A
330
2B7
100
AcDbEntity
  8
14_5
 62
     1
100
AcDbVertex
100
AcDb2dVertex
 10
228.9452656
 20
66.31530039999998
 30
0.0
  0
VERTEX
  5
106B
330
2B7
100
AcDbEntity
  8
14_5
 62
     1
100
AcDbVertex
100
AcDb2dVertex
 10
228.4713016
 20
66.86241639999999
 30
0.0
  0
VERTEX
  5
106C
330
2B7
100
AcDbEntity
  8
14_5
 62
     1
100
AcDbVertex
100
AcDb2dVertex
 10
228.2218736
 20
67.5210384
 30
0.0
  0
VERTEX
  5
106D
330
2B7
100
AcDbEntity
  8
14_5
 62
     1
100
AcDbVertex
100
AcDb2dVertex
 10
228.3128056
 20
68.6482904
 30
0.0
  0
VERTEX
  5
106E
330
2B7
100
AcDbEntity
  8
14_5
 62
     1
100
AcDbVertex
100
AcDb2dVertex
 10
228.8916716
 20
69.57996239999999
 30
0.0
  0
VERTEX
  5
106F
330
2B7
100
AcDbEntity
  8
14_5
 62
     1
100
AcDbVertex
100
AcDb2dVertex
 10
229.8027696
 20
70.23325039999999
 30
0.0
  0
VERTEX
  5
1070
330
2B7
100
AcDbEntity
  8
14_5
 62
     1
100
AcDbVertex
100
AcDb2dVertex
 10
230.8942076
 20
70.5212864
 30
0.0
  0
VERTEX
  5
1071
330
2B7
100
AcDbEntity
  8
14_5
 62
     1
100
AcDbVertex
100
AcDb2dVertex
 10
231.6932916
 20
70.4852184
 30
0.0
  0
VERTEX
  5
1072
330
2B7
100
AcDbEntity
  8
14_5
 62
     1
100
AcDbVertex
100
AcDb2dVertex
 10
232.4347176
 20
70.27185839999999
 30
0.0
  0
VERTEX
  5
1073
330
2B7
100
AcDbEntity
  8
14_5
 62
     1
100
AcDbVertex
100
AcDb2dVertex
 10
233.1014676
 20
69.90660639999999
 30
0.0
  0
VERTEX
  5
1074
330
2B7
100
AcDbEntity
  8
14_5
 62
     1
100
AcDbVertex
100
AcDb2dVertex
 10
233.6803336
 20
69.4115604
 30
0.0
  0
VERTEX
  5
1075
330
2B7
100
AcDbEntity
  8
14_5
 62
     1
100
AcDbVertex
100
AcDb2dVertex
 10
234.1583616
 20
68.8123744
 30
0.0
  0
VERTEX
  5
1076
330
2B7
100
AcDbEntity
  8
14_5
 62
     1
100
AcDbVertex
100
AcDb2dVertex
 10
234.5223436
 20
68.1288604
 30
0.0
  0
VERTEX
  5
1077
330
2B7
100
AcDbEntity
  8
14_5
 62
     1
100
AcDbVertex
100
AcDb2dVertex
 10
234.7567856
 20
67.38743439999999
 30
0.0
  0
VERTEX
  5
1078
330
2B7
100
AcDbEntity
  8
14_5
 62
     1
100
AcDbVertex
100
AcDb2dVertex
 10
234.8487336
 20
66.60892439999999
 30
0.0
  0
VERTEX
  5
1079
330
2B7
100
AcDbEntity
  8
14_5
 62
     1
100
AcDbVertex
100
AcDb2dVertex
 10
234.7524676
 20
65.5959724
 30
0.0
  0
VERTEX
  5
107A
330
2B7
100
AcDbEntity
  8
14_5
 62
     1
100
AcDbVertex
100
AcDb2dVertex
 10
234.4438576
 20
64.66201439999999
 30
0.0
  0
VERTEX
  5
107B
330
2B7
100
AcDbEntity
  8
14_5
 62
     1
100
AcDbVertex
100
AcDb2dVertex
 10
233.9490656
 20
63.8253384
 30
0.0
  0
VERTEX
  5
107C
330
2B7
100
AcDbEntity
  8
14_5
 62
     1
100
AcDbVertex
100
AcDb2dVertex
 10
233.2973016
 20
63.1047404
 30
0.0
  0
VERTEX
  5
107D
330
2B7
100
AcDbEntity
  8
14_5
 62
     1
100
AcDbVertex
100
AcDb2dVertex
 10
232.5144736
 20
62.5162224
 30
0.0
  0
VERTEX
  5
107E
330
2B7
100
AcDbEntity
  8
14_5
 62
     1
100
AcDbVertex
100
AcDb2dVertex
 10
231.6310616
 20
62.0768024
 30
0.0
  0
VERTEX
  5
107F
330
2B7
100
AcDbEntity
  8
14_5
 62
     1
100
AcDbVertex
100
AcDb2dVertex
 10
230.6747516
 20
61.80502240000001
 30
0.0
  0
VERTEX
  5
1080
330
2B7
100
AcDbEntity
  8
14_5
 62
     1
100
AcDbVertex
100
AcDb2dVertex
 10
229.6744996
 20
61.71840839999999
 30
0.0
  0
VERTEX
  5
1081
330
2B7
100
AcDbEntity
  8
14_5
 62
     1
100
AcDbVertex
100
AcDb2dVertex
 10
227.3095056
 20
62.27212839999999
 30
0.0
  0
VERTEX
  5
1082
330
2B7
100
AcDbEntity
  8
14_5
 62
     1
100
AcDbVertex
100
AcDb2dVertex
 10
225.4326996
 20
63.69986239999999
 30
0.0
  0
VERTEX
  5
1083
330
2B7
100
AcDbEntity
  8
14_5
 62
     1
100
AcDbVertex
100
AcDb2dVertex
 10
224.2147696
 20
65.74075239999999
 30
0.0
  0
VERTEX
  5
1084
330
2B7
100
AcDbEntity
  8
14_5
 62
     1
100
AcDbVertex
100
AcDb2dVertex
 10
223.8243716
 20
68.1275904
 30
0.0
  0
VERTEX
  5
1085
330
2B7
100
AcDbEntity
  8
14_5
 62
     1
100
AcDbVertex
100
AcDb2dVertex
 10
224.5274436
 20
70.89720639999999
 30
0.0
  0
VERTEX
  5
1086
330
2B7
100
AcDbEntity
  8
14_5
 62
     1
100
AcDbVertex
100
AcDb2dVertex
 10
226.2460076
 20
73.08440039999999
 30
0.0
  0
VERTEX
  5
1087
330
2B7
100
AcDbEntity
  8
14_5
 62
     1
100
AcDbVertex
100
AcDb2dVertex
 10
228.6711996
 20
74.49003639999998
 30
0.0
  0
VERTEX
  5
1088
330
2B7
100
AcDbEntity
  8
14_5
 62
     1
100
AcDbVertex
100
AcDb2dVertex
 10
231.5002516
 20
74.91015239999999
 30
0.0
  0
VERTEX
  5
1089
330
2B7
100
AcDbEntity
  8
14_5
 62
     1
100
AcDbVertex
100
AcDb2dVertex
 10
233.1634436
 20
74.65107239999999
 30
0.0
  0
VERTEX
  5
108A
330
2B7
100
AcDbEntity
  8
14_5
 62
     1
100
AcDbVertex
100
AcDb2dVertex
 10
234.6874436
 20
74.06001439999999
 30
0.0
  0
VERTEX
  5
108B
330
2B7
100
AcDbEntity
  8
14_5
 62
     1
100
AcDbVertex
100
AcDb2dVertex
 10
236.0407556
 20
73.18346039999999
 30
0.0
  0
VERTEX
  5
108C
330
2B7
100
AcDbEntity
  8
14_5
 62
     1
100
AcDbVertex
100
AcDb2dVertex
 10
237.1956936
 20
72.06179639999999
 30
0.0
  0
VERTEX
  5
108D
330
2B7
100
AcDbEntity
  8
14_5
 62
     1
100
AcDbVertex
100
AcDb2dVertex
 10
238.1233016
 20
70.74023439999999
 30
0.0
  0
VERTEX
  5
108E
330
2B7
100
AcDbEntity
  8
14_5
 62
     1
100
AcDbVertex
100
AcDb2dVertex
 10
238.7928456
 20
69.26043039999999
 30
0.0
  0
VERTEX
  5
108F
330
2B7
100
AcDbEntity
  8
14_5
 62
     1
100
AcDbVertex
100
AcDb2dVertex
 10
239.1758776
 20
67.6670884
 30
0.0
  0
VERTEX
  5
1090
330
2B7
100
AcDbEntity
  8
14_5
 62
     1
100
AcDbVertex
100
AcDb2dVertex
 10
239.2462356
 20
66.0023724
 30
0.0
  0
VERTEX
  5
1091
330
2B7
100
AcDbEntity
  8
14_5
 62
     1
100
AcDbVertex
100
AcDb2dVertex
 10
238.9307676
 20
64.12836039999999
 30
0.0
  0
VERTEX
  5
1092
330
2B7
100
AcDbEntity
  8
14_5
 62
     1
100
AcDbVertex
100
AcDb2dVertex
 10
238.2457296
 20
62.4128444
 30
0.0
  0
VERTEX
  5
1093
330
2B7
100
AcDbEntity
  8
14_5
 62
     1
100
AcDbVertex
100
AcDb2dVertex
 10
237.2386196
 20
60.8913844
 30
0.0
  0
VERTEX
  5
1094
330
2B7
100
AcDbEntity
  8
14_5
 62
     1
100
AcDbVertex
100
AcDb2dVertex
 10
235.9569356
 20
59.59446040000001
 30
0.0
  0
VERTEX
  5
1095
330
2B7
100
AcDbEntity
  8
14_5
 62
     1
100
AcDbVertex
100
AcDb2dVertex
 10
234.4507156
 20
58.5583944
 30
0.0
  0
VERTEX
  5
1096
330
2B7
100
AcDbEntity
  8
14_5
 62
     1
100
AcDbVertex
100
AcDb2dVertex
 10
232.7679656
 20
57.8131584
 30
0.0
  0
VERTEX
  5
1097
330
2B7
100
AcDbEntity
  8
14_5
 62
     1
100
AcDbVertex
100
AcDb2dVertex
 10
230.9571996
 20
57.3925344
 30
0.0
  0
VERTEX
  5
1098
330
2B7
100
AcDbEntity
  8
14_5
 62
     1
100
AcDbVertex
100
AcDb2dVertex
 10
229.0682016
 20
57.3290344
 30
0.0
  0
VERTEX
  5
1099
330
2B7
100
AcDbEntity
  8
14_5
 62
     1
100
AcDbVertex
100
AcDb2dVertex
 10
226.9706696
 20
57.6970804
 30
0.0
  0
VERTEX
  5
109A
330
2B7
100
AcDbEntity
  8
14_5
 62
     1
100
AcDbVertex
100
AcDb2dVertex
 10
225.0552556
 20
58.47559039999999
 30
0.0
  0
VERTEX
  5
109B
330
2B7
100
AcDbEntity
  8
14_5
 62
     1
100
AcDbVertex
100
AcDb2dVertex
 10
223.3575196
 20
59.6084304
 30
0.0
  0
VERTEX
  5
109C
330
2B7
100
AcDbEntity
  8
14_5
 62
     1
100
AcDbVertex
100
AcDb2dVertex
 10
221.9135296
 20
61.04302239999999
 30
0.0
  0
VERTEX
  5
109D
330
2B7
100
AcDbEntity
  8
14_5
 62
     1
100
AcDbVertex
100
AcDb2dVertex
 10
220.7613856
 20
62.7283124
 30
0.0
  0
VERTEX
  5
109E
330
2B7
100
AcDbEntity
  8
14_5
 62
     1
100
AcDbVertex
100
AcDb2dVertex
 10
219.9386796
 20
64.6063884
 30
0.0
  0
VERTEX
  5
109F
330
2B7
100
AcDbEntity
  8
14_5
 62
     1
100
AcDbVertex
100
AcDb2dVertex
 10
219.4809716
 20
66.62695839999999
 30
0.0
  0
VERTEX
  5
10A0
330
2B7
100
AcDbEntity
  8
14_5
 62
     1
100
AcDbVertex
100
AcDb2dVertex
 10
219.4261076
 20
68.73388839999998
 30
0.0
  0
VERTEX
  5
10A1
330
2B7
100
AcDbEntity
  8
14_5
 62
     1
100
AcDbVertex
100
AcDb2dVertex
 10
219.8474936
 20
71.0407164
 30
0.0
  0
VERTEX
  5
10A2
330
2B7
100
AcDbEntity
  8
14_5
 62
     1
100
AcDbVertex
100
AcDb2dVertex
 10
220.7199836
 20
73.14764639999999
 30
0.0
  0
VERTEX
  5
10A3
330
2B7
100
AcDbEntity
  8
14_5
 62
     1
100
AcDbVertex
100
AcDb2dVertex
 10
221.9836336
 20
75.01200639999999
 30
0.0
  0
VERTEX
  5
10A4
330
2B7
100
AcDbEntity
  8
14_5
 62
     1
100
AcDbVertex
100
AcDb2dVertex
 10
223.5807856
 20
76.5969664
 30
0.0
  0
VERTEX
  5
10A5
330
2B7
100
AcDbEntity
  8
14_5
 62
     1
100
AcDbVertex
100
AcDb2dVertex
 10
225.4494636
 20
77.85782239999999
 30
0.0
  0
VERTEX
  5
10A6
330
2B7
100
AcDbEntity
  8
14_5
 62
     1
100
AcDbVertex
100
AcDb2dVertex
 10
227.5342956
 20
78.75647439999999
 30
0.0
  0
VERTEX
  5
10A7
330
2B7
100
AcDbEntity
  8
14_5
 62
     1
100
AcDbVertex
100
AcDb2dVertex
 10
229.7722896
 20
79.24948839999999
 30
0.0
  0
VERTEX
  5
10A8
330
2B7
100
AcDbEntity
  8
14_5
 62
     1
100
AcDbVertex
100
AcDb2dVertex
 10
232.1080736
 20
79.29800239999999
 30
0.0
  0
VERTEX
  5
10A9
330
2B7
100
AcDbEntity
  8
14_5
 62
     1
100
AcDbVertex
100
AcDb2dVertex
 10
234.6353736
 20
78.82378439999998
 30
0.0
  0
VERTEX
  5
10AA
330
2B7
100
AcDbEntity
  8
14_5
 62
     1
100
AcDbVertex
100
AcDb2dVertex
 10
236.9434716
 20
77.8606164
 30
0.0
  0
VERTEX
  5
10AB
330
2B7
100
AcDbEntity
  8
14_5
 62
     1
100
AcDbVertex
100
AcDb2dVertex
 10
238.9858856
 20
76.4714904
 30
0.0
  0
VERTEX
  5
10AC
330
2B7
100
AcDbEntity
  8
14_5
 62
     1
100
AcDbVertex
100
AcDb2dVertex
 10
240.7179116
 20
74.72143039999999
 30
0.0
  0
VERTEX
  5
10AD
330
2B7
100
AcDbEntity
  8
14_5
 62
     1
100
AcDbVertex
100
AcDb2dVertex
 10
242.0948456
 20
72.6749524
 30
0.0
  0
VERTEX
  5
10AE
330
2B7
100
AcDbEntity
  8
14_5
 62
     1
100
AcDbVertex
100
AcDb2dVertex
 10
243.0717296
 20
70.3970804
 30
0.0
  0
VERTEX
  5
10AF
330
2B7
100
AcDbEntity
  8
14_5
 62
     1
100
AcDbVertex
100
AcDb2dVertex
 10
243.6023356
 20
67.9497904
 30
0.0
  0
VERTEX
  5
10B0
330
2B7
100
AcDbEntity
  8
14_5
 62
     1
100
AcDbVertex
100
AcDb2dVertex
 10
243.6450076
 20
65.39785239999999
 30
0.0
  0
VERTEX
  5
10B1
330
2B7
100
AcDbEntity
  8
14_5
 62
     1
100
AcDbVertex
100
AcDb2dVertex
 10
242.5975116
 20
61.2662884
 30
0.0
  0
VERTEX
  5
10B2
330
2B7
100
AcDbEntity
  8
14_5
 62
     1
100
AcDbVertex
100
AcDb2dVertex
 10
240.3529136
 20
57.7151144
 30
0.0
  0
VERTEX
  5
10B3
330
2B7
100
AcDbEntity
  8
14_5
 62
     1
100
AcDbVertex
100
AcDb2dVertex
 10
237.1461636
 20
54.9851224
 30
0.0
  0
VERTEX
  5
10B4
330
2B7
100
AcDbEntity
  8
14_5
 62
     1
100
AcDbVertex
100
AcDb2dVertex
 10
233.2172916
 20
53.3160884
 30
0.0
  0
SEQEND
  5
1484
330
2B7
100
AcDbEntity
  8
14_5
 62
     1
  0
POLYLINE
  5
30A
330
1D
100
AcDbEntity
  8
14_5
 62
     1
100
AcDb2dPolyline
 66
     1
 10
0.0
 20
0.0
 30
0.0
 70
     1
 40
4.6391576
 41
4.6391576
  0
VERTEX
  5
10B5
330
30A
100
AcDbEntity
  8
14_5
 62
     1
100
AcDbVertex
100
AcDb2dVertex
 10
244.6686276
 20
66.44103039999999
 30
0.0
  0
VERTEX
  5
10B6
330
30A
100
AcDbEntity
  8
14_5
 62
     1
100
AcDbVertex
100
AcDb2dVertex
 10
244.3879576
 20
63.65998439999999
 30
0.0
  0
VERTEX
  5
10B7
330
30A
100
AcDbEntity
  8
14_5
 62
     1
100
AcDbVertex
100
AcDb2dVertex
 10
243.5843016
 20
61.07070839999999
 30
0.0
  0
VERTEX
  5
10B8
330
30A
100
AcDbEntity
  8
14_5
 62
     1
100
AcDbVertex
100
AcDb2dVertex
 10
242.3109996
 20
58.7262884
 30
0.0
  0
VERTEX
  5
10B9
330
30A
100
AcDbEntity
  8
14_5
 62
     1
100
AcDbVertex
100
AcDb2dVertex
 10
240.6269796
 20
56.6841284
 30
0.0
  0
VERTEX
  5
10BA
330
30A
100
AcDbEntity
  8
14_5
 62
     1
100
AcDbVertex
100
AcDb2dVertex
 10
238.5848196
 20
54.9988384
 30
0.0
  0
VERTEX
  5
10BB
330
30A
100
AcDbEntity
  8
14_5
 62
     1
100
AcDbVertex
100
AcDb2dVertex
 10
236.2409076
 20
53.7273144
 30
0.0
  0
VERTEX
  5
10BC
330
30A
100
AcDbEntity
  8
14_5
 62
     1
100
AcDbVertex
100
AcDb2dVertex
 10
233.6501076
 20
52.9221344
 30
0.0
  0
VERTEX
  5
10BD
330
30A
100
AcDbEntity
  8
14_5
 62
     1
100
AcDbVertex
100
AcDb2dVertex
 10
230.8690616
 20
52.6409564
 30
0.0
  0
VERTEX
  5
10BE
330
30A
100
AcDbEntity
  8
14_5
 62
     1
100
AcDbVertex
100
AcDb2dVertex
 10
228.0869996
 20
52.9221344
 30
0.0
  0
VERTEX
  5
10BF
330
30A
100
AcDbEntity
  8
14_5
 62
     1
100
AcDbVertex
100
AcDb2dVertex
 10
225.4961996
 20
53.7273144
 30
0.0
  0
VERTEX
  5
10C0
330
30A
100
AcDbEntity
  8
14_5
 62
     1
100
AcDbVertex
100
AcDb2dVertex
 10
223.1520336
 20
54.9988384
 30
0.0
  0
VERTEX
  5
10C1
330
30A
100
AcDbEntity
  8
14_5
 62
     1
100
AcDbVertex
100
AcDb2dVertex
 10
221.1098736
 20
56.6841284
 30
0.0
  0
VERTEX
  5
10C2
330
30A
100
AcDbEntity
  8
14_5
 62
     1
100
AcDbVertex
100
AcDb2dVertex
 10
219.4261076
 20
58.7262884
 30
0.0
  0
VERTEX
  5
10C3
330
30A
100
AcDbEntity
  8
14_5
 62
     1
100
AcDbVertex
100
AcDb2dVertex
 10
218.1525516
 20
61.07070839999999
 30
0.0
  0
VERTEX
  5
10C4
330
30A
100
AcDbEntity
  8
14_5
 62
     1
100
AcDbVertex
100
AcDb2dVertex
 10
217.3491496
 20
63.65998439999999
 30
0.0
  0
VERTEX
  5
10C5
330
30A
100
AcDbEntity
  8
14_5
 62
     1
100
AcDbVertex
100
AcDb2dVertex
 10
217.0694956
 20
66.44103039999999
 30
0.0
  0
VERTEX
  5
10C6
330
30A
100
AcDbEntity
  8
14_5
 62
     1
100
AcDbVertex
100
AcDb2dVertex
 10
217.3491496
 20
69.2228384
 30
0.0
  0
VERTEX
  5
10C7
330
30A
100
AcDbEntity
  8
14_5
 62
     1
100
AcDbVertex
100
AcDb2dVertex
 10
218.1525516
 20
71.81363839999999
 30
0.0
  0
VERTEX
  5
10C8
330
30A
100
AcDbEntity
  8
14_5
 62
     1
100
AcDbVertex
100
AcDb2dVertex
 10
219.4261076
 20
74.15805839999999
 30
0.0
  0
VERTEX
  5
10C9
330
30A
100
AcDbEntity
  8
14_5
 62
     1
100
AcDbVertex
100
AcDb2dVertex
 10
221.1098736
 20
76.20021839999998
 30
0.0
  0
VERTEX
  5
10CA
330
30A
100
AcDbEntity
  8
14_5
 62
     1
100
AcDbVertex
100
AcDb2dVertex
 10
223.1520336
 20
77.88550839999999
 30
0.0
  0
VERTEX
  5
10CB
330
30A
100
AcDbEntity
  8
14_5
 62
     1
100
AcDbVertex
100
AcDb2dVertex
 10
225.4961996
 20
79.15728639999999
 30
0.0
  0
VERTEX
  5
10CC
330
30A
100
AcDbEntity
  8
14_5
 62
     1
100
AcDbVertex
100
AcDb2dVertex
 10
228.0869996
 20
79.96221239999998
 30
0.0
  0
VERTEX
  5
10CD
330
30A
100
AcDbEntity
  8
14_5
 62
     1
100
AcDbVertex
100
AcDb2dVertex
 10
230.8690616
 20
80.24186639999999
 30
0.0
  0
VERTEX
  5
10CE
330
30A
100
AcDbEntity
  8
14_5
 62
     1
100
AcDbVertex
100
AcDb2dVertex
 10
233.6501076
 20
79.96221239999998
 30
0.0
  0
VERTEX
  5
10CF
330
30A
100
AcDbEntity
  8
14_5
 62
     1
100
AcDbVertex
100
AcDb2dVertex
 10
236.2409076
 20
79.15728639999999
 30
0.0
  0
VERTEX
  5
10D0
330
30A
100
AcDbEntity
  8
14_5
 62
     1
100
AcDbVertex
100
AcDb2dVertex
 10
238.5848196
 20
77.88550839999999
 30
0.0
  0
VERTEX
  5
10D1
330
30A
100
AcDbEntity
  8
14_5
 62
     1
100
AcDbVertex
100
AcDb2dVertex
 10
240.6269796
 20
76.20021839999998
 30
0.0
  0
VERTEX
  5
10D2
330
30A
100
AcDbEntity
  8
14_5
 62
     1
100
AcDbVertex
100
AcDb2dVertex
 10
242.3109996
 20
74.15805839999999
 30
0.0
  0
VERTEX
  5
10D3
330
30A
100
AcDbEntity
  8
14_5
 62
     1
100
AcDbVertex
100
AcDb2dVertex
 10
243.5843016
 20
71.81363839999999
 30
0.0
  0
VERTEX
  5
10D4
330
30A
100
AcDbEntity
  8
14_5
 62
     1
100
AcDbVertex
100
AcDb2dVertex
 10
244.3879576
 20
69.2228384
 30
0.0
  0
VERTEX
  5
10D5
330
30A
100
AcDbEntity
  8
14_5
 62
     1
100
AcDbVertex
100
AcDb2dVertex
 10
244.6686276
 20
66.44103039999999
 30
0.0
  0
SEQEND
  5
1485
330
30A
100
AcDbEntity
  8
14_5
 62
     1
  0
POLYLINE
  5
32D
330
1D
100
AcDbEntity
  8
14_5
 62
     1
100
AcDb2dPolyline
 66
     1
 10
0.0
 20
0.0
 30
0.0
 40
6.007176199999999
 41
6.007176199999999
  0
VERTEX
  5
10D6
330
32D
100
AcDbEntity
  8
14_5
 62
     1
100
AcDbVertex
100
AcDb2dVertex
 10
117.5614396
 20
67.21522239999999
 30
0.0
  0
VERTEX
  5
10D7
330
32D
100
AcDbEntity
  8
14_5
 62
     1
100
AcDbVertex
100
AcDb2dVertex
 10
117.8644616
 20
67.02091239999999
 30
0.0
  0
VERTEX
  5
10D8
330
32D
100
AcDbEntity
  8
14_5
 62
     1
100
AcDbVertex
100
AcDb2dVertex
 10
117.8588736
 20
66.68182239999999
 30
0.0
  0
VERTEX
  5
10D9
330
32D
100
AcDbEntity
  8
14_5
 62
     1
100
AcDbVertex
100
AcDb2dVertex
 10
117.6620236
 20
66.3333344
 30
0.0
  0
VERTEX
  5
10DA
330
32D
100
AcDbEntity
  8
14_5
 62
     1
100
AcDbVertex
100
AcDb2dVertex
 10
117.3932916
 20
66.10575039999999
 30
0.0
  0
VERTEX
  5
10DB
330
32D
100
AcDbEntity
  8
14_5
 62
     1
100
AcDbVertex
100
AcDb2dVertex
 10
116.6823456
 20
66.01761239999999
 30
0.0
  0
VERTEX
  5
10DC
330
32D
100
AcDbEntity
  8
14_5
 62
     1
100
AcDbVertex
100
AcDb2dVertex
 10
116.0564896
 20
66.31530039999998
 30
0.0
  0
VERTEX
  5
10DD
330
32D
100
AcDbEntity
  8
14_5
 62
     1
100
AcDbVertex
100
AcDb2dVertex
 10
115.5822716
 20
66.86241639999999
 30
0.0
  0
VERTEX
  5
10DE
330
32D
100
AcDbEntity
  8
14_5
 62
     1
100
AcDbVertex
100
AcDb2dVertex
 10
115.3328436
 20
67.5210384
 30
0.0
  0
VERTEX
  5
10DF
330
32D
100
AcDbEntity
  8
14_5
 62
     1
100
AcDbVertex
100
AcDb2dVertex
 10
115.4240296
 20
68.6482904
 30
0.0
  0
VERTEX
  5
10E0
330
32D
100
AcDbEntity
  8
14_5
 62
     1
100
AcDbVertex
100
AcDb2dVertex
 10
116.0028956
 20
69.57996239999999
 30
0.0
  0
VERTEX
  5
10E1
330
32D
100
AcDbEntity
  8
14_5
 62
     1
100
AcDbVertex
100
AcDb2dVertex
 10
116.9137396
 20
70.23325039999999
 30
0.0
  0
VERTEX
  5
10E2
330
32D
100
AcDbEntity
  8
14_5
 62
     1
100
AcDbVertex
100
AcDb2dVertex
 10
118.0051776
 20
70.5212864
 30
0.0
  0
VERTEX
  5
10E3
330
32D
100
AcDbEntity
  8
14_5
 62
     1
100
AcDbVertex
100
AcDb2dVertex
 10
118.8042616
 20
70.4852184
 30
0.0
  0
VERTEX
  5
10E4
330
32D
100
AcDbEntity
  8
14_5
 62
     1
100
AcDbVertex
100
AcDb2dVertex
 10
119.5459416
 20
70.27185839999999
 30
0.0
  0
VERTEX
  5
10E5
330
32D
100
AcDbEntity
  8
14_5
 62
     1
100
AcDbVertex
100
AcDb2dVertex
 10
120.2126916
 20
69.90660639999999
 30
0.0
  0
VERTEX
  5
10E6
330
32D
100
AcDbEntity
  8
14_5
 62
     1
100
AcDbVertex
100
AcDb2dVertex
 10
120.7915576
 20
69.4115604
 30
0.0
  0
VERTEX
  5
10E7
330
32D
100
AcDbEntity
  8
14_5
 62
     1
100
AcDbVertex
100
AcDb2dVertex
 10
121.2695856
 20
68.8123744
 30
0.0
  0
VERTEX
  5
10E8
330
32D
100
AcDbEntity
  8
14_5
 62
     1
100
AcDbVertex
100
AcDb2dVertex
 10
121.6335676
 20
68.1288604
 30
0.0
  0
VERTEX
  5
10E9
330
32D
100
AcDbEntity
  8
14_5
 62
     1
100
AcDbVertex
100
AcDb2dVertex
 10
121.8677556
 20
67.38743439999999
 30
0.0
  0
VERTEX
  5
10EA
330
32D
100
AcDbEntity
  8
14_5
 62
     1
100
AcDbVertex
100
AcDb2dVertex
 10
121.9599576
 20
66.60892439999999
 30
0.0
  0
VERTEX
  5
10EB
330
32D
100
AcDbEntity
  8
14_5
 62
     1
100
AcDbVertex
100
AcDb2dVertex
 10
121.8636916
 20
65.5959724
 30
0.0
  0
VERTEX
  5
10EC
330
32D
100
AcDbEntity
  8
14_5
 62
     1
100
AcDbVertex
100
AcDb2dVertex
 10
121.5548276
 20
64.66201439999999
 30
0.0
  0
VERTEX
  5
10ED
330
32D
100
AcDbEntity
  8
14_5
 62
     1
100
AcDbVertex
100
AcDb2dVertex
 10
121.0602896
 20
63.8253384
 30
0.0
  0
VERTEX
  5
10EE
330
32D
100
AcDbEntity
  8
14_5
 62
     1
100
AcDbVertex
100
AcDb2dVertex
 10
120.4082716
 20
63.1047404
 30
0.0
  0
VERTEX
  5
10EF
330
32D
100
AcDbEntity
  8
14_5
 62
     1
100
AcDbVertex
100
AcDb2dVertex
 10
119.6254436
 20
62.5162224
 30
0.0
  0
VERTEX
  5
10F0
330
32D
100
AcDbEntity
  8
14_5
 62
     1
100
AcDbVertex
100
AcDb2dVertex
 10
118.7422856
 20
62.0768024
 30
0.0
  0
VERTEX
  5
10F1
330
32D
100
AcDbEntity
  8
14_5
 62
     1
100
AcDbVertex
100
AcDb2dVertex
 10
117.7857216
 20
61.80502240000001
 30
0.0
  0
VERTEX
  5
10F2
330
32D
100
AcDbEntity
  8
14_5
 62
     1
100
AcDbVertex
100
AcDb2dVertex
 10
116.7857236
 20
61.71840839999999
 30
0.0
  0
VERTEX
  5
10F3
330
32D
100
AcDbEntity
  8
14_5
 62
     1
100
AcDbVertex
100
AcDb2dVertex
 10
114.4207296
 20
62.27212839999999
 30
0.0
  0
VERTEX
  5
10F4
330
32D
100
AcDbEntity
  8
14_5
 62
     1
100
AcDbVertex
100
AcDb2dVertex
 10
112.5439236
 20
63.69986239999999
 30
0.0
  0
VERTEX
  5
10F5
330
32D
100
AcDbEntity
  8
14_5
 62
     1
100
AcDbVertex
100
AcDb2dVertex
 10
111.3257396
 20
65.74075239999999
 30
0.0
  0
VERTEX
  5
10F6
330
32D
100
AcDbEntity
  8
14_5
 62
     1
100
AcDbVertex
100
AcDb2dVertex
 10
110.9355956
 20
68.1275904
 30
0.0
  0
VERTEX
  5
10F7
330
32D
100
AcDbEntity
  8
14_5
 62
     1
100
AcDbVertex
100
AcDb2dVertex
 10
111.6386676
 20
70.89720639999999
 30
0.0
  0
VERTEX
  5
10F8
330
32D
100
AcDbEntity
  8
14_5
 62
     1
100
AcDbVertex
100
AcDb2dVertex
 10
113.3569776
 20
73.08440039999999
 30
0.0
  0
VERTEX
  5
10F9
330
32D
100
AcDbEntity
  8
14_5
 62
     1
100
AcDbVertex
100
AcDb2dVertex
 10
115.7824236
 20
74.49003639999998
 30
0.0
  0
VERTEX
  5
10FA
330
32D
100
AcDbEntity
  8
14_5
 62
     1
100
AcDbVertex
100
AcDb2dVertex
 10
118.6112216
 20
74.91015239999999
 30
0.0
  0
VERTEX
  5
10FB
330
32D
100
AcDbEntity
  8
14_5
 62
     1
100
AcDbVertex
100
AcDb2dVertex
 10
120.2746676
 20
74.65107239999999
 30
0.0
  0
VERTEX
  5
10FC
330
32D
100
AcDbEntity
  8
14_5
 62
     1
100
AcDbVertex
100
AcDb2dVertex
 10
121.7986676
 20
74.06001439999999
 30
0.0
  0
VERTEX
  5
10FD
330
32D
100
AcDbEntity
  8
14_5
 62
     1
100
AcDbVertex
100
AcDb2dVertex
 10
123.1519796
 20
73.18346039999999
 30
0.0
  0
VERTEX
  5
10FE
330
32D
100
AcDbEntity
  8
14_5
 62
     1
100
AcDbVertex
100
AcDb2dVertex
 10
124.3069176
 20
72.06179639999999
 30
0.0
  0
VERTEX
  5
10FF
330
32D
100
AcDbEntity
  8
14_5
 62
     1
100
AcDbVertex
100
AcDb2dVertex
 10
125.2342716
 20
70.74023439999999
 30
0.0
  0
VERTEX
  5
1100
330
32D
100
AcDbEntity
  8
14_5
 62
     1
100
AcDbVertex
100
AcDb2dVertex
 10
125.9040696
 20
69.26043039999999
 30
0.0
  0
VERTEX
  5
1101
330
32D
100
AcDbEntity
  8
14_5
 62
     1
100
AcDbVertex
100
AcDb2dVertex
 10
126.2871016
 20
67.6670884
 30
0.0
  0
VERTEX
  5
1102
330
32D
100
AcDbEntity
  8
14_5
 62
     1
100
AcDbVertex
100
AcDb2dVertex
 10
126.3572056
 20
66.0023724
 30
0.0
  0
VERTEX
  5
1103
330
32D
100
AcDbEntity
  8
14_5
 62
     1
100
AcDbVertex
100
AcDb2dVertex
 10
126.0419916
 20
64.12836039999999
 30
0.0
  0
VERTEX
  5
1104
330
32D
100
AcDbEntity
  8
14_5
 62
     1
100
AcDbVertex
100
AcDb2dVertex
 10
125.3566996
 20
62.4128444
 30
0.0
  0
VERTEX
  5
1105
330
32D
100
AcDbEntity
  8
14_5
 62
     1
100
AcDbVertex
100
AcDb2dVertex
 10
124.3495896
 20
60.8913844
 30
0.0
  0
VERTEX
  5
1106
330
32D
100
AcDbEntity
  8
14_5
 62
     1
100
AcDbVertex
100
AcDb2dVertex
 10
123.0679056
 20
59.59446040000001
 30
0.0
  0
VERTEX
  5
1107
330
32D
100
AcDbEntity
  8
14_5
 62
     1
100
AcDbVertex
100
AcDb2dVertex
 10
121.5619396
 20
58.5583944
 30
0.0
  0
VERTEX
  5
1108
330
32D
100
AcDbEntity
  8
14_5
 62
     1
100
AcDbVertex
100
AcDb2dVertex
 10
119.8791896
 20
57.8131584
 30
0.0
  0
VERTEX
  5
1109
330
32D
100
AcDbEntity
  8
14_5
 62
     1
100
AcDbVertex
100
AcDb2dVertex
 10
118.0684236
 20
57.3925344
 30
0.0
  0
VERTEX
  5
110A
330
32D
100
AcDbEntity
  8
14_5
 62
     1
100
AcDbVertex
100
AcDb2dVertex
 10
116.1791716
 20
57.3290344
 30
0.0
  0
VERTEX
  5
110B
330
32D
100
AcDbEntity
  8
14_5
 62
     1
100
AcDbVertex
100
AcDb2dVertex
 10
114.0816396
 20
57.6970804
 30
0.0
  0
VERTEX
  5
110C
330
32D
100
AcDbEntity
  8
14_5
 62
     1
100
AcDbVertex
100
AcDb2dVertex
 10
112.1664796
 20
58.47559039999999
 30
0.0
  0
VERTEX
  5
110D
330
32D
100
AcDbEntity
  8
14_5
 62
     1
100
AcDbVertex
100
AcDb2dVertex
 10
110.4684896
 20
59.6084304
 30
0.0
  0
VERTEX
  5
110E
330
32D
100
AcDbEntity
  8
14_5
 62
     1
100
AcDbVertex
100
AcDb2dVertex
 10
109.0244996
 20
61.04302239999999
 30
0.0
  0
VERTEX
  5
110F
330
32D
100
AcDbEntity
  8
14_5
 62
     1
100
AcDbVertex
100
AcDb2dVertex
 10
107.8723556
 20
62.7283124
 30
0.0
  0
VERTEX
  5
1110
330
32D
100
AcDbEntity
  8
14_5
 62
     1
100
AcDbVertex
100
AcDb2dVertex
 10
107.0496496
 20
64.6063884
 30
0.0
  0
VERTEX
  5
1111
330
32D
100
AcDbEntity
  8
14_5
 62
     1
100
AcDbVertex
100
AcDb2dVertex
 10
106.5921956
 20
66.62695839999999
 30
0.0
  0
VERTEX
  5
1112
330
32D
100
AcDbEntity
  8
14_5
 62
     1
100
AcDbVertex
100
AcDb2dVertex
 10
106.5370776
 20
68.73388839999998
 30
0.0
  0
VERTEX
  5
1113
330
32D
100
AcDbEntity
  8
14_5
 62
     1
100
AcDbVertex
100
AcDb2dVertex
 10
106.9587176
 20
71.0407164
 30
0.0
  0
VERTEX
  5
1114
330
32D
100
AcDbEntity
  8
14_5
 62
     1
100
AcDbVertex
100
AcDb2dVertex
 10
107.8312076
 20
73.14764639999999
 30
0.0
  0
VERTEX
  5
1115
330
32D
100
AcDbEntity
  8
14_5
 62
     1
100
AcDbVertex
100
AcDb2dVertex
 10
109.0948576
 20
75.01200639999999
 30
0.0
  0
VERTEX
  5
1116
330
32D
100
AcDbEntity
  8
14_5
 62
     1
100
AcDbVertex
100
AcDb2dVertex
 10
110.6917556
 20
76.5969664
 30
0.0
  0
VERTEX
  5
1117
330
32D
100
AcDbEntity
  8
14_5
 62
     1
100
AcDbVertex
100
AcDb2dVertex
 10
112.5604336
 20
77.85782239999999
 30
0.0
  0
VERTEX
  5
1118
330
32D
100
AcDbEntity
  8
14_5
 62
     1
100
AcDbVertex
100
AcDb2dVertex
 10
114.6455196
 20
78.75647439999999
 30
0.0
  0
VERTEX
  5
1119
330
32D
100
AcDbEntity
  8
14_5
 62
     1
100
AcDbVertex
100
AcDb2dVertex
 10
116.8835136
 20
79.24948839999999
 30
0.0
  0
VERTEX
  5
111A
330
32D
100
AcDbEntity
  8
14_5
 62
     1
100
AcDbVertex
100
AcDb2dVertex
 10
119.2190436
 20
79.29800239999999
 30
0.0
  0
VERTEX
  5
111B
330
32D
100
AcDbEntity
  8
14_5
 62
     1
100
AcDbVertex
100
AcDb2dVertex
 10
121.7463436
 20
78.82378439999998
 30
0.0
  0
VERTEX
  5
111C
330
32D
100
AcDbEntity
  8
14_5
 62
     1
100
AcDbVertex
100
AcDb2dVertex
 10
124.0546956
 20
77.8606164
 30
0.0
  0
VERTEX
  5
111D
330
32D
100
AcDbEntity
  8
14_5
 62
     1
100
AcDbVertex
100
AcDb2dVertex
 10
126.0968556
 20
76.4714904
 30
0.0
  0
VERTEX
  5
111E
330
32D
100
AcDbEntity
  8
14_5
 62
     1
100
AcDbVertex
100
AcDb2dVertex
 10
127.8291356
 20
74.72143039999999
 30
0.0
  0
VERTEX
  5
111F
330
32D
100
AcDbEntity
  8
14_5
 62
     1
100
AcDbVertex
100
AcDb2dVertex
 10
129.2058156
 20
72.6749524
 30
0.0
  0
VERTEX
  5
1120
330
32D
100
AcDbEntity
  8
14_5
 62
     1
100
AcDbVertex
100
AcDb2dVertex
 10
130.1826996
 20
70.3970804
 30
0.0
  0
VERTEX
  5
1121
330
32D
100
AcDbEntity
  8
14_5
 62
     1
100
AcDbVertex
100
AcDb2dVertex
 10
130.7133056
 20
67.9497904
 30
0.0
  0
VERTEX
  5
1122
330
32D
100
AcDbEntity
  8
14_5
 62
     1
100
AcDbVertex
100
AcDb2dVertex
 10
130.7559776
 20
65.39785239999999
 30
0.0
  0
VERTEX
  5
1123
330
32D
100
AcDbEntity
  8
14_5
 62
     1
100
AcDbVertex
100
AcDb2dVertex
 10
129.7087356
 20
61.2662884
 30
0.0
  0
VERTEX
  5
1124
330
32D
100
AcDbEntity
  8
14_5
 62
     1
100
AcDbVertex
100
AcDb2dVertex
 10
127.4638836
 20
57.7151144
 30
0.0
  0
VERTEX
  5
1125
330
32D
100
AcDbEntity
  8
14_5
 62
     1
100
AcDbVertex
100
AcDb2dVertex
 10
124.2571336
 20
54.9851224
 30
0.0
  0
VERTEX
  5
1126
330
32D
100
AcDbEntity
  8
14_5
 62
     1
100
AcDbVertex
100
AcDb2dVertex
 10
120.3282616
 20
53.3160884
 30
0.0
  0
SEQEND
  5
1486
330
32D
100
AcDbEntity
  8
14_5
 62
     1
  0
POLYLINE
  5
380
330
1D
100
AcDbEntity
  8
14_5
 62
     1
100
AcDb2dPolyline
 66
     1
 10
0.0
 20
0.0
 30
0.0
 70
     1
 40
4.6391576
 41
4.6391576
  0
VERTEX
  5
1127
330
380
100
AcDbEntity
  8
14_5
 62
     1
100
AcDbVertex
100
AcDb2dVertex
 10
131.7798516
 20
66.44103039999999
 30
0.0
  0
VERTEX
  5
1128
330
380
100
AcDbEntity
  8
14_5
 62
     1
100
AcDbVertex
100
AcDb2dVertex
 10
131.4989276
 20
63.65998439999999
 30
0.0
  0
VERTEX
  5
1129
330
380
100
AcDbEntity
  8
14_5
 62
     1
100
AcDbVertex
100
AcDb2dVertex
 10
130.6952716
 20
61.07070839999999
 30
0.0
  0
VERTEX
  5
112A
330
380
100
AcDbEntity
  8
14_5
 62
     1
100
AcDbVertex
100
AcDb2dVertex
 10
129.4222236
 20
58.7262884
 30
0.0
  0
VERTEX
  5
112B
330
380
100
AcDbEntity
  8
14_5
 62
     1
100
AcDbVertex
100
AcDb2dVertex
 10
127.7379496
 20
56.6841284
 30
0.0
  0
VERTEX
  5
112C
330
380
100
AcDbEntity
  8
14_5
 62
     1
100
AcDbVertex
100
AcDb2dVertex
 10
125.6957896
 20
54.9988384
 30
0.0
  0
VERTEX
  5
112D
330
380
100
AcDbEntity
  8
14_5
 62
     1
100
AcDbVertex
100
AcDb2dVertex
 10
123.3518776
 20
53.7273144
 30
0.0
  0
VERTEX
  5
112E
330
380
100
AcDbEntity
  8
14_5
 62
     1
100
AcDbVertex
100
AcDb2dVertex
 10
120.7610776
 20
52.9221344
 30
0.0
  0
VERTEX
  5
112F
330
380
100
AcDbEntity
  8
14_5
 62
     1
100
AcDbVertex
100
AcDb2dVertex
 10
117.9802856
 20
52.6409564
 30
0.0
  0
VERTEX
  5
1130
330
380
100
AcDbEntity
  8
14_5
 62
     1
100
AcDbVertex
100
AcDb2dVertex
 10
115.1982236
 20
52.9221344
 30
0.0
  0
VERTEX
  5
1131
330
380
100
AcDbEntity
  8
14_5
 62
     1
100
AcDbVertex
100
AcDb2dVertex
 10
112.6074236
 20
53.7273144
 30
0.0
  0
VERTEX
  5
1132
330
380
100
AcDbEntity
  8
14_5
 62
     1
100
AcDbVertex
100
AcDb2dVertex
 10
110.2632576
 20
54.9988384
 30
0.0
  0
VERTEX
  5
1133
330
380
100
AcDbEntity
  8
14_5
 62
     1
100
AcDbVertex
100
AcDb2dVertex
 10
108.2208436
 20
56.6841284
 30
0.0
  0
VERTEX
  5
1134
330
380
100
AcDbEntity
  8
14_5
 62
     1
100
AcDbVertex
100
AcDb2dVertex
 10
106.5370776
 20
58.7262884
 30
0.0
  0
VERTEX
  5
1135
330
380
100
AcDbEntity
  8
14_5
 62
     1
100
AcDbVertex
100
AcDb2dVertex
 10
105.2635216
 20
61.07070839999999
 30
0.0
  0
VERTEX
  5
1136
330
380
100
AcDbEntity
  8
14_5
 62
     1
100
AcDbVertex
100
AcDb2dVertex
 10
104.4603736
 20
63.65998439999999
 30
0.0
  0
VERTEX
  5
1137
330
380
100
AcDbEntity
  8
14_5
 62
     1
100
AcDbVertex
100
AcDb2dVertex
 10
104.1807196
 20
66.44103039999999
 30
0.0
  0
VERTEX
  5
1138
330
380
100
AcDbEntity
  8
14_5
 62
     1
100
AcDbVertex
100
AcDb2dVertex
 10
104.4603736
 20
69.2228384
 30
0.0
  0
VERTEX
  5
1139
330
380
100
AcDbEntity
  8
14_5
 62
     1
100
AcDbVertex
100
AcDb2dVertex
 10
105.2635216
 20
71.81363839999999
 30
0.0
  0
VERTEX
  5
113A
330
380
100
AcDbEntity
  8
14_5
 62
     1
100
AcDbVertex
100
AcDb2dVertex
 10
106.5370776
 20
74.15805839999999
 30
0.0
  0
VERTEX
  5
113B
330
380
100
AcDbEntity
  8
14_5
 62
     1
100
AcDbVertex
100
AcDb2dVertex
 10
108.2208436
 20
76.20021839999998
 30
0.0
  0
VERTEX
  5
113C
330
380
100
AcDbEntity
  8
14_5
 62
     1
100
AcDbVertex
100
AcDb2dVertex
 10
110.2632576
 20
77.88550839999999
 30
0.0
  0
VERTEX
  5
113D
330
380
100
AcDbEntity
  8
14_5
 62
     1
100
AcDbVertex
100
AcDb2dVertex
 10
112.6074236
 20
79.15728639999999
 30
0.0
  0
VERTEX
  5
113E
330
380
100
AcDbEntity
  8
14_5
 62
     1
100
AcDbVertex
100
AcDb2dVertex
 10
115.1982236
 20
79.96221239999998
 30
0.0
  0
VERTEX
  5
113F
330
380
100
AcDbEntity
  8
14_5
 62
     1
100
AcDbVertex
100
AcDb2dVertex
 10
117.9802856
 20
80.24186639999999
 30
0.0
  0
VERTEX
  5
1140
330
380
100
AcDbEntity
  8
14_5
 62
     1
100
AcDbVertex
100
AcDb2dVertex
 10
120.7610776
 20
79.96221239999998
 30
0.0
  0
VERTEX
  5
1141
330
380
100
AcDbEntity
  8
14_5
 62
     1
100
AcDbVertex
100
AcDb2dVertex
 10
123.3518776
 20
79.15728639999999
 30
0.0
  0
VERTEX
  5
1142
330
380
100
AcDbEntity
  8
14_5
 62
     1
100
AcDbVertex
100
AcDb2dVertex
 10
125.6957896
 20
77.88550839999999
 30
0.0
  0
VERTEX
  5
1143
330
380
100
AcDbEntity
  8
14_5
 62
     1
100
AcDbVertex
100
AcDb2dVertex
 10
127.7379496
 20
76.20021839999998
 30
0.0
  0
VERTEX
  5
1144
330
380
100
AcDbEntity
  8
14_5
 62
     1
100
AcDbVertex
100
AcDb2dVertex
 10
129.4222236
 20
74.15805839999999
 30
0.0
  0
VERTEX
  5
1145
330
380
100
AcDbEntity
  8
14_5
 62
     1
100
AcDbVertex
100
AcDb2dVertex
 10
130.6952716
 20
71.81363839999999
 30
0.0
  0
VERTEX
  5
1146
330
380
100
AcDbEntity
  8
14_5
 62
     1
100
AcDbVertex
100
AcDb2dVertex
 10
131.4989276
 20
69.2228384
 30
0.0
  0
VERTEX
  5
1147
330
380
100
AcDbEntity
  8
14_5
 62
     1
100
AcDbVertex
100
AcDb2dVertex
 10
131.7798516
 20
66.44103039999999
 30
0.0
  0
SEQEND
  5
1487
330
380
100
AcDbEntity
  8
14_5
 62
     1
  0
POLYLINE
  5
3A3
330
1D
100
AcDbEntity
  8
4_5
 62
     0
100
AcDb2dPolyline
 66
     1
 10
0.0
 20
0.0
 30
0.0
 70
     1
 40
3.175
 41
3.175
  0
VERTEX
  5
1148
330
3A3
100
AcDbEntity
  8
4_5
 62
     0
100
AcDbVertex
100
AcDb2dVertex
 10
713.1703576
 20
370.5661524
 30
0.0
  0
VERTEX
  5
1149
330
3A3
100
AcDbEntity
  8
4_5
 62
     0
100
AcDbVertex
100
AcDb2dVertex
 10
712.8020576
 20
369.6238124
 30
0.0
  0
VERTEX
  5
114A
330
3A3
100
AcDbEntity
  8
4_5
 62
     0
100
AcDbVertex
100
AcDb2dVertex
 10
711.7555776
 20
366.9923724
 30
0.0
  0
VERTEX
  5
114B
330
3A3
100
AcDbEntity
  8
4_5
 62
     0
100
AcDbVertex
100
AcDb2dVertex
 10
710.1299776
 20
362.9486924
 30
0.0
  0
VERTEX
  5
114C
330
3A3
100
AcDbEntity
  8
4_5
 62
     0
100
AcDbVertex
100
AcDb2dVertex
 10
708.0141576
 20
357.7823324
 30
0.0
  0
VERTEX
  5
114D
330
3A3
100
AcDbEntity
  8
4_5
 62
     0
100
AcDbVertex
100
AcDb2dVertex
 10
705.4919375999999
 20
351.7625323999999
 30
0.0
  0
VERTEX
  5
114E
330
3A3
100
AcDbEntity
  8
4_5
 62
     0
100
AcDbVertex
100
AcDb2dVertex
 10
702.6699976
 20
345.1788524
 30
0.0
  0
VERTEX
  5
114F
330
3A3
100
AcDbEntity
  8
4_5
 62
     0
100
AcDbVertex
100
AcDb2dVertex
 10
699.6270776
 20
338.3106923999999
 30
0.0
  0
VERTEX
  5
1150
330
3A3
100
AcDbEntity
  8
4_5
 62
     0
100
AcDbVertex
100
AcDb2dVertex
 10
696.4647775999999
 20
331.4399923999999
 30
0.0
  0
VERTEX
  5
1151
330
3A3
100
AcDbEntity
  8
4_5
 62
     0
100
AcDbVertex
100
AcDb2dVertex
 10
693.2719976000001
 20
324.8258324
 30
0.0
  0
VERTEX
  5
1152
330
3A3
100
AcDbEntity
  8
4_5
 62
     0
100
AcDbVertex
100
AcDb2dVertex
 10
690.1528776
 20
318.6358524
 30
0.0
  0
VERTEX
  5
1153
330
3A3
100
AcDbEntity
  8
4_5
 62
     0
100
AcDbVertex
100
AcDb2dVertex
 10
687.2217175999999
 20
313.0097524
 30
0.0
  0
VERTEX
  5
1154
330
3A3
100
AcDbEntity
  8
4_5
 62
     0
100
AcDbVertex
100
AcDb2dVertex
 10
684.5775776
 20
308.0897724
 30
0.0
  0
VERTEX
  5
1155
330
3A3
100
AcDbEntity
  8
4_5
 62
     0
100
AcDbVertex
100
AcDb2dVertex
 10
682.3372975999999
 20
304.0156124
 30
0.0
  0
VERTEX
  5
1156
330
3A3
100
AcDbEntity
  8
4_5
 62
     0
100
AcDbVertex
100
AcDb2dVertex
 10
680.6024776
 20
300.9320523999999
 30
0.0
  0
VERTEX
  5
1157
330
3A3
100
AcDbEntity
  8
4_5
 62
     0
100
AcDbVertex
100
AcDb2dVertex
 10
679.4848776
 20
298.9762524
 30
0.0
  0
VERTEX
  5
1158
330
3A3
100
AcDbEntity
  8
4_5
 62
     0
100
AcDbVertex
100
AcDb2dVertex
 10
679.0860976
 20
298.2929923999999
 30
0.0
  0
VERTEX
  5
1159
330
3A3
100
AcDbEntity
  8
4_5
 62
     0
100
AcDbVertex
100
AcDb2dVertex
 10
548.4640576
 20
298.2929923999999
 30
0.0
  0
VERTEX
  5
115A
330
3A3
100
AcDbEntity
  8
4_5
 62
     0
100
AcDbVertex
100
AcDb2dVertex
 10
560.3309376
 20
285.3770924
 30
0.0
  0
VERTEX
  5
115B
330
3A3
100
AcDbEntity
  8
4_5
 62
     0
100
AcDbVertex
100
AcDb2dVertex
 10
560.6839976
 20
285.5371124
 30
0.0
  0
VERTEX
  5
115C
330
3A3
100
AcDbEntity
  8
4_5
 62
     0
100
AcDbVertex
100
AcDb2dVertex
 10
561.7101576
 20
285.9663724
 30
0.0
  0
VERTEX
  5
115D
330
3A3
100
AcDbEntity
  8
4_5
 62
     0
100
AcDbVertex
100
AcDb2dVertex
 10
563.3509976
 20
286.6013723999999
 30
0.0
  0
VERTEX
  5
115E
330
3A3
100
AcDbEntity
  8
4_5
 62
     0
100
AcDbVertex
100
AcDb2dVertex
 10
565.5557176
 20
287.3735324
 30
0.0
  0
VERTEX
  5
115F
330
3A3
100
AcDbEntity
  8
4_5
 62
     0
100
AcDbVertex
100
AcDb2dVertex
 10
568.2684376
 20
288.2218923999999
 30
0.0
  0
VERTEX
  5
1160
330
3A3
100
AcDbEntity
  8
4_5
 62
     0
100
AcDbVertex
100
AcDb2dVertex
 10
571.4332776
 20
289.0727924
 30
0.0
  0
VERTEX
  5
1161
330
3A3
100
AcDbEntity
  8
4_5
 62
     0
100
AcDbVertex
100
AcDb2dVertex
 10
574.9994376
 20
289.8652724
 30
0.0
  0
VERTEX
  5
1162
330
3A3
100
AcDbEntity
  8
4_5
 62
     0
100
AcDbVertex
100
AcDb2dVertex
 10
578.9110376
 20
290.5307524
 30
0.0
  0
VERTEX
  5
1163
330
3A3
100
AcDbEntity
  8
4_5
 62
     0
100
AcDbVertex
100
AcDb2dVertex
 10
581.4713576
 20
290.7923724
 30
0.0
  0
VERTEX
  5
1164
330
3A3
100
AcDbEntity
  8
4_5
 62
     0
100
AcDbVertex
100
AcDb2dVertex
 10
584.9968776
 20
290.9981124
 30
0.0
  0
VERTEX
  5
1165
330
3A3
100
AcDbEntity
  8
4_5
 62
     0
100
AcDbVertex
100
AcDb2dVertex
 10
589.3224976
 20
291.1555923999999
 30
0.0
  0
VERTEX
  5
1166
330
3A3
100
AcDbEntity
  8
4_5
 62
     0
100
AcDbVertex
100
AcDb2dVertex
 10
594.2958176
 20
291.2673523999999
 30
0.0
  0
VERTEX
  5
1167
330
3A3
100
AcDbEntity
  8
4_5
 62
     0
100
AcDbVertex
100
AcDb2dVertex
 10
599.7644376000001
 20
291.3410124
 30
0.0
  0
VERTEX
  5
1168
330
3A3
100
AcDbEntity
  8
4_5
 62
     0
100
AcDbVertex
100
AcDb2dVertex
 10
605.5657976
 20
291.3816524
 30
0.0
  0
VERTEX
  5
1169
330
3A3
100
AcDbEntity
  8
4_5
 62
     0
100
AcDbVertex
100
AcDb2dVertex
 10
611.5576576
 20
291.3918124
 30
0.0
  0
VERTEX
  5
116A
330
3A3
100
AcDbEntity
  8
4_5
 62
     0
100
AcDbVertex
100
AcDb2dVertex
 10
617.5723776
 20
291.3791123999999
 30
0.0
  0
VERTEX
  5
116B
330
3A3
100
AcDbEntity
  8
4_5
 62
     0
100
AcDbVertex
100
AcDb2dVertex
 10
623.4626376
 20
291.3486323999999
 30
0.0
  0
VERTEX
  5
116C
330
3A3
100
AcDbEntity
  8
4_5
 62
     0
100
AcDbVertex
100
AcDb2dVertex
 10
629.0684176000001
 20
291.3054524
 30
0.0
  0
VERTEX
  5
116D
330
3A3
100
AcDbEntity
  8
4_5
 62
     0
100
AcDbVertex
100
AcDb2dVertex
 10
634.2398575999999
 20
291.2546524
 30
0.0
  0
VERTEX
  5
116E
330
3A3
100
AcDbEntity
  8
4_5
 62
     0
100
AcDbVertex
100
AcDb2dVertex
 10
638.8169376
 20
291.2013123999999
 30
0.0
  0
VERTEX
  5
116F
330
3A3
100
AcDbEntity
  8
4_5
 62
     0
100
AcDbVertex
100
AcDb2dVertex
 10
642.6472576
 20
291.1505124
 30
0.0
  0
VERTEX
  5
1170
330
3A3
100
AcDbEntity
  8
4_5
 62
     0
100
AcDbVertex
100
AcDb2dVertex
 10
645.5758776
 20
291.1073324
 30
0.0
  0
VERTEX
  5
1171
330
3A3
100
AcDbEntity
  8
4_5
 62
     0
100
AcDbVertex
100
AcDb2dVertex
 10
647.4453176
 20
291.0768524
 30
0.0
  0
VERTEX
  5
1172
330
3A3
100
AcDbEntity
  8
4_5
 62
     0
100
AcDbVertex
100
AcDb2dVertex
 10
648.1057175999999
 20
291.0666924
 30
0.0
  0
VERTEX
  5
1173
330
3A3
100
AcDbEntity
  8
4_5
 62
     0
100
AcDbVertex
100
AcDb2dVertex
 10
644.7579976000001
 20
253.3680124
 30
0.0
  0
VERTEX
  5
1174
330
3A3
100
AcDbEntity
  8
4_5
 62
     0
100
AcDbVertex
100
AcDb2dVertex
 10
613.5083776
 20
253.3680124
 30
0.0
  0
VERTEX
  5
1175
330
3A3
100
AcDbEntity
  8
4_5
 62
     0
100
AcDbVertex
100
AcDb2dVertex
 10
591.3113175999999
 20
265.2348924
 30
0.0
  0
VERTEX
  5
1176
330
3A3
100
AcDbEntity
  8
4_5
 62
     0
100
AcDbVertex
100
AcDb2dVertex
 10
591.3113175999999
 20
79.8725504
 30
0.0
  0
VERTEX
  5
1177
330
3A3
100
AcDbEntity
  8
4_5
 62
     0
100
AcDbVertex
100
AcDb2dVertex
 10
611.4560576
 20
89.15244039999999
 30
0.0
  0
VERTEX
  5
1178
330
3A3
100
AcDbEntity
  8
4_5
 62
     0
100
AcDbVertex
100
AcDb2dVertex
 10
611.4560576
 20
105.6804744
 30
0.0
  0
VERTEX
  5
1179
330
3A3
100
AcDbEntity
  8
4_5
 62
     0
100
AcDbVertex
100
AcDb2dVertex
 10
723.4979976
 20
105.6804744
 30
0.0
  0
VERTEX
  5
117A
330
3A3
100
AcDbEntity
  8
4_5
 62
     0
100
AcDbVertex
100
AcDb2dVertex
 10
723.4979976
 20
85.53751239999998
 30
0.0
  0
VERTEX
  5
117B
330
3A3
100
AcDbEntity
  8
4_5
 62
     0
100
AcDbVertex
100
AcDb2dVertex
 10
743.6401976000001
 20
93.30000639999999
 30
0.0
  0
VERTEX
  5
117C
330
3A3
100
AcDbEntity
  8
4_5
 62
     0
100
AcDbVertex
100
AcDb2dVertex
 10
743.6401976000001
 20
237.8658844
 30
0.0
  0
VERTEX
  5
117D
330
3A3
100
AcDbEntity
  8
4_5
 62
     0
100
AcDbVertex
100
AcDb2dVertex
 10
758.0953376
 20
247.1676184
 30
0.0
  0
VERTEX
  5
117E
330
3A3
100
AcDbEntity
  8
4_5
 62
     0
100
AcDbVertex
100
AcDb2dVertex
 10
736.4113576
 20
267.8231524
 30
0.0
  0
VERTEX
  5
117F
330
3A3
100
AcDbEntity
  8
4_5
 62
     0
100
AcDbVertex
100
AcDb2dVertex
 10
722.4743776
 20
253.3680124
 30
0.0
  0
VERTEX
  5
1180
330
3A3
100
AcDbEntity
  8
4_5
 62
     0
100
AcDbVertex
100
AcDb2dVertex
 10
653.3025576
 20
253.3680124
 30
0.0
  0
VERTEX
  5
1181
330
3A3
100
AcDbEntity
  8
4_5
 62
     0
100
AcDbVertex
100
AcDb2dVertex
 10
672.3728776
 20
290.5307524
 30
0.0
  0
VERTEX
  5
1182
330
3A3
100
AcDbEntity
  8
4_5
 62
     0
100
AcDbVertex
100
AcDb2dVertex
 10
791.1534376000001
 20
290.5307524
 30
0.0
  0
VERTEX
  5
1183
330
3A3
100
AcDbEntity
  8
4_5
 62
     0
100
AcDbVertex
100
AcDb2dVertex
 10
765.3216376
 20
317.3861724
 30
0.0
  0
VERTEX
  5
1184
330
3A3
100
AcDbEntity
  8
4_5
 62
     0
100
AcDbVertex
100
AcDb2dVertex
 10
746.2309975999999
 20
298.2929923999999
 30
0.0
  0
VERTEX
  5
1185
330
3A3
100
AcDbEntity
  8
4_5
 62
     0
100
AcDbVertex
100
AcDb2dVertex
 10
689.4162776
 20
298.2929923999999
 30
0.0
  0
VERTEX
  5
1186
330
3A3
100
AcDbEntity
  8
4_5
 62
     0
100
AcDbVertex
100
AcDb2dVertex
 10
689.9090376
 20
299.0397524
 30
0.0
  0
VERTEX
  5
1187
330
3A3
100
AcDbEntity
  8
4_5
 62
     0
100
AcDbVertex
100
AcDb2dVertex
 10
691.3161976
 20
301.1149324
 30
0.0
  0
VERTEX
  5
1188
330
3A3
100
AcDbEntity
  8
4_5
 62
     0
100
AcDbVertex
100
AcDb2dVertex
 10
693.5437776
 20
304.2772323999999
 30
0.0
  0
VERTEX
  5
1189
330
3A3
100
AcDbEntity
  8
4_5
 62
     0
100
AcDbVertex
100
AcDb2dVertex
 10
696.4876376
 20
308.2853524
 30
0.0
  0
VERTEX
  5
118A
330
3A3
100
AcDbEntity
  8
4_5
 62
     0
100
AcDbVertex
100
AcDb2dVertex
 10
700.0512576
 20
312.9005324
 30
0.0
  0
VERTEX
  5
118B
330
3A3
100
AcDbEntity
  8
4_5
 62
     0
100
AcDbVertex
100
AcDb2dVertex
 10
704.1304976
 20
317.8789324
 30
0.0
  0
VERTEX
  5
118C
330
3A3
100
AcDbEntity
  8
4_5
 62
     0
100
AcDbVertex
100
AcDb2dVertex
 10
708.6237576
 20
322.9817924
 30
0.0
  0
VERTEX
  5
118D
330
3A3
100
AcDbEntity
  8
4_5
 62
     0
100
AcDbVertex
100
AcDb2dVertex
 10
713.4395976000001
 20
327.9601924
 30
0.0
  0
VERTEX
  5
118E
330
3A3
100
AcDbEntity
  8
4_5
 62
     0
100
AcDbVertex
100
AcDb2dVertex
 10
718.4535576
 20
332.6109324
 30
0.0
  0
VERTEX
  5
118F
330
3A3
100
AcDbEntity
  8
4_5
 62
     0
100
AcDbVertex
100
AcDb2dVertex
 10
723.4725976
 20
336.8400323999999
 30
0.0
  0
VERTEX
  5
1190
330
3A3
100
AcDbEntity
  8
4_5
 62
     0
100
AcDbVertex
100
AcDb2dVertex
 10
728.2960575999999
 20
340.5865324
 30
0.0
  0
VERTEX
  5
1191
330
3A3
100
AcDbEntity
  8
4_5
 62
     0
100
AcDbVertex
100
AcDb2dVertex
 10
732.7080376
 20
343.7869324
 30
0.0
  0
VERTEX
  5
1192
330
3A3
100
AcDbEntity
  8
4_5
 62
     0
100
AcDbVertex
100
AcDb2dVertex
 10
736.5053376
 20
346.3853523999999
 30
0.0
  0
VERTEX
  5
1193
330
3A3
100
AcDbEntity
  8
4_5
 62
     0
100
AcDbVertex
100
AcDb2dVertex
 10
739.4745976
 20
348.3157524
 30
0.0
  0
VERTEX
  5
1194
330
3A3
100
AcDbEntity
  8
4_5
 62
     0
100
AcDbVertex
100
AcDb2dVertex
 10
741.4100776
 20
349.5197123999999
 30
0.0
  0
VERTEX
  5
1195
330
3A3
100
AcDbEntity
  8
4_5
 62
     0
100
AcDbVertex
100
AcDb2dVertex
 10
742.1034976
 20
349.9311923999999
 30
0.0
  0
VERTEX
  5
1196
330
3A3
100
AcDbEntity
  8
4_5
 62
     0
100
AcDbVertex
100
AcDb2dVertex
 10
713.1703576
 20
370.5661524
 30
0.0
  0
SEQEND
  5
1488
330
3A3
100
AcDbEntity
  8
4_5
 62
     0
  0
POLYLINE
  5
3F4
330
1D
100
AcDbEntity
  8
4_5
 62
     0
100
AcDb2dPolyline
 66
     1
 10
0.0
 20
0.0
 30
0.0
 70
     1
 40
3.175
 41
3.175
  0
VERTEX
  5
1197
330
3F4
100
AcDbEntity
  8
4_5
 62
     0
100
AcDbVertex
100
AcDb2dVertex
 10
610.9429776
 20
246.1409504
 30
0.0
  0
VERTEX
  5
1198
330
3F4
100
AcDbEntity
  8
4_5
 62
     0
100
AcDbVertex
100
AcDb2dVertex
 10
722.9849176
 20
246.1409504
 30
0.0
  0
VERTEX
  5
1199
330
3F4
100
AcDbEntity
  8
4_5
 62
     0
100
AcDbVertex
100
AcDb2dVertex
 10
722.9849176
 20
208.9576364
 30
0.0
  0
VERTEX
  5
119A
330
3F4
100
AcDbEntity
  8
4_5
 62
     0
100
AcDbVertex
100
AcDb2dVertex
 10
610.7423176
 20
208.9576364
 30
0.0
  0
VERTEX
  5
119B
330
3F4
100
AcDbEntity
  8
4_5
 62
     0
100
AcDbVertex
100
AcDb2dVertex
 10
610.9429776
 20
246.1409504
 30
0.0
  0
SEQEND
  5
1489
330
3F4
100
AcDbEntity
  8
4_5
 62
     0
  0
POLYLINE
  5
3FB
330
1D
100
AcDbEntity
  8
4_5
 62
     0
100
AcDb2dPolyline
 66
     1
 10
0.0
 20
0.0
 30
0.0
 70
     1
 40
3.175
 41
3.175
  0
VERTEX
  5
119C
330
3FB
100
AcDbEntity
  8
4_5
 62
     0
100
AcDbVertex
100
AcDb2dVertex
 10
611.7024376
 20
200.1461224
 30
0.0
  0
VERTEX
  5
119D
330
3FB
100
AcDbEntity
  8
4_5
 62
     0
100
AcDbVertex
100
AcDb2dVertex
 10
723.7646976
 20
200.1461224
 30
0.0
  0
VERTEX
  5
119E
330
3FB
100
AcDbEntity
  8
4_5
 62
     0
100
AcDbVertex
100
AcDb2dVertex
 10
723.7646976
 20
160.4423664
 30
0.0
  0
VERTEX
  5
119F
330
3FB
100
AcDbEntity
  8
4_5
 62
     0
100
AcDbVertex
100
AcDb2dVertex
 10
611.5220975999999
 20
160.4423664
 30
0.0
  0
VERTEX
  5
11A0
330
3FB
100
AcDbEntity
  8
4_5
 62
     0
100
AcDbVertex
100
AcDb2dVertex
 10
611.7024376
 20
200.1461224
 30
0.0
  0
SEQEND
  5
148A
330
3FB
100
AcDbEntity
  8
4_5
 62
     0
  0
POLYLINE
  5
402
330
1D
100
AcDbEntity
  8
4_5
 62
     0
100
AcDb2dPolyline
 66
     1
 10
0.0
 20
0.0
 30
0.0
 70
     1
 40
3.175
 41
3.175
  0
VERTEX
  5
11A1
330
402
100
AcDbEntity
  8
4_5
 62
     0
100
AcDbVertex
100
AcDb2dVertex
 10
611.7024376
 20
152.6562504
 30
0.0
  0
VERTEX
  5
11A2
330
402
100
AcDbEntity
  8
4_5
 62
     0
100
AcDbVertex
100
AcDb2dVertex
 10
723.7646976
 20
152.6562504
 30
0.0
  0
VERTEX
  5
11A3
330
402
100
AcDbEntity
  8
4_5
 62
     0
100
AcDbVertex
100
AcDb2dVertex
 10
723.7646976
 20
113.4429684
 30
0.0
  0
VERTEX
  5
11A4
330
402
100
AcDbEntity
  8
4_5
 62
     0
100
AcDbVertex
100
AcDb2dVertex
 10
611.5220975999999
 20
113.4429684
 30
0.0
  0
VERTEX
  5
11A5
330
402
100
AcDbEntity
  8
4_5
 62
     0
100
AcDbVertex
100
AcDb2dVertex
 10
611.7024376
 20
152.6562504
 30
0.0
  0
SEQEND
  5
148B
330
402
100
AcDbEntity
  8
4_5
 62
     0
  0
POLYLINE
  5
409
330
1D
100
AcDbEntity
  8
4_5
 62
     0
100
AcDb2dPolyline
 66
     1
 10
0.0
 20
0.0
 30
0.0
 70
     1
 40
3.175
 41
3.175
  0
VERTEX
  5
11A6
330
409
100
AcDbEntity
  8
4_5
 62
     0
100
AcDbVertex
100
AcDb2dVertex
 10
449.8333176
 20
76.25101839999999
 30
0.0
  0
VERTEX
  5
11A7
330
409
100
AcDbEntity
  8
4_5
 62
     0
100
AcDbVertex
100
AcDb2dVertex
 10
468.9366576
 20
55.5970084
 30
0.0
  0
VERTEX
  5
11A8
330
409
100
AcDbEntity
  8
4_5
 62
     0
100
AcDbVertex
100
AcDb2dVertex
 10
469.3811576
 20
56.2530904
 30
0.0
  0
VERTEX
  5
11A9
330
409
100
AcDbEntity
  8
4_5
 62
     0
100
AcDbVertex
100
AcDb2dVertex
 10
470.6460776
 20
58.0785884
 30
0.0
  0
VERTEX
  5
11AA
330
409
100
AcDbEntity
  8
4_5
 62
     0
100
AcDbVertex
100
AcDb2dVertex
 10
472.6399776000001
 20
60.8667464
 30
0.0
  0
VERTEX
  5
11AB
330
409
100
AcDbEntity
  8
4_5
 62
     0
100
AcDbVertex
100
AcDb2dVertex
 10
475.2612576
 20
64.4082684
 30
0.0
  0
VERTEX
  5
11AC
330
409
100
AcDbEntity
  8
4_5
 62
     0
100
AcDbVertex
100
AcDb2dVertex
 10
478.4184776
 20
68.49411239999999
 30
0.0
  0
VERTEX
  5
11AD
330
409
100
AcDbEntity
  8
4_5
 62
     0
100
AcDbVertex
100
AcDb2dVertex
 10
482.0074976
 20
72.91625239999999
 30
0.0
  0
VERTEX
  5
11AE
330
409
100
AcDbEntity
  8
4_5
 62
     0
100
AcDbVertex
100
AcDb2dVertex
 10
485.9368776
 20
77.46513839999999
 30
0.0
  0
VERTEX
  5
11AF
330
409
100
AcDbEntity
  8
4_5
 62
     0
100
AcDbVertex
100
AcDb2dVertex
 10
490.1100976
 20
81.93147439999998
 30
0.0
  0
VERTEX
  5
11B0
330
409
100
AcDbEntity
  8
4_5
 62
     0
100
AcDbVertex
100
AcDb2dVertex
 10
494.2223576
 20
86.13288839999998
 30
0.0
  0
VERTEX
  5
11B1
330
409
100
AcDbEntity
  8
4_5
 62
     0
100
AcDbVertex
100
AcDb2dVertex
 10
498.0399776
 20
89.98048039999999
 30
0.0
  0
VERTEX
  5
11B2
330
409
100
AcDbEntity
  8
4_5
 62
     0
100
AcDbVertex
100
AcDb2dVertex
 10
501.5553376
 20
93.40897239999998
 30
0.0
  0
VERTEX
  5
11B3
330
409
100
AcDbEntity
  8
4_5
 62
     0
100
AcDbVertex
100
AcDb2dVertex
 10
504.7608176
 20
96.35791239999999
 30
0.0
  0
VERTEX
  5
11B4
330
409
100
AcDbEntity
  8
4_5
 62
     0
100
AcDbVertex
100
AcDb2dVertex
 10
507.6513376
 20
98.76126039999998
 30
0.0
  0
VERTEX
  5
11B5
330
409
100
AcDbEntity
  8
4_5
 62
     0
100
AcDbVertex
100
AcDb2dVertex
 10
510.2218176
 20
100.5570404
 30
0.0
  0
VERTEX
  5
11B6
330
409
100
AcDbEntity
  8
4_5
 62
     0
100
AcDbVertex
100
AcDb2dVertex
 10
512.4646376000001
 20
101.6799744
 30
0.0
  0
VERTEX
  5
11B7
330
409
100
AcDbEntity
  8
4_5
 62
     0
100
AcDbVertex
100
AcDb2dVertex
 10
514.3772576
 20
102.0685944
 30
0.0
  0
VERTEX
  5
11B8
330
409
100
AcDbEntity
  8
4_5
 62
     0
100
AcDbVertex
100
AcDb2dVertex
 10
515.8809376
 20
101.8549804
 30
0.0
  0
VERTEX
  5
11B9
330
409
100
AcDbEntity
  8
4_5
 62
     0
100
AcDbVertex
100
AcDb2dVertex
 10
517.4989176
 20
101.2281084
 30
0.0
  0
VERTEX
  5
11BA
330
409
100
AcDbEntity
  8
4_5
 62
     0
100
AcDbVertex
100
AcDb2dVertex
 10
519.2464376
 20
100.2123624
 30
0.0
  0
VERTEX
  5
11BB
330
409
100
AcDbEntity
  8
4_5
 62
     0
100
AcDbVertex
100
AcDb2dVertex
 10
521.1336576
 20
98.83288839999999
 30
0.0
  0
VERTEX
  5
11BC
330
409
100
AcDbEntity
  8
4_5
 62
     0
100
AcDbVertex
100
AcDb2dVertex
 10
523.1732776
 20
97.1145784
 30
0.0
  0
VERTEX
  5
11BD
330
409
100
AcDbEntity
  8
4_5
 62
     0
100
AcDbVertex
100
AcDb2dVertex
 10
525.3729175999999
 20
95.08054639999999
 30
0.0
  0
VERTEX
  5
11BE
330
409
100
AcDbEntity
  8
4_5
 62
     0
100
AcDbVertex
100
AcDb2dVertex
 10
527.7554376
 20
92.7572084
 30
0.0
  0
VERTEX
  5
11BF
330
409
100
AcDbEntity
  8
4_5
 62
     0
100
AcDbVertex
100
AcDb2dVertex
 10
530.3259176
 20
90.16767839999999
 30
0.0
  0
VERTEX
  5
11C0
330
409
100
AcDbEntity
  8
4_5
 62
     0
100
AcDbVertex
100
AcDb2dVertex
 10
533.1021376
 20
87.3388804
 30
0.0
  0
VERTEX
  5
11C1
330
409
100
AcDbEntity
  8
4_5
 62
     0
100
AcDbVertex
100
AcDb2dVertex
 10
536.0942576
 20
84.29037239999998
 30
0.0
  0
VERTEX
  5
11C2
330
409
100
AcDbEntity
  8
4_5
 62
     0
100
AcDbVertex
100
AcDb2dVertex
 10
539.3149776
 20
81.05085639999999
 30
0.0
  0
VERTEX
  5
11C3
330
409
100
AcDbEntity
  8
4_5
 62
     0
100
AcDbVertex
100
AcDb2dVertex
 10
542.7795376
 20
77.64420839999998
 30
0.0
  0
VERTEX
  5
11C4
330
409
100
AcDbEntity
  8
4_5
 62
     0
100
AcDbVertex
100
AcDb2dVertex
 10
546.4955576
 20
74.0930344
 30
0.0
  0
VERTEX
  5
11C5
330
409
100
AcDbEntity
  8
4_5
 62
     0
100
AcDbVertex
100
AcDb2dVertex
 10
550.4782776000001
 20
70.42476639999998
 30
0.0
  0
VERTEX
  5
11C6
330
409
100
AcDbEntity
  8
4_5
 62
     0
100
AcDbVertex
100
AcDb2dVertex
 10
554.7429376
 20
66.65997839999999
 30
0.0
  0
VERTEX
  5
11C7
330
409
100
AcDbEntity
  8
4_5
 62
     0
100
AcDbVertex
100
AcDb2dVertex
 10
559.2996976000001
 20
62.82635639999999
 30
0.0
  0
VERTEX
  5
11C8
330
409
100
AcDbEntity
  8
4_5
 62
     0
100
AcDbVertex
100
AcDb2dVertex
 10
564.7606976000001
 20
59.1634224
 30
0.0
  0
VERTEX
  5
11C9
330
409
100
AcDbEntity
  8
4_5
 62
     0
100
AcDbVertex
100
AcDb2dVertex
 10
571.6745776
 20
55.7897944
 30
0.0
  0
VERTEX
  5
11CA
330
409
100
AcDbEntity
  8
4_5
 62
     0
100
AcDbVertex
100
AcDb2dVertex
 10
579.8000376
 20
52.7031864
 30
0.0
  0
VERTEX
  5
11CB
330
409
100
AcDbEntity
  8
4_5
 62
     0
100
AcDbVertex
100
AcDb2dVertex
 10
588.8805376
 20
49.8916604
 30
0.0
  0
VERTEX
  5
11CC
330
409
100
AcDbEntity
  8
4_5
 62
     0
100
AcDbVertex
100
AcDb2dVertex
 10
598.6696976
 20
47.34937439999999
 30
0.0
  0
VERTEX
  5
11CD
330
409
100
AcDbEntity
  8
4_5
 62
     0
100
AcDbVertex
100
AcDb2dVertex
 10
608.9185976
 20
45.0689624
 30
0.0
  0
VERTEX
  5
11CE
330
409
100
AcDbEntity
  8
4_5
 62
     0
100
AcDbVertex
100
AcDb2dVertex
 10
619.3706976
 20
43.0415344
 30
0.0
  0
VERTEX
  5
11CF
330
409
100
AcDbEntity
  8
4_5
 62
     0
100
AcDbVertex
100
AcDb2dVertex
 10
629.7846976
 20
41.2599784
 30
0.0
  0
VERTEX
  5
11D0
330
409
100
AcDbEntity
  8
4_5
 62
     0
100
AcDbVertex
100
AcDb2dVertex
 10
639.9091376
 20
39.7166744
 30
0.0
  0
VERTEX
  5
11D1
330
409
100
AcDbEntity
  8
4_5
 62
     0
100
AcDbVertex
100
AcDb2dVertex
 10
649.4950976
 20
38.4045104
 30
0.0
  0
VERTEX
  5
11D2
330
409
100
AcDbEntity
  8
4_5
 62
     0
100
AcDbVertex
100
AcDb2dVertex
 10
658.2885775999999
 20
37.3145964
 30
0.0
  0
VERTEX
  5
11D3
330
409
100
AcDbEntity
  8
4_5
 62
     0
100
AcDbVertex
100
AcDb2dVertex
 10
666.0431976
 20
36.4410904
 30
0.0
  0
VERTEX
  5
11D4
330
409
100
AcDbEntity
  8
4_5
 62
     0
100
AcDbVertex
100
AcDb2dVertex
 10
672.5074976
 20
35.7740864
 30
0.0
  0
VERTEX
  5
11D5
330
409
100
AcDbEntity
  8
4_5
 62
     0
100
AcDbVertex
100
AcDb2dVertex
 10
677.4350976000001
 20
35.3082504
 30
0.0
  0
VERTEX
  5
11D6
330
409
100
AcDbEntity
  8
4_5
 62
     0
100
AcDbVertex
100
AcDb2dVertex
 10
680.5745376
 20
35.0339304
 30
0.0
  0
VERTEX
  5
11D7
330
409
100
AcDbEntity
  8
4_5
 62
     0
100
AcDbVertex
100
AcDb2dVertex
 10
681.6794376
 20
34.9427444
 30
0.0
  0
VERTEX
  5
11D8
330
409
100
AcDbEntity
  8
4_5
 62
     0
100
AcDbVertex
100
AcDb2dVertex
 10
771.5243176
 20
34.4263624
 30
0.0
  0
VERTEX
  5
11D9
330
409
100
AcDbEntity
  8
4_5
 62
     0
100
AcDbVertex
100
AcDb2dVertex
 10
771.5801976
 20
34.8370804
 30
0.0
  0
VERTEX
  5
11DA
330
409
100
AcDbEntity
  8
4_5
 62
     0
100
AcDbVertex
100
AcDb2dVertex
 10
771.7884776000001
 20
35.9597604
 30
0.0
  0
VERTEX
  5
11DB
330
409
100
AcDbEntity
  8
4_5
 62
     0
100
AcDbVertex
100
AcDb2dVertex
 10
772.2050376
 20
37.6397164
 30
0.0
  0
VERTEX
  5
11DC
330
409
100
AcDbEntity
  8
4_5
 62
     0
100
AcDbVertex
100
AcDb2dVertex
 10
772.8781376000001
 20
39.7194684
 30
0.0
  0
VERTEX
  5
11DD
330
409
100
AcDbEntity
  8
4_5
 62
     0
100
AcDbVertex
100
AcDb2dVertex
 10
773.8661976
 20
42.0415364
 30
0.0
  0
VERTEX
  5
11DE
330
409
100
AcDbEntity
  8
4_5
 62
     0
100
AcDbVertex
100
AcDb2dVertex
 10
775.2250975999999
 20
44.4474244
 30
0.0
  0
VERTEX
  5
11DF
330
409
100
AcDbEntity
  8
4_5
 62
     0
100
AcDbVertex
100
AcDb2dVertex
 10
777.0056376
 20
46.7816844
 30
0.0
  0
VERTEX
  5
11E0
330
409
100
AcDbEntity
  8
4_5
 62
     0
100
AcDbVertex
100
AcDb2dVertex
 10
779.2687776
 20
48.8845504
 30
0.0
  0
VERTEX
  5
11E1
330
409
100
AcDbEntity
  8
4_5
 62
     0
100
AcDbVertex
100
AcDb2dVertex
 10
781.9941976
 20
50.7230024
 30
0.0
  0
VERTEX
  5
11E2
330
409
100
AcDbEntity
  8
4_5
 62
     0
100
AcDbVertex
100
AcDb2dVertex
 10
785.0040976
 20
52.35444439999999
 30
0.0
  0
VERTEX
  5
11E3
330
409
100
AcDbEntity
  8
4_5
 62
     0
100
AcDbVertex
100
AcDb2dVertex
 10
788.1003576
 20
53.7684624
 30
0.0
  0
VERTEX
  5
11E4
330
409
100
AcDbEntity
  8
4_5
 62
     0
100
AcDbVertex
100
AcDb2dVertex
 10
791.0797776
 20
54.9521024
 30
0.0
  0
VERTEX
  5
11E5
330
409
100
AcDbEntity
  8
4_5
 62
     0
100
AcDbVertex
100
AcDb2dVertex
 10
793.7467776
 20
55.89469639999999
 30
0.0
  0
VERTEX
  5
11E6
330
409
100
AcDbEntity
  8
4_5
 62
     0
100
AcDbVertex
100
AcDb2dVertex
 10
795.8981576
 20
56.5822744
 30
0.0
  0
VERTEX
  5
11E7
330
409
100
AcDbEntity
  8
4_5
 62
     0
100
AcDbVertex
100
AcDb2dVertex
 10
797.3332576
 20
57.0041684
 30
0.0
  0
VERTEX
  5
11E8
330
409
100
AcDbEntity
  8
4_5
 62
     0
100
AcDbVertex
100
AcDb2dVertex
 10
797.8590376
 20
57.1459004
 30
0.0
  0
VERTEX
  5
11E9
330
409
100
AcDbEntity
  8
4_5
 62
     0
100
AcDbVertex
100
AcDb2dVertex
 10
797.3408776
 20
63.34146839999999
 30
0.0
  0
VERTEX
  5
11EA
330
409
100
AcDbEntity
  8
4_5
 62
     0
100
AcDbVertex
100
AcDb2dVertex
 10
796.8049376
 20
63.2962564
 30
0.0
  0
VERTEX
  5
11EB
330
409
100
AcDbEntity
  8
4_5
 62
     0
100
AcDbVertex
100
AcDb2dVertex
 10
795.2428375999999
 20
63.16265239999999
 30
0.0
  0
VERTEX
  5
11EC
330
409
100
AcDbEntity
  8
4_5
 62
     0
100
AcDbVertex
100
AcDb2dVertex
 10
792.7053776
 20
62.95589639999999
 30
0.0
  0
VERTEX
  5
11ED
330
409
100
AcDbEntity
  8
4_5
 62
     0
100
AcDbVertex
100
AcDb2dVertex
 10
789.2560576000001
 20
62.68716439999999
 30
0.0
  0
VERTEX
  5
11EE
330
409
100
AcDbEntity
  8
4_5
 62
     0
100
AcDbVertex
100
AcDb2dVertex
 10
784.9583776000001
 20
62.36610839999999
 30
0.0
  0
VERTEX
  5
11EF
330
409
100
AcDbEntity
  8
4_5
 62
     0
100
AcDbVertex
100
AcDb2dVertex
 10
779.8682176
 20
62.0046664
 30
0.0
  0
VERTEX
  5
11F0
330
409
100
AcDbEntity
  8
4_5
 62
     0
100
AcDbVertex
100
AcDb2dVertex
 10
774.0465376
 20
61.6150304
 30
0.0
  0
VERTEX
  5
11F1
330
409
100
AcDbEntity
  8
4_5
 62
     0
100
AcDbVertex
100
AcDb2dVertex
 10
767.5517576
 20
61.2086304
 30
0.0
  0
VERTEX
  5
11F2
330
409
100
AcDbEntity
  8
4_5
 62
     0
100
AcDbVertex
100
AcDb2dVertex
 10
760.4422976000001
 20
60.79638839999999
 30
0.0
  0
VERTEX
  5
11F3
330
409
100
AcDbEntity
  8
4_5
 62
     0
100
AcDbVertex
100
AcDb2dVertex
 10
752.7841976
 20
60.39125840000001
 30
0.0
  0
VERTEX
  5
11F4
330
409
100
AcDbEntity
  8
4_5
 62
     0
100
AcDbVertex
100
AcDb2dVertex
 10
744.6358776
 20
60.00416240000001
 30
0.0
  0
VERTEX
  5
11F5
330
409
100
AcDbEntity
  8
4_5
 62
     0
100
AcDbVertex
100
AcDb2dVertex
 10
736.0481375999999
 20
59.6442444
 30
0.0
  0
VERTEX
  5
11F6
330
409
100
AcDbEntity
  8
4_5
 62
     0
100
AcDbVertex
100
AcDb2dVertex
 10
727.0920976
 20
59.32623639999999
 30
0.0
  0
VERTEX
  5
11F7
330
409
100
AcDbEntity
  8
4_5
 62
     0
100
AcDbVertex
100
AcDb2dVertex
 10
717.8210976
 20
59.0600444
 30
0.0
  0
VERTEX
  5
11F8
330
409
100
AcDbEntity
  8
4_5
 62
     0
100
AcDbVertex
100
AcDb2dVertex
 10
708.2960976
 20
58.8563364
 30
0.0
  0
VERTEX
  5
11F9
330
409
100
AcDbEntity
  8
4_5
 62
     0
100
AcDbVertex
100
AcDb2dVertex
 10
698.5805976
 20
58.7278124
 30
0.0
  0
VERTEX
  5
11FA
330
409
100
AcDbEntity
  8
4_5
 62
     0
100
AcDbVertex
100
AcDb2dVertex
 10
688.7279376
 20
58.6866644
 30
0.0
  0
VERTEX
  5
11FB
330
409
100
AcDbEntity
  8
4_5
 62
     0
100
AcDbVertex
100
AcDb2dVertex
 10
678.7990776
 20
58.7430524
 30
0.0
  0
VERTEX
  5
11FC
330
409
100
AcDbEntity
  8
4_5
 62
     0
100
AcDbVertex
100
AcDb2dVertex
 10
668.8600576
 20
58.9099304
 30
0.0
  0
VERTEX
  5
11FD
330
409
100
AcDbEntity
  8
4_5
 62
     0
100
AcDbVertex
100
AcDb2dVertex
 10
658.9642176
 20
59.1961884
 30
0.0
  0
VERTEX
  5
11FE
330
409
100
AcDbEntity
  8
4_5
 62
     0
100
AcDbVertex
100
AcDb2dVertex
 10
649.1750576000001
 20
59.61528839999999
 30
0.0
  0
VERTEX
  5
11FF
330
409
100
AcDbEntity
  8
4_5
 62
     0
100
AcDbVertex
100
AcDb2dVertex
 10
639.5459175999999
 20
60.1791684
 30
0.0
  0
VERTEX
  5
1200
330
409
100
AcDbEntity
  8
4_5
 62
     0
100
AcDbVertex
100
AcDb2dVertex
 10
630.1453776
 20
60.8969724
 30
0.0
  0
VERTEX
  5
1201
330
409
100
AcDbEntity
  8
4_5
 62
     0
100
AcDbVertex
100
AcDb2dVertex
 10
621.0293176
 20
61.78292440000001
 30
0.0
  0
VERTEX
  5
1202
330
409
100
AcDbEntity
  8
4_5
 62
     0
100
AcDbVertex
100
AcDb2dVertex
 10
612.2561575999999
 20
62.8469304
 30
0.0
  0
VERTEX
  5
1203
330
409
100
AcDbEntity
  8
4_5
 62
     0
100
AcDbVertex
100
AcDb2dVertex
 10
603.8843176
 20
64.0996584
 30
0.0
  0
VERTEX
  5
1204
330
409
100
AcDbEntity
  8
4_5
 62
     0
100
AcDbVertex
100
AcDb2dVertex
 10
595.9798376
 20
65.55482439999999
 30
0.0
  0
VERTEX
  5
1205
330
409
100
AcDbEntity
  8
4_5
 62
     0
100
AcDbVertex
100
AcDb2dVertex
 10
588.5985976
 20
67.2220804
 30
0.0
  0
VERTEX
  5
1206
330
409
100
AcDbEntity
  8
4_5
 62
     0
100
AcDbVertex
100
AcDb2dVertex
 10
581.7964776
 20
69.11438039999999
 30
0.0
  0
VERTEX
  5
1207
330
409
100
AcDbEntity
  8
4_5
 62
     0
100
AcDbVertex
100
AcDb2dVertex
 10
575.6420576
 20
71.24340839999999
 30
0.0
  0
VERTEX
  5
1208
330
409
100
AcDbEntity
  8
4_5
 62
     0
100
AcDbVertex
100
AcDb2dVertex
 10
570.1861376
 20
73.6175464
 30
0.0
  0
VERTEX
  5
1209
330
409
100
AcDbEntity
  8
4_5
 62
     0
100
AcDbVertex
100
AcDb2dVertex
 10
565.4998376
 20
76.25101839999999
 30
0.0
  0
VERTEX
  5
120A
330
409
100
AcDbEntity
  8
4_5
 62
     0
100
AcDbVertex
100
AcDb2dVertex
 10
557.5674176
 20
81.43109439999999
 30
0.0
  0
VERTEX
  5
120B
330
409
100
AcDbEntity
  8
4_5
 62
     0
100
AcDbVertex
100
AcDb2dVertex
 10
550.7525976000001
 20
86.01173039999999
 30
0.0
  0
VERTEX
  5
120C
330
409
100
AcDbEntity
  8
4_5
 62
     0
100
AcDbVertex
100
AcDb2dVertex
 10
544.9715576000001
 20
90.03153439999998
 30
0.0
  0
VERTEX
  5
120D
330
409
100
AcDbEntity
  8
4_5
 62
     0
100
AcDbVertex
100
AcDb2dVertex
 10
540.1303176
 20
93.52606639999999
 30
0.0
  0
VERTEX
  5
120E
330
409
100
AcDbEntity
  8
4_5
 62
     0
100
AcDbVertex
100
AcDb2dVertex
 10
536.1577576
 20
96.5313944
 30
0.0
  0
VERTEX
  5
120F
330
409
100
AcDbEntity
  8
4_5
 62
     0
100
AcDbVertex
100
AcDb2dVertex
 10
532.9649776
 20
99.08511039999998
 30
0.0
  0
VERTEX
  5
1210
330
409
100
AcDbEntity
  8
4_5
 62
     0
100
AcDbVertex
100
AcDb2dVertex
 10
530.4706976
 20
101.2222664
 30
0.0
  0
VERTEX
  5
1211
330
409
100
AcDbEntity
  8
4_5
 62
     0
100
AcDbVertex
100
AcDb2dVertex
 10
528.5936376000001
 20
102.9809624
 30
0.0
  0
VERTEX
  5
1212
330
409
100
AcDbEntity
  8
4_5
 62
     0
100
AcDbVertex
100
AcDb2dVertex
 10
527.2474376
 20
104.3959964
 30
0.0
  0
VERTEX
  5
1213
330
409
100
AcDbEntity
  8
4_5
 62
     0
100
AcDbVertex
100
AcDb2dVertex
 10
526.3482776000001
 20
105.5039444
 30
0.0
  0
VERTEX
  5
1214
330
409
100
AcDbEntity
  8
4_5
 62
     0
100
AcDbVertex
100
AcDb2dVertex
 10
525.8148776
 20
106.3418904
 30
0.0
  0
VERTEX
  5
1215
330
409
100
AcDbEntity
  8
4_5
 62
     0
100
AcDbVertex
100
AcDb2dVertex
 10
525.5634176
 20
106.9453944
 30
0.0
  0
VERTEX
  5
1216
330
409
100
AcDbEntity
  8
4_5
 62
     0
100
AcDbVertex
100
AcDb2dVertex
 10
525.5151576
 20
107.3517944
 30
0.0
  0
VERTEX
  5
1217
330
409
100
AcDbEntity
  8
4_5
 62
     0
100
AcDbVertex
100
AcDb2dVertex
 10
525.5811976
 20
107.5974124
 30
0.0
  0
VERTEX
  5
1218
330
409
100
AcDbEntity
  8
4_5
 62
     0
100
AcDbVertex
100
AcDb2dVertex
 10
525.6853375999999
 20
107.7173004
 30
0.0
  0
VERTEX
  5
1219
330
409
100
AcDbEntity
  8
4_5
 62
     0
100
AcDbVertex
100
AcDb2dVertex
 10
525.7361376
 20
107.7487964
 30
0.0
  0
VERTEX
  5
121A
330
409
100
AcDbEntity
  8
4_5
 62
     0
100
AcDbVertex
100
AcDb2dVertex
 10
525.7361376
 20
228.5765964
 30
0.0
  0
VERTEX
  5
121B
330
409
100
AcDbEntity
  8
4_5
 62
     0
100
AcDbVertex
100
AcDb2dVertex
 10
539.6781976
 20
238.3868384
 30
0.0
  0
VERTEX
  5
121C
330
409
100
AcDbEntity
  8
4_5
 62
     0
100
AcDbVertex
100
AcDb2dVertex
 10
519.5410776
 20
259.0423724
 30
0.0
  0
VERTEX
  5
121D
330
409
100
AcDbEntity
  8
4_5
 62
     0
100
AcDbVertex
100
AcDb2dVertex
 10
504.0521576
 20
243.5506584
 30
0.0
  0
VERTEX
  5
121E
330
409
100
AcDbEntity
  8
4_5
 62
     0
100
AcDbVertex
100
AcDb2dVertex
 10
444.6694976
 20
243.5506584
 30
0.0
  0
VERTEX
  5
121F
330
409
100
AcDbEntity
  8
4_5
 62
     0
100
AcDbVertex
100
AcDb2dVertex
 10
458.0959376
 20
230.6423784
 30
0.0
  0
VERTEX
  5
1220
330
409
100
AcDbEntity
  8
4_5
 62
     0
100
AcDbVertex
100
AcDb2dVertex
 10
458.1340376
 20
230.7510904
 30
0.0
  0
VERTEX
  5
1221
330
409
100
AcDbEntity
  8
4_5
 62
     0
100
AcDbVertex
100
AcDb2dVertex
 10
458.3423176
 20
231.0444604
 30
0.0
  0
VERTEX
  5
1222
330
409
100
AcDbEntity
  8
4_5
 62
     0
100
AcDbVertex
100
AcDb2dVertex
 10
458.8503176
 20
231.4803244
 30
0.0
  0
VERTEX
  5
1223
330
409
100
AcDbEntity
  8
4_5
 62
     0
100
AcDbVertex
100
AcDb2dVertex
 10
459.7875776000001
 20
232.0147404
 30
0.0
  0
VERTEX
  5
1224
330
409
100
AcDbEntity
  8
4_5
 62
     0
100
AcDbVertex
100
AcDb2dVertex
 10
461.2887176
 20
232.6032584
 30
0.0
  0
VERTEX
  5
1225
330
409
100
AcDbEntity
  8
4_5
 62
     0
100
AcDbVertex
100
AcDb2dVertex
 10
463.4858176
 20
233.2029524
 30
0.0
  0
VERTEX
  5
1226
330
409
100
AcDbEntity
  8
4_5
 62
     0
100
AcDbVertex
100
AcDb2dVertex
 10
466.5058776
 20
233.7691184
 30
0.0
  0
VERTEX
  5
1227
330
409
100
AcDbEntity
  8
4_5
 62
     0
100
AcDbVertex
100
AcDb2dVertex
 10
470.4860576
 20
234.2570524
 30
0.0
  0
VERTEX
  5
1228
330
409
100
AcDbEntity
  8
4_5
 62
     0
100
AcDbVertex
100
AcDb2dVertex
 10
475.4619176
 20
234.6357664
 30
0.0
  0
VERTEX
  5
1229
330
409
100
AcDbEntity
  8
4_5
 62
     0
100
AcDbVertex
100
AcDb2dVertex
 10
481.1184976
 20
234.9085624
 30
0.0
  0
VERTEX
  5
122A
330
409
100
AcDbEntity
  8
4_5
 62
     0
100
AcDbVertex
100
AcDb2dVertex
 10
487.0341576
 20
235.0947444
 30
0.0
  0
VERTEX
  5
122B
330
409
100
AcDbEntity
  8
4_5
 62
     0
100
AcDbVertex
100
AcDb2dVertex
 10
492.8024976
 20
235.2090444
 30
0.0
  0
VERTEX
  5
122C
330
409
100
AcDbEntity
  8
4_5
 62
     0
100
AcDbVertex
100
AcDb2dVertex
 10
498.0094976
 20
235.2697504
 30
0.0
  0
VERTEX
  5
122D
330
409
100
AcDbEntity
  8
4_5
 62
     0
100
AcDbVertex
100
AcDb2dVertex
 10
502.2360576
 20
235.2915944
 30
0.0
  0
VERTEX
  5
122E
330
409
100
AcDbEntity
  8
4_5
 62
     0
100
AcDbVertex
100
AcDb2dVertex
 10
505.0783176
 20
235.2931184
 30
0.0
  0
VERTEX
  5
122F
330
409
100
AcDbEntity
  8
4_5
 62
     0
100
AcDbVertex
100
AcDb2dVertex
 10
506.1146376
 20
235.2893084
 30
0.0
  0
VERTEX
  5
1230
330
409
100
AcDbEntity
  8
4_5
 62
     0
100
AcDbVertex
100
AcDb2dVertex
 10
506.1146376
 20
110.8468344
 30
0.0
  0
VERTEX
  5
1231
330
409
100
AcDbEntity
  8
4_5
 62
     0
100
AcDbVertex
100
AcDb2dVertex
 10
449.8333176
 20
76.25101839999999
 30
0.0
  0
SEQEND
  5
148C
330
409
100
AcDbEntity
  8
4_5
 62
     0
  0
POLYLINE
  5
497
330
1D
100
AcDbEntity
  8
4_5
 62
     0
100
AcDb2dPolyline
 66
     1
 10
0.0
 20
0.0
 30
0.0
 70
     1
 40
3.1999936
 41
3.1999936
  0
VERTEX
  5
1232
330
497
100
AcDbEntity
  8
4_5
 62
     0
100
AcDbVertex
100
AcDb2dVertex
 10
597.1914176
 20
364.0459723999999
 30
0.0
  0
VERTEX
  5
1233
330
497
100
AcDbEntity
  8
4_5
 62
     0
100
AcDbVertex
100
AcDb2dVertex
 10
597.6765576
 20
363.7995924
 30
0.0
  0
VERTEX
  5
1234
330
497
100
AcDbEntity
  8
4_5
 62
     0
100
AcDbVertex
100
AcDb2dVertex
 10
599.0481576
 20
363.0858524
 30
0.0
  0
VERTEX
  5
1235
330
497
100
AcDbEntity
  8
4_5
 62
     0
100
AcDbVertex
100
AcDb2dVertex
 10
601.1792176
 20
361.9479324
 30
0.0
  0
VERTEX
  5
1236
330
497
100
AcDbEntity
  8
4_5
 62
     0
100
AcDbVertex
100
AcDb2dVertex
 10
603.9503576000001
 20
360.4188523999999
 30
0.0
  0
VERTEX
  5
1237
330
497
100
AcDbEntity
  8
4_5
 62
     0
100
AcDbVertex
100
AcDb2dVertex
 10
607.2396576
 20
358.5468723999999
 30
0.0
  0
VERTEX
  5
1238
330
497
100
AcDbEntity
  8
4_5
 62
     0
100
AcDbVertex
100
AcDb2dVertex
 10
610.9175776000001
 20
356.3599323999999
 30
0.0
  0
VERTEX
  5
1239
330
497
100
AcDbEntity
  8
4_5
 62
     0
100
AcDbVertex
100
AcDb2dVertex
 10
614.8621976000001
 20
353.9062924
 30
0.0
  0
VERTEX
  5
123A
330
497
100
AcDbEntity
  8
4_5
 62
     0
100
AcDbVertex
100
AcDb2dVertex
 10
618.9490576
 20
351.2240523999999
 30
0.0
  0
VERTEX
  5
123B
330
497
100
AcDbEntity
  8
4_5
 62
     0
100
AcDbVertex
100
AcDb2dVertex
 10
623.0587776
 20
348.3487724
 30
0.0
  0
VERTEX
  5
123C
330
497
100
AcDbEntity
  8
4_5
 62
     0
100
AcDbVertex
100
AcDb2dVertex
 10
627.0592776000001
 20
345.3210923999999
 30
0.0
  0
VERTEX
  5
123D
330
497
100
AcDbEntity
  8
4_5
 62
     0
100
AcDbVertex
100
AcDb2dVertex
 10
630.8286376
 20
342.1816524
 30
0.0
  0
VERTEX
  5
123E
330
497
100
AcDbEntity
  8
4_5
 62
     0
100
AcDbVertex
100
AcDb2dVertex
 10
634.2474776
 20
338.9660124
 30
0.0
  0
VERTEX
  5
123F
330
497
100
AcDbEntity
  8
4_5
 62
     0
100
AcDbVertex
100
AcDb2dVertex
 10
637.1887975999999
 20
335.7198923999999
 30
0.0
  0
VERTEX
  5
1240
330
497
100
AcDbEntity
  8
4_5
 62
     0
100
AcDbVertex
100
AcDb2dVertex
 10
639.5332176000001
 20
332.4788523999999
 30
0.0
  0
VERTEX
  5
1241
330
497
100
AcDbEntity
  8
4_5
 62
     0
100
AcDbVertex
100
AcDb2dVertex
 10
641.1486576000001
 20
329.2809923999999
 30
0.0
  0
VERTEX
  5
1242
330
497
100
AcDbEntity
  8
4_5
 62
     0
100
AcDbVertex
100
AcDb2dVertex
 10
641.9182776
 20
326.1669524
 30
0.0
  0
VERTEX
  5
1243
330
497
100
AcDbEntity
  8
4_5
 62
     0
100
AcDbVertex
100
AcDb2dVertex
 10
641.9817776
 20
320.5738724
 30
0.0
  0
VERTEX
  5
1244
330
497
100
AcDbEntity
  8
4_5
 62
     0
100
AcDbVertex
100
AcDb2dVertex
 10
641.0978576
 20
315.9891724
 30
0.0
  0
VERTEX
  5
1245
330
497
100
AcDbEntity
  8
4_5
 62
     0
100
AcDbVertex
100
AcDb2dVertex
 10
639.4824176000001
 20
312.3239524
 30
0.0
  0
VERTEX
  5
1246
330
497
100
AcDbEntity
  8
4_5
 62
     0
100
AcDbVertex
100
AcDb2dVertex
 10
637.3564376
 20
309.4816924
 30
0.0
  0
VERTEX
  5
1247
330
497
100
AcDbEntity
  8
4_5
 62
     0
100
AcDbVertex
100
AcDb2dVertex
 10
634.9256576
 20
307.3709524
 30
0.0
  0
VERTEX
  5
1248
330
497
100
AcDbEntity
  8
4_5
 62
     0
100
AcDbVertex
100
AcDb2dVertex
 10
632.4110576
 20
305.8977523999999
 30
0.0
  0
VERTEX
  5
1249
330
497
100
AcDbEntity
  8
4_5
 62
     0
100
AcDbVertex
100
AcDb2dVertex
 10
630.0209176
 20
304.9655724
 30
0.0
  0
VERTEX
  5
124A
330
497
100
AcDbEntity
  8
4_5
 62
     0
100
AcDbVertex
100
AcDb2dVertex
 10
627.9762175999999
 20
304.4804324
 30
0.0
  0
VERTEX
  5
124B
330
497
100
AcDbEntity
  8
4_5
 62
     0
100
AcDbVertex
100
AcDb2dVertex
 10
625.7435576
 20
304.8207924
 30
0.0
  0
VERTEX
  5
124C
330
497
100
AcDbEntity
  8
4_5
 62
     0
100
AcDbVertex
100
AcDb2dVertex
 10
624.0163576
 20
306.5149724
 30
0.0
  0
VERTEX
  5
124D
330
497
100
AcDbEntity
  8
4_5
 62
     0
100
AcDbVertex
100
AcDb2dVertex
 10
622.5964976
 20
309.3470723999999
 30
0.0
  0
VERTEX
  5
124E
330
497
100
AcDbEntity
  8
4_5
 62
     0
100
AcDbVertex
100
AcDb2dVertex
 10
621.2756976
 20
313.0910324
 30
0.0
  0
VERTEX
  5
124F
330
497
100
AcDbEntity
  8
4_5
 62
     0
100
AcDbVertex
100
AcDb2dVertex
 10
619.8583776
 20
317.5360324
 30
0.0
  0
VERTEX
  5
1250
330
497
100
AcDbEntity
  8
4_5
 62
     0
100
AcDbVertex
100
AcDb2dVertex
 10
618.1438776
 20
322.4636324
 30
0.0
  0
VERTEX
  5
1251
330
497
100
AcDbEntity
  8
4_5
 62
     0
100
AcDbVertex
100
AcDb2dVertex
 10
615.9239176
 20
327.6503124
 30
0.0
  0
VERTEX
  5
1252
330
497
100
AcDbEntity
  8
4_5
 62
     0
100
AcDbVertex
100
AcDb2dVertex
 10
613.0029176
 20
332.8801724
 30
0.0
  0
VERTEX
  5
1253
330
497
100
AcDbEntity
  8
4_5
 62
     0
100
AcDbVertex
100
AcDb2dVertex
 10
609.6094776
 20
337.9677924
 30
0.0
  0
VERTEX
  5
1254
330
497
100
AcDbEntity
  8
4_5
 62
     0
100
AcDbVertex
100
AcDb2dVertex
 10
606.2084176
 20
342.7861723999999
 30
0.0
  0
VERTEX
  5
1255
330
497
100
AcDbEntity
  8
4_5
 62
     0
100
AcDbVertex
100
AcDb2dVertex
 10
602.9419776
 20
347.2083124
 30
0.0
  0
VERTEX
  5
1256
330
497
100
AcDbEntity
  8
4_5
 62
     0
100
AcDbVertex
100
AcDb2dVertex
 10
599.9498576000001
 20
351.1072124
 30
0.0
  0
VERTEX
  5
1257
330
497
100
AcDbEntity
  8
4_5
 62
     0
100
AcDbVertex
100
AcDb2dVertex
 10
597.3717576
 20
354.3634923999999
 30
0.0
  0
VERTEX
  5
1258
330
497
100
AcDbEntity
  8
4_5
 62
     0
100
AcDbVertex
100
AcDb2dVertex
 10
595.3575376
 20
356.8399924
 30
0.0
  0
VERTEX
  5
1259
330
497
100
AcDbEntity
  8
4_5
 62
     0
100
AcDbVertex
100
AcDb2dVertex
 10
594.0443576
 20
358.4198724
 30
0.0
  0
VERTEX
  5
125A
330
497
100
AcDbEntity
  8
4_5
 62
     0
100
AcDbVertex
100
AcDb2dVertex
 10
593.5769976
 20
358.9735923999999
 30
0.0
  0
VERTEX
  5
125B
330
497
100
AcDbEntity
  8
4_5
 62
     0
100
AcDbVertex
100
AcDb2dVertex
 10
593.4601576
 20
359.1894923999999
 30
0.0
  0
VERTEX
  5
125C
330
497
100
AcDbEntity
  8
4_5
 62
     0
100
AcDbVertex
100
AcDb2dVertex
 10
593.3229976
 20
359.8346524
 30
0.0
  0
VERTEX
  5
125D
330
497
100
AcDbEntity
  8
4_5
 62
     0
100
AcDbVertex
100
AcDb2dVertex
 10
593.4677776
 20
360.8989124
 30
0.0
  0
VERTEX
  5
125E
330
497
100
AcDbEntity
  8
4_5
 62
     0
100
AcDbVertex
100
AcDb2dVertex
 10
594.2069176
 20
362.3873524
 30
0.0
  0
VERTEX
  5
125F
330
497
100
AcDbEntity
  8
4_5
 62
     0
100
AcDbVertex
100
AcDb2dVertex
 10
594.7860376
 20
363.1315723999999
 30
0.0
  0
VERTEX
  5
1260
330
497
100
AcDbEntity
  8
4_5
 62
     0
100
AcDbVertex
100
AcDb2dVertex
 10
595.3321376
 20
363.6344923999999
 30
0.0
  0
VERTEX
  5
1261
330
497
100
AcDbEntity
  8
4_5
 62
     0
100
AcDbVertex
100
AcDb2dVertex
 10
595.8401375999999
 20
363.9367524
 30
0.0
  0
VERTEX
  5
1262
330
497
100
AcDbEntity
  8
4_5
 62
     0
100
AcDbVertex
100
AcDb2dVertex
 10
596.2846376
 20
364.0916923999999
 30
0.0
  0
VERTEX
  5
1263
330
497
100
AcDbEntity
  8
4_5
 62
     0
100
AcDbVertex
100
AcDb2dVertex
 10
596.6605576000001
 20
364.1348723999999
 30
0.0
  0
VERTEX
  5
1264
330
497
100
AcDbEntity
  8
4_5
 62
     0
100
AcDbVertex
100
AcDb2dVertex
 10
596.9450376
 20
364.1145524
 30
0.0
  0
VERTEX
  5
1265
330
497
100
AcDbEntity
  8
4_5
 62
     0
100
AcDbVertex
100
AcDb2dVertex
 10
597.1279176
 20
364.0713724
 30
0.0
  0
VERTEX
  5
1266
330
497
100
AcDbEntity
  8
4_5
 62
     0
100
AcDbVertex
100
AcDb2dVertex
 10
597.1914176
 20
364.0459723999999
 30
0.0
  0
SEQEND
  5
148D
330
497
100
AcDbEntity
  8
4_5
 62
     0
  0
POLYLINE
  5
4CE
330
1D
100
AcDbEntity
  8
4_5
 62
     0
100
AcDb2dPolyline
 66
     1
 10
0.0
 20
0.0
 30
0.0
 70
     1
 40
3.175
 41
3.175
  0
VERTEX
  5
1267
330
4CE
100
AcDbEntity
  8
4_5
 62
     0
100
AcDbVertex
100
AcDb2dVertex
 10
484.1055376
 20
362.2273324
 30
0.0
  0
VERTEX
  5
1268
330
4CE
100
AcDbEntity
  8
4_5
 62
     0
100
AcDbVertex
100
AcDb2dVertex
 10
484.6160776
 20
361.9682523999999
 30
0.0
  0
VERTEX
  5
1269
330
4CE
100
AcDbEntity
  8
4_5
 62
     0
100
AcDbVertex
100
AcDb2dVertex
 10
486.0638776
 20
361.2164124
 30
0.0
  0
VERTEX
  5
126A
330
4CE
100
AcDbEntity
  8
4_5
 62
     0
100
AcDbVertex
100
AcDb2dVertex
 10
488.3168576
 20
360.0149923999999
 30
0.0
  0
VERTEX
  5
126B
330
4CE
100
AcDbEntity
  8
4_5
 62
     0
100
AcDbVertex
100
AcDb2dVertex
 10
491.2429376
 20
358.4020924
 30
0.0
  0
VERTEX
  5
126C
330
4CE
100
AcDbEntity
  8
4_5
 62
     0
100
AcDbVertex
100
AcDb2dVertex
 10
494.7176576000001
 20
356.4183523999999
 30
0.0
  0
VERTEX
  5
126D
330
4CE
100
AcDbEntity
  8
4_5
 62
     0
100
AcDbVertex
100
AcDb2dVertex
 10
498.6013176
 20
354.1120323999999
 30
0.0
  0
VERTEX
  5
126E
330
4CE
100
AcDbEntity
  8
4_5
 62
     0
100
AcDbVertex
100
AcDb2dVertex
 10
502.7669176000001
 20
351.5186924
 30
0.0
  0
VERTEX
  5
126F
330
4CE
100
AcDbEntity
  8
4_5
 62
     0
100
AcDbVertex
100
AcDb2dVertex
 10
507.0849176
 20
348.6840524
 30
0.0
  0
VERTEX
  5
1270
330
4CE
100
AcDbEntity
  8
4_5
 62
     0
100
AcDbVertex
100
AcDb2dVertex
 10
511.4283176
 20
345.6436724
 30
0.0
  0
VERTEX
  5
1271
330
4CE
100
AcDbEntity
  8
4_5
 62
     0
100
AcDbVertex
100
AcDb2dVertex
 10
515.6548776
 20
342.4432724
 30
0.0
  0
VERTEX
  5
1272
330
4CE
100
AcDbEntity
  8
4_5
 62
     0
100
AcDbVertex
100
AcDb2dVertex
 10
519.6452175999999
 20
339.1234924
 30
0.0
  0
VERTEX
  5
1273
330
4CE
100
AcDbEntity
  8
4_5
 62
     0
100
AcDbVertex
100
AcDb2dVertex
 10
523.2647176
 20
335.7249724
 30
0.0
  0
VERTEX
  5
1274
330
4CE
100
AcDbEntity
  8
4_5
 62
     0
100
AcDbVertex
100
AcDb2dVertex
 10
526.3787576
 20
332.2883524
 30
0.0
  0
VERTEX
  5
1275
330
4CE
100
AcDbEntity
  8
4_5
 62
     0
100
AcDbVertex
100
AcDb2dVertex
 10
528.8603376
 20
328.8568124
 30
0.0
  0
VERTEX
  5
1276
330
4CE
100
AcDbEntity
  8
4_5
 62
     0
100
AcDbVertex
100
AcDb2dVertex
 10
530.5773776
 20
325.4709923999999
 30
0.0
  0
VERTEX
  5
1277
330
4CE
100
AcDbEntity
  8
4_5
 62
     0
100
AcDbVertex
100
AcDb2dVertex
 10
531.4028776
 20
322.1740724
 30
0.0
  0
VERTEX
  5
1278
330
4CE
100
AcDbEntity
  8
4_5
 62
     0
100
AcDbVertex
100
AcDb2dVertex
 10
531.6492576
 20
316.9162724
 30
0.0
  0
VERTEX
  5
1279
330
4CE
100
AcDbEntity
  8
4_5
 62
     0
100
AcDbVertex
100
AcDb2dVertex
 10
531.2479376
 20
312.4026924
 30
0.0
  0
VERTEX
  5
127A
330
4CE
100
AcDbEntity
  8
4_5
 62
     0
100
AcDbVertex
100
AcDb2dVertex
 10
530.2166976000001
 20
308.6003124
 30
0.0
  0
VERTEX
  5
127B
330
4CE
100
AcDbEntity
  8
4_5
 62
     0
100
AcDbVertex
100
AcDb2dVertex
 10
528.5936376000001
 20
305.4811923999999
 30
0.0
  0
VERTEX
  5
127C
330
4CE
100
AcDbEntity
  8
4_5
 62
     0
100
AcDbVertex
100
AcDb2dVertex
 10
526.3990776
 20
303.0148523999999
 30
0.0
  0
VERTEX
  5
127D
330
4CE
100
AcDbEntity
  8
4_5
 62
     0
100
AcDbVertex
100
AcDb2dVertex
 10
523.6634976
 20
301.1708124
 30
0.0
  0
VERTEX
  5
127E
330
4CE
100
AcDbEntity
  8
4_5
 62
     0
100
AcDbVertex
100
AcDb2dVertex
 10
520.4072176
 20
299.9236723999999
 30
0.0
  0
VERTEX
  5
127F
330
4CE
100
AcDbEntity
  8
4_5
 62
     0
100
AcDbVertex
100
AcDb2dVertex
 10
516.6607176
 20
299.2378724
 30
0.0
  0
VERTEX
  5
1280
330
4CE
100
AcDbEntity
  8
4_5
 62
     0
100
AcDbVertex
100
AcDb2dVertex
 10
513.1529776
 20
299.3877324
 30
0.0
  0
VERTEX
  5
1281
330
4CE
100
AcDbEntity
  8
4_5
 62
     0
100
AcDbVertex
100
AcDb2dVertex
 10
510.7907776000001
 20
300.6678924
 30
0.0
  0
VERTEX
  5
1282
330
4CE
100
AcDbEntity
  8
4_5
 62
     0
100
AcDbVertex
100
AcDb2dVertex
 10
509.2159776
 20
303.0300924
 30
0.0
  0
VERTEX
  5
1283
330
4CE
100
AcDbEntity
  8
4_5
 62
     0
100
AcDbVertex
100
AcDb2dVertex
 10
508.0805976
 20
306.4235323999999
 30
0.0
  0
VERTEX
  5
1284
330
4CE
100
AcDbEntity
  8
4_5
 62
     0
100
AcDbVertex
100
AcDb2dVertex
 10
507.0264976
 20
310.7923324
 30
0.0
  0
VERTEX
  5
1285
330
4CE
100
AcDbEntity
  8
4_5
 62
     0
100
AcDbVertex
100
AcDb2dVertex
 10
505.6980776
 20
316.0933124
 30
0.0
  0
VERTEX
  5
1286
330
4CE
100
AcDbEntity
  8
4_5
 62
     0
100
AcDbVertex
100
AcDb2dVertex
 10
503.7473576
 20
322.2705924
 30
0.0
  0
VERTEX
  5
1287
330
4CE
100
AcDbEntity
  8
4_5
 62
     0
100
AcDbVertex
100
AcDb2dVertex
 10
500.8238176
 20
329.2708324
 30
0.0
  0
VERTEX
  5
1288
330
4CE
100
AcDbEntity
  8
4_5
 62
     0
100
AcDbVertex
100
AcDb2dVertex
 10
497.3008376
 20
335.9916724
 30
0.0
  0
VERTEX
  5
1289
330
4CE
100
AcDbEntity
  8
4_5
 62
     0
100
AcDbVertex
100
AcDb2dVertex
 10
493.7321376
 20
341.7117524
 30
0.0
  0
VERTEX
  5
128A
330
4CE
100
AcDbEntity
  8
4_5
 62
     0
100
AcDbVertex
100
AcDb2dVertex
 10
490.2802776
 20
346.4717124
 30
0.0
  0
VERTEX
  5
128B
330
4CE
100
AcDbEntity
  8
4_5
 62
     0
100
AcDbVertex
100
AcDb2dVertex
 10
487.1052776
 20
350.2944123999999
 30
0.0
  0
VERTEX
  5
128C
330
4CE
100
AcDbEntity
  8
4_5
 62
     0
100
AcDbVertex
100
AcDb2dVertex
 10
484.3569976
 20
353.2154123999999
 30
0.0
  0
VERTEX
  5
128D
330
4CE
100
AcDbEntity
  8
4_5
 62
     0
100
AcDbVertex
100
AcDb2dVertex
 10
482.1979976
 20
355.2651924
 30
0.0
  0
VERTEX
  5
128E
330
4CE
100
AcDbEntity
  8
4_5
 62
     0
100
AcDbVertex
100
AcDb2dVertex
 10
480.7857576
 20
356.4716923999999
 30
0.0
  0
VERTEX
  5
128F
330
4CE
100
AcDbEntity
  8
4_5
 62
     0
100
AcDbVertex
100
AcDb2dVertex
 10
480.2802976
 20
356.8679324
 30
0.0
  0
VERTEX
  5
1290
330
4CE
100
AcDbEntity
  8
4_5
 62
     0
100
AcDbVertex
100
AcDb2dVertex
 10
480.2421976
 20
356.9238124
 30
0.0
  0
VERTEX
  5
1291
330
4CE
100
AcDbEntity
  8
4_5
 62
     0
100
AcDbVertex
100
AcDb2dVertex
 10
480.1583776000001
 20
357.0939923999999
 30
0.0
  0
VERTEX
  5
1292
330
4CE
100
AcDbEntity
  8
4_5
 62
     0
100
AcDbVertex
100
AcDb2dVertex
 10
480.0669376
 20
357.3784724
 30
0.0
  0
VERTEX
  5
1293
330
4CE
100
AcDbEntity
  8
4_5
 62
     0
100
AcDbVertex
100
AcDb2dVertex
 10
480.0110576
 20
357.7747124
 30
0.0
  0
VERTEX
  5
1294
330
4CE
100
AcDbEntity
  8
4_5
 62
     0
100
AcDbVertex
100
AcDb2dVertex
 10
480.0313776
 20
358.2827124
 30
0.0
  0
VERTEX
  5
1295
330
4CE
100
AcDbEntity
  8
4_5
 62
     0
100
AcDbVertex
100
AcDb2dVertex
 10
480.1659976
 20
358.9024724
 30
0.0
  0
VERTEX
  5
1296
330
4CE
100
AcDbEntity
  8
4_5
 62
     0
100
AcDbVertex
100
AcDb2dVertex
 10
480.4580976
 20
359.6365324
 30
0.0
  0
VERTEX
  5
1297
330
4CE
100
AcDbEntity
  8
4_5
 62
     0
100
AcDbVertex
100
AcDb2dVertex
 10
480.9483176
 20
360.4772723999999
 30
0.0
  0
VERTEX
  5
1298
330
4CE
100
AcDbEntity
  8
4_5
 62
     0
100
AcDbVertex
100
AcDb2dVertex
 10
481.5579176000001
 20
361.2595924
 30
0.0
  0
VERTEX
  5
1299
330
4CE
100
AcDbEntity
  8
4_5
 62
     0
100
AcDbVertex
100
AcDb2dVertex
 10
482.1395776000001
 20
361.7929923999999
 30
0.0
  0
VERTEX
  5
129A
330
4CE
100
AcDbEntity
  8
4_5
 62
     0
100
AcDbVertex
100
AcDb2dVertex
 10
482.6729776
 20
362.1155724
 30
0.0
  0
VERTEX
  5
129B
330
4CE
100
AcDbEntity
  8
4_5
 62
     0
100
AcDbVertex
100
AcDb2dVertex
 10
483.1454176
 20
362.2755923999999
 30
0.0
  0
VERTEX
  5
129C
330
4CE
100
AcDbEntity
  8
4_5
 62
     0
100
AcDbVertex
100
AcDb2dVertex
 10
483.5416576
 20
362.3238524
 30
0.0
  0
VERTEX
  5
129D
330
4CE
100
AcDbEntity
  8
4_5
 62
     0
100
AcDbVertex
100
AcDb2dVertex
 10
483.8439176
 20
362.3009923999999
 30
0.0
  0
VERTEX
  5
129E
330
4CE
100
AcDbEntity
  8
4_5
 62
     0
100
AcDbVertex
100
AcDb2dVertex
 10
484.0344176
 20
362.2552724
 30
0.0
  0
VERTEX
  5
129F
330
4CE
100
AcDbEntity
  8
4_5
 62
     0
100
AcDbVertex
100
AcDb2dVertex
 10
484.1055376
 20
362.2273324
 30
0.0
  0
SEQEND
  5
148E
330
4CE
100
AcDbEntity
  8
4_5
 62
     0
  0
POLYLINE
  5
509
330
1D
100
AcDbEntity
  8
18_5
 62
     5
100
AcDb2dPolyline
 66
     1
 10
0.0
 20
0.0
 30
0.0
 70
     1
 40
6.35
 41
6.35
  0
VERTEX
  5
12A0
330
509
100
AcDbEntity
  8
18_5
 62
     5
100
AcDbVertex
100
AcDb2dVertex
 10
419.7063776
 20
404.7189923999999
 30
0.0
  0
VERTEX
  5
12A1
330
509
100
AcDbEntity
  8
18_5
 62
     5
100
AcDbVertex
100
AcDb2dVertex
 10
825.9590576
 20
404.7189923999999
 30
0.0
  0
VERTEX
  5
12A2
330
509
100
AcDbEntity
  8
18_5
 62
     5
100
AcDbVertex
100
AcDb2dVertex
 10
825.9590576
 20
-1.530944400000001
 30
0.0
  0
VERTEX
  5
12A3
330
509
100
AcDbEntity
  8
18_5
 62
     5
100
AcDbVertex
100
AcDb2dVertex
 10
419.7063776
 20
-1.530944400000001
 30
0.0
  0
VERTEX
  5
12A4
330
509
100
AcDbEntity
  8
18_5
 62
     5
100
AcDbVertex
100
AcDb2dVertex
 10
419.7063776
 20
404.7189923999999
 30
0.0
  0
SEQEND
  5
148F
330
509
100
AcDbEntity
  8
18_5
 62
     5
  0
POLYLINE
  5
510
330
1D
100
AcDbEntity
  8
14_5
 62
     1
100
AcDb2dPolyline
 66
     1
 10
0.0
 20
0.0
 30
0.0
 40
6.007176199999999
 41
6.007176199999999
  0
VERTEX
  5
12A5
330
510
100
AcDbEntity
  8
14_5
 62
     1
100
AcDbVertex
100
AcDb2dVertex
 10
173.8059296
 20
340.2969724
 30
0.0
  0
VERTEX
  5
12A6
330
510
100
AcDbEntity
  8
14_5
 62
     1
100
AcDbVertex
100
AcDb2dVertex
 10
174.1092056
 20
340.1039324
 30
0.0
  0
VERTEX
  5
12A7
330
510
100
AcDbEntity
  8
14_5
 62
     1
100
AcDbVertex
100
AcDb2dVertex
 10
174.1036176
 20
339.7635723999999
 30
0.0
  0
VERTEX
  5
12A8
330
510
100
AcDbEntity
  8
14_5
 62
     1
100
AcDbVertex
100
AcDb2dVertex
 10
173.9077836
 20
339.4155923999999
 30
0.0
  0
VERTEX
  5
12A9
330
510
100
AcDbEntity
  8
14_5
 62
     1
100
AcDbVertex
100
AcDb2dVertex
 10
173.6380356
 20
339.1895324
 30
0.0
  0
VERTEX
  5
12AA
330
510
100
AcDbEntity
  8
14_5
 62
     1
100
AcDbVertex
100
AcDb2dVertex
 10
172.9281056
 20
339.1006323999999
 30
0.0
  0
VERTEX
  5
12AB
330
510
100
AcDbEntity
  8
14_5
 62
     1
100
AcDbVertex
100
AcDb2dVertex
 10
172.3012336
 20
339.3978124
 30
0.0
  0
VERTEX
  5
12AC
330
510
100
AcDbEntity
  8
14_5
 62
     1
100
AcDbVertex
100
AcDb2dVertex
 10
171.8285396
 20
339.9464524
 30
0.0
  0
VERTEX
  5
12AD
330
510
100
AcDbEntity
  8
14_5
 62
     1
100
AcDbVertex
100
AcDb2dVertex
 10
171.5791116
 20
340.6043124
 30
0.0
  0
VERTEX
  5
12AE
330
510
100
AcDbEntity
  8
14_5
 62
     1
100
AcDbVertex
100
AcDb2dVertex
 10
171.6687736
 20
341.7320724
 30
0.0
  0
VERTEX
  5
12AF
330
510
100
AcDbEntity
  8
14_5
 62
     1
100
AcDbVertex
100
AcDb2dVertex
 10
172.2473856
 20
342.6642524
 30
0.0
  0
VERTEX
  5
12B0
330
510
100
AcDbEntity
  8
14_5
 62
     1
100
AcDbVertex
100
AcDb2dVertex
 10
173.1594996
 20
343.3170324
 30
0.0
  0
VERTEX
  5
12B1
330
510
100
AcDbEntity
  8
14_5
 62
     1
100
AcDbVertex
100
AcDb2dVertex
 10
174.2496676
 20
343.6040524
 30
0.0
  0
VERTEX
  5
12B2
330
510
100
AcDbEntity
  8
14_5
 62
     1
100
AcDbVertex
100
AcDb2dVertex
 10
175.0490056
 20
343.5684924
 30
0.0
  0
VERTEX
  5
12B3
330
510
100
AcDbEntity
  8
14_5
 62
     1
100
AcDbVertex
100
AcDb2dVertex
 10
175.7901776
 20
343.3551324
 30
0.0
  0
VERTEX
  5
12B4
330
510
100
AcDbEntity
  8
14_5
 62
     1
100
AcDbVertex
100
AcDb2dVertex
 10
176.4574356
 20
342.9893724
 30
0.0
  0
VERTEX
  5
12B5
330
510
100
AcDbEntity
  8
14_5
 62
     1
100
AcDbVertex
100
AcDb2dVertex
 10
177.0363016
 20
342.4940723999999
 30
0.0
  0
VERTEX
  5
12B6
330
510
100
AcDbEntity
  8
14_5
 62
     1
100
AcDbVertex
100
AcDb2dVertex
 10
177.5143296
 20
341.8946323999999
 30
0.0
  0
VERTEX
  5
12B7
330
510
100
AcDbEntity
  8
14_5
 62
     1
100
AcDbVertex
100
AcDb2dVertex
 10
177.8780576
 20
341.2113724
 30
0.0
  0
VERTEX
  5
12B8
330
510
100
AcDbEntity
  8
14_5
 62
     1
100
AcDbVertex
100
AcDb2dVertex
 10
178.1122456
 20
340.4696924
 30
0.0
  0
VERTEX
  5
12B9
330
510
100
AcDbEntity
  8
14_5
 62
     1
100
AcDbVertex
100
AcDb2dVertex
 10
178.2047016
 20
339.6924524
 30
0.0
  0
VERTEX
  5
12BA
330
510
100
AcDbEntity
  8
14_5
 62
     1
100
AcDbVertex
100
AcDb2dVertex
 10
178.1084356
 20
338.6789924
 30
0.0
  0
VERTEX
  5
12BB
330
510
100
AcDbEntity
  8
14_5
 62
     1
100
AcDbVertex
100
AcDb2dVertex
 10
177.7995716
 20
337.7442723999999
 30
0.0
  0
VERTEX
  5
12BC
330
510
100
AcDbEntity
  8
14_5
 62
     1
100
AcDbVertex
100
AcDb2dVertex
 10
177.3047796
 20
336.9086124
 30
0.0
  0
VERTEX
  5
12BD
330
510
100
AcDbEntity
  8
14_5
 62
     1
100
AcDbVertex
100
AcDb2dVertex
 10
176.6530156
 20
336.1872523999999
 30
0.0
  0
VERTEX
  5
12BE
330
510
100
AcDbEntity
  8
14_5
 62
     1
100
AcDbVertex
100
AcDb2dVertex
 10
175.8717116
 20
335.5979723999999
 30
0.0
  0
VERTEX
  5
12BF
330
510
100
AcDbEntity
  8
14_5
 62
     1
100
AcDbVertex
100
AcDb2dVertex
 10
174.9882996
 20
335.1585524
 30
0.0
  0
VERTEX
  5
12C0
330
510
100
AcDbEntity
  8
14_5
 62
     1
100
AcDbVertex
100
AcDb2dVertex
 10
174.0319896
 20
334.8893123999999
 30
0.0
  0
VERTEX
  5
12C1
330
510
100
AcDbEntity
  8
14_5
 62
     1
100
AcDbVertex
100
AcDb2dVertex
 10
173.0314836
 20
334.8004124
 30
0.0
  0
VERTEX
  5
12C2
330
510
100
AcDbEntity
  8
14_5
 62
     1
100
AcDbVertex
100
AcDb2dVertex
 10
170.6667436
 20
335.3541324
 30
0.0
  0
VERTEX
  5
12C3
330
510
100
AcDbEntity
  8
14_5
 62
     1
100
AcDbVertex
100
AcDb2dVertex
 10
168.7901916
 20
336.7841523999999
 30
0.0
  0
VERTEX
  5
12C4
330
510
100
AcDbEntity
  8
14_5
 62
     1
100
AcDbVertex
100
AcDb2dVertex
 10
167.5714996
 20
338.8237724
 30
0.0
  0
VERTEX
  5
12C5
330
510
100
AcDbEntity
  8
14_5
 62
     1
100
AcDbVertex
100
AcDb2dVertex
 10
167.1803396
 20
341.2113724
 30
0.0
  0
VERTEX
  5
12C6
330
510
100
AcDbEntity
  8
14_5
 62
     1
100
AcDbVertex
100
AcDb2dVertex
 10
167.8831576
 20
343.9799724
 30
0.0
  0
VERTEX
  5
12C7
330
510
100
AcDbEntity
  8
14_5
 62
     1
100
AcDbVertex
100
AcDb2dVertex
 10
169.6014676
 20
346.1669123999999
 30
0.0
  0
VERTEX
  5
12C8
330
510
100
AcDbEntity
  8
14_5
 62
     1
100
AcDbVertex
100
AcDb2dVertex
 10
172.0269136
 20
347.5715324
 30
0.0
  0
VERTEX
  5
12C9
330
510
100
AcDbEntity
  8
14_5
 62
     1
100
AcDbVertex
100
AcDb2dVertex
 10
174.8574896
 20
347.9906324
 30
0.0
  0
VERTEX
  5
12CA
330
510
100
AcDbEntity
  8
14_5
 62
     1
100
AcDbVertex
100
AcDb2dVertex
 10
176.5209356
 20
347.7340924
 30
0.0
  0
VERTEX
  5
12CB
330
510
100
AcDbEntity
  8
14_5
 62
     1
100
AcDbVertex
100
AcDb2dVertex
 10
178.0449356
 20
347.1422724
 30
0.0
  0
VERTEX
  5
12CC
330
510
100
AcDbEntity
  8
14_5
 62
     1
100
AcDbVertex
100
AcDb2dVertex
 10
179.3979936
 20
346.2659724
 30
0.0
  0
VERTEX
  5
12CD
330
510
100
AcDbEntity
  8
14_5
 62
     1
100
AcDbVertex
100
AcDb2dVertex
 10
180.5526776
 20
345.1458324
 30
0.0
  0
VERTEX
  5
12CE
330
510
100
AcDbEntity
  8
14_5
 62
     1
100
AcDbVertex
100
AcDb2dVertex
 10
181.4802856
 20
343.8224924
 30
0.0
  0
VERTEX
  5
12CF
330
510
100
AcDbEntity
  8
14_5
 62
     1
100
AcDbVertex
100
AcDb2dVertex
 10
182.1500836
 20
342.3442124
 30
0.0
  0
VERTEX
  5
12D0
330
510
100
AcDbEntity
  8
14_5
 62
     1
100
AcDbVertex
100
AcDb2dVertex
 10
182.5333696
 20
340.7516323999999
 30
0.0
  0
VERTEX
  5
12D1
330
510
100
AcDbEntity
  8
14_5
 62
     1
100
AcDbVertex
100
AcDb2dVertex
 10
182.6034736
 20
339.0853923999999
 30
0.0
  0
VERTEX
  5
12D2
330
510
100
AcDbEntity
  8
14_5
 62
     1
100
AcDbVertex
100
AcDb2dVertex
 10
182.2877516
 20
337.2108724
 30
0.0
  0
VERTEX
  5
12D3
330
510
100
AcDbEntity
  8
14_5
 62
     1
100
AcDbVertex
100
AcDb2dVertex
 10
181.6029676
 20
335.4938324
 30
0.0
  0
VERTEX
  5
12D4
330
510
100
AcDbEntity
  8
14_5
 62
     1
100
AcDbVertex
100
AcDb2dVertex
 10
180.5943336
 20
333.9723724
 30
0.0
  0
VERTEX
  5
12D5
330
510
100
AcDbEntity
  8
14_5
 62
     1
100
AcDbVertex
100
AcDb2dVertex
 10
179.3141736
 20
332.6769724
 30
0.0
  0
VERTEX
  5
12D6
330
510
100
AcDbEntity
  8
14_5
 62
     1
100
AcDbVertex
100
AcDb2dVertex
 10
177.8064296
 20
331.6406524
 30
0.0
  0
VERTEX
  5
12D7
330
510
100
AcDbEntity
  8
14_5
 62
     1
100
AcDbVertex
100
AcDb2dVertex
 10
176.1239336
 20
330.8938924
 30
0.0
  0
VERTEX
  5
12D8
330
510
100
AcDbEntity
  8
14_5
 62
     1
100
AcDbVertex
100
AcDb2dVertex
 10
174.3131676
 20
330.4747924
 30
0.0
  0
VERTEX
  5
12D9
330
510
100
AcDbEntity
  8
14_5
 62
     1
100
AcDbVertex
100
AcDb2dVertex
 10
172.4236616
 20
330.4112924
 30
0.0
  0
VERTEX
  5
12DA
330
510
100
AcDbEntity
  8
14_5
 62
     1
100
AcDbVertex
100
AcDb2dVertex
 10
170.3263836
 20
330.7795924
 30
0.0
  0
VERTEX
  5
12DB
330
510
100
AcDbEntity
  8
14_5
 62
     1
100
AcDbVertex
100
AcDb2dVertex
 10
168.4122396
 20
331.5568324
 30
0.0
  0
VERTEX
  5
12DC
330
510
100
AcDbEntity
  8
14_5
 62
     1
100
AcDbVertex
100
AcDb2dVertex
 10
166.7132336
 20
332.6896723999999
 30
0.0
  0
VERTEX
  5
12DD
330
510
100
AcDbEntity
  8
14_5
 62
     1
100
AcDbVertex
100
AcDb2dVertex
 10
165.2705136
 20
334.1273123999999
 30
0.0
  0
VERTEX
  5
12DE
330
510
100
AcDbEntity
  8
14_5
 62
     1
100
AcDbVertex
100
AcDb2dVertex
 10
164.1183696
 20
335.8113324
 30
0.0
  0
VERTEX
  5
12DF
330
510
100
AcDbEntity
  8
14_5
 62
     1
100
AcDbVertex
100
AcDb2dVertex
 10
163.2956636
 20
337.6883923999999
 30
0.0
  0
VERTEX
  5
12E0
330
510
100
AcDbEntity
  8
14_5
 62
     1
100
AcDbVertex
100
AcDb2dVertex
 10
162.8369396
 20
339.7076923999999
 30
0.0
  0
VERTEX
  5
12E1
330
510
100
AcDbEntity
  8
14_5
 62
     1
100
AcDbVertex
100
AcDb2dVertex
 10
162.7815676
 20
341.8158923999999
 30
0.0
  0
VERTEX
  5
12E2
330
510
100
AcDbEntity
  8
14_5
 62
     1
100
AcDbVertex
100
AcDb2dVertex
 10
163.2034616
 20
344.1222124
 30
0.0
  0
VERTEX
  5
12E3
330
510
100
AcDbEntity
  8
14_5
 62
     1
100
AcDbVertex
100
AcDb2dVertex
 10
164.0754436
 20
346.2304124
 30
0.0
  0
VERTEX
  5
12E4
330
510
100
AcDbEntity
  8
14_5
 62
     1
100
AcDbVertex
100
AcDb2dVertex
 10
165.3390936
 20
348.0947724
 30
0.0
  0
VERTEX
  5
12E5
330
510
100
AcDbEntity
  8
14_5
 62
     1
100
AcDbVertex
100
AcDb2dVertex
 10
166.9364996
 20
349.6822724
 30
0.0
  0
VERTEX
  5
12E6
330
510
100
AcDbEntity
  8
14_5
 62
     1
100
AcDbVertex
100
AcDb2dVertex
 10
168.8051776
 20
350.9395723999999
 30
0.0
  0
VERTEX
  5
12E7
330
510
100
AcDbEntity
  8
14_5
 62
     1
100
AcDbVertex
100
AcDb2dVertex
 10
170.8902636
 20
351.8412724
 30
0.0
  0
VERTEX
  5
12E8
330
510
100
AcDbEntity
  8
14_5
 62
     1
100
AcDbVertex
100
AcDb2dVertex
 10
173.1277496
 20
352.3340324
 30
0.0
  0
VERTEX
  5
12E9
330
510
100
AcDbEntity
  8
14_5
 62
     1
100
AcDbVertex
100
AcDb2dVertex
 10
175.4640416
 20
352.3797524
 30
0.0
  0
VERTEX
  5
12EA
330
510
100
AcDbEntity
  8
14_5
 62
     1
100
AcDbVertex
100
AcDb2dVertex
 10
177.9913416
 20
351.9073124
 30
0.0
  0
VERTEX
  5
12EB
330
510
100
AcDbEntity
  8
14_5
 62
     1
100
AcDbVertex
100
AcDb2dVertex
 10
180.2994396
 20
350.9395723999999
 30
0.0
  0
VERTEX
  5
12EC
330
510
100
AcDbEntity
  8
14_5
 62
     1
100
AcDbVertex
100
AcDb2dVertex
 10
182.3415996
 20
349.5552724
 30
0.0
  0
VERTEX
  5
12ED
330
510
100
AcDbEntity
  8
14_5
 62
     1
100
AcDbVertex
100
AcDb2dVertex
 10
184.0751496
 20
347.8026723999999
 30
0.0
  0
VERTEX
  5
12EE
330
510
100
AcDbEntity
  8
14_5
 62
     1
100
AcDbVertex
100
AcDb2dVertex
 10
185.4518296
 20
345.7554324
 30
0.0
  0
VERTEX
  5
12EF
330
510
100
AcDbEntity
  8
14_5
 62
     1
100
AcDbVertex
100
AcDb2dVertex
 10
186.4289676
 20
343.4795923999999
 30
0.0
  0
VERTEX
  5
12F0
330
510
100
AcDbEntity
  8
14_5
 62
     1
100
AcDbVertex
100
AcDb2dVertex
 10
186.9590656
 20
341.0310324
 30
0.0
  0
VERTEX
  5
12F1
330
510
100
AcDbEntity
  8
14_5
 62
     1
100
AcDbVertex
100
AcDb2dVertex
 10
187.0022456
 20
338.4783323999999
 30
0.0
  0
VERTEX
  5
12F2
330
510
100
AcDbEntity
  8
14_5
 62
     1
100
AcDbVertex
100
AcDb2dVertex
 10
185.9547496
 20
334.3482923999999
 30
0.0
  0
VERTEX
  5
12F3
330
510
100
AcDbEntity
  8
14_5
 62
     1
100
AcDbVertex
100
AcDb2dVertex
 10
183.7101516
 20
330.7973724
 30
0.0
  0
VERTEX
  5
12F4
330
510
100
AcDbEntity
  8
14_5
 62
     1
100
AcDbVertex
100
AcDb2dVertex
 10
180.5034016
 20
328.0694124
 30
0.0
  0
VERTEX
  5
12F5
330
510
100
AcDbEntity
  8
14_5
 62
     1
100
AcDbVertex
100
AcDb2dVertex
 10
176.5745296
 20
326.3980924
 30
0.0
  0
SEQEND
  5
1490
330
510
100
AcDbEntity
  8
14_5
 62
     1
  0
POLYLINE
  5
563
330
1D
100
AcDbEntity
  8
14_5
 62
     1
100
AcDb2dPolyline
 66
     1
 10
0.0
 20
0.0
 30
0.0
 70
     1
 40
4.6391576
 41
4.6391576
  0
VERTEX
  5
12F6
330
563
100
AcDbEntity
  8
14_5
 62
     1
100
AcDbVertex
100
AcDb2dVertex
 10
188.0261196
 20
339.5248124
 30
0.0
  0
VERTEX
  5
12F7
330
563
100
AcDbEntity
  8
14_5
 62
     1
100
AcDbVertex
100
AcDb2dVertex
 10
187.7449416
 20
336.7435123999999
 30
0.0
  0
VERTEX
  5
12F8
330
563
100
AcDbEntity
  8
14_5
 62
     1
100
AcDbVertex
100
AcDb2dVertex
 10
186.9402696
 20
334.1527123999999
 30
0.0
  0
VERTEX
  5
12F9
330
563
100
AcDbEntity
  8
14_5
 62
     1
100
AcDbVertex
100
AcDb2dVertex
 10
185.6679836
 20
331.8082924
 30
0.0
  0
VERTEX
  5
12FA
330
563
100
AcDbEntity
  8
14_5
 62
     1
100
AcDbVertex
100
AcDb2dVertex
 10
183.9826936
 20
329.7661323999999
 30
0.0
  0
VERTEX
  5
12FB
330
563
100
AcDbEntity
  8
14_5
 62
     1
100
AcDbVertex
100
AcDb2dVertex
 10
181.9405336
 20
328.0821124
 30
0.0
  0
VERTEX
  5
12FC
330
563
100
AcDbEntity
  8
14_5
 62
     1
100
AcDbVertex
100
AcDb2dVertex
 10
179.5963676
 20
326.8095724
 30
0.0
  0
VERTEX
  5
12FD
330
563
100
AcDbEntity
  8
14_5
 62
     1
100
AcDbVertex
100
AcDb2dVertex
 10
177.0058216
 20
326.0043924
 30
0.0
  0
VERTEX
  5
12FE
330
563
100
AcDbEntity
  8
14_5
 62
     1
100
AcDbVertex
100
AcDb2dVertex
 10
174.2250296
 20
325.7249924
 30
0.0
  0
VERTEX
  5
12FF
330
563
100
AcDbEntity
  8
14_5
 62
     1
100
AcDbVertex
100
AcDb2dVertex
 10
171.4427136
 20
326.0043924
 30
0.0
  0
VERTEX
  5
1300
330
563
100
AcDbEntity
  8
14_5
 62
     1
100
AcDbVertex
100
AcDb2dVertex
 10
168.8531836
 20
326.8095724
 30
0.0
  0
VERTEX
  5
1301
330
563
100
AcDbEntity
  8
14_5
 62
     1
100
AcDbVertex
100
AcDb2dVertex
 10
166.5092716
 20
328.0821124
 30
0.0
  0
VERTEX
  5
1302
330
563
100
AcDbEntity
  8
14_5
 62
     1
100
AcDbVertex
100
AcDb2dVertex
 10
164.4671116
 20
329.7661323999999
 30
0.0
  0
VERTEX
  5
1303
330
563
100
AcDbEntity
  8
14_5
 62
     1
100
AcDbVertex
100
AcDb2dVertex
 10
162.7815676
 20
331.8082924
 30
0.0
  0
VERTEX
  5
1304
330
563
100
AcDbEntity
  8
14_5
 62
     1
100
AcDbVertex
100
AcDb2dVertex
 10
161.5097896
 20
334.1527123999999
 30
0.0
  0
VERTEX
  5
1305
330
563
100
AcDbEntity
  8
14_5
 62
     1
100
AcDbVertex
100
AcDb2dVertex
 10
160.7051176
 20
336.7435123999999
 30
0.0
  0
VERTEX
  5
1306
330
563
100
AcDbEntity
  8
14_5
 62
     1
100
AcDbVertex
100
AcDb2dVertex
 10
160.4254636
 20
339.5248124
 30
0.0
  0
VERTEX
  5
1307
330
563
100
AcDbEntity
  8
14_5
 62
     1
100
AcDbVertex
100
AcDb2dVertex
 10
160.7051176
 20
342.3061124
 30
0.0
  0
VERTEX
  5
1308
330
563
100
AcDbEntity
  8
14_5
 62
     1
100
AcDbVertex
100
AcDb2dVertex
 10
161.5097896
 20
344.8969124
 30
0.0
  0
VERTEX
  5
1309
330
563
100
AcDbEntity
  8
14_5
 62
     1
100
AcDbVertex
100
AcDb2dVertex
 10
162.7815676
 20
347.2413323999999
 30
0.0
  0
VERTEX
  5
130A
330
563
100
AcDbEntity
  8
14_5
 62
     1
100
AcDbVertex
100
AcDb2dVertex
 10
164.4671116
 20
349.2834923999999
 30
0.0
  0
VERTEX
  5
130B
330
563
100
AcDbEntity
  8
14_5
 62
     1
100
AcDbVertex
100
AcDb2dVertex
 10
166.5092716
 20
350.9649724
 30
0.0
  0
VERTEX
  5
130C
330
563
100
AcDbEntity
  8
14_5
 62
     1
100
AcDbVertex
100
AcDb2dVertex
 10
168.8531836
 20
352.2400524
 30
0.0
  0
VERTEX
  5
130D
330
563
100
AcDbEntity
  8
14_5
 62
     1
100
AcDbVertex
100
AcDb2dVertex
 10
171.4427136
 20
353.0426924
 30
0.0
  0
VERTEX
  5
130E
330
563
100
AcDbEntity
  8
14_5
 62
     1
100
AcDbVertex
100
AcDb2dVertex
 10
174.2250296
 20
353.3220924
 30
0.0
  0
VERTEX
  5
130F
330
563
100
AcDbEntity
  8
14_5
 62
     1
100
AcDbVertex
100
AcDb2dVertex
 10
177.0058216
 20
353.0426924
 30
0.0
  0
VERTEX
  5
1310
330
563
100
AcDbEntity
  8
14_5
 62
     1
100
AcDbVertex
100
AcDb2dVertex
 10
179.5963676
 20
352.2400524
 30
0.0
  0
VERTEX
  5
1311
330
563
100
AcDbEntity
  8
14_5
 62
     1
100
AcDbVertex
100
AcDb2dVertex
 10
181.9405336
 20
350.9649724
 30
0.0
  0
VERTEX
  5
1312
330
563
100
AcDbEntity
  8
14_5
 62
     1
100
AcDbVertex
100
AcDb2dVertex
 10
183.9826936
 20
349.2834923999999
 30
0.0
  0
VERTEX
  5
1313
330
563
100
AcDbEntity
  8
14_5
 62
     1
100
AcDbVertex
100
AcDb2dVertex
 10
185.6679836
 20
347.2413323999999
 30
0.0
  0
VERTEX
  5
1314
330
563
100
AcDbEntity
  8
14_5
 62
     1
100
AcDbVertex
100
AcDb2dVertex
 10
186.9402696
 20
344.8969124
 30
0.0
  0
VERTEX
  5
1315
330
563
100
AcDbEntity
  8
14_5
 62
     1
100
AcDbVertex
100
AcDb2dVertex
 10
187.7449416
 20
342.3061124
 30
0.0
  0
VERTEX
  5
1316
330
563
100
AcDbEntity
  8
14_5
 62
     1
100
AcDbVertex
100
AcDb2dVertex
 10
188.0261196
 20
339.5248124
 30
0.0
  0
SEQEND
  5
1491
330
563
100
AcDbEntity
  8
14_5
 62
     1
  0
POLYLINE
  5
586
330
1D
100
AcDbEntity
  8
14_5
 62
     1
100
AcDb2dPolyline
 66
     1
 10
0.0
 20
0.0
 30
0.0
 40
6.007176199999999
 41
6.007176199999999
  0
VERTEX
  5
1317
330
586
100
AcDbEntity
  8
14_5
 62
     1
100
AcDbVertex
100
AcDb2dVertex
 10
286.5544976
 20
340.2969724
 30
0.0
  0
VERTEX
  5
1318
330
586
100
AcDbEntity
  8
14_5
 62
     1
100
AcDbVertex
100
AcDb2dVertex
 10
286.8567576
 20
340.1039324
 30
0.0
  0
VERTEX
  5
1319
330
586
100
AcDbEntity
  8
14_5
 62
     1
100
AcDbVertex
100
AcDb2dVertex
 10
286.8516776
 20
339.7635723999999
 30
0.0
  0
VERTEX
  5
131A
330
586
100
AcDbEntity
  8
14_5
 62
     1
100
AcDbVertex
100
AcDb2dVertex
 10
286.6560976
 20
339.4155923999999
 30
0.0
  0
VERTEX
  5
131B
330
586
100
AcDbEntity
  8
14_5
 62
     1
100
AcDbVertex
100
AcDb2dVertex
 10
286.3868576
 20
339.1895324
 30
0.0
  0
VERTEX
  5
131C
330
586
100
AcDbEntity
  8
14_5
 62
     1
100
AcDbVertex
100
AcDb2dVertex
 10
285.6756576
 20
339.1006323999999
 30
0.0
  0
VERTEX
  5
131D
330
586
100
AcDbEntity
  8
14_5
 62
     1
100
AcDbVertex
100
AcDb2dVertex
 10
285.0482776
 20
339.3978124
 30
0.0
  0
VERTEX
  5
131E
330
586
100
AcDbEntity
  8
14_5
 62
     1
100
AcDbVertex
100
AcDb2dVertex
 10
284.5758376000001
 20
339.9464524
 30
0.0
  0
VERTEX
  5
131F
330
586
100
AcDbEntity
  8
14_5
 62
     1
100
AcDbVertex
100
AcDb2dVertex
 10
284.3269176
 20
340.6043124
 30
0.0
  0
VERTEX
  5
1320
330
586
100
AcDbEntity
  8
14_5
 62
     1
100
AcDbVertex
100
AcDb2dVertex
 10
284.4158176
 20
341.7320724
 30
0.0
  0
VERTEX
  5
1321
330
586
100
AcDbEntity
  8
14_5
 62
     1
100
AcDbVertex
100
AcDb2dVertex
 10
284.9949376
 20
342.6642524
 30
0.0
  0
VERTEX
  5
1322
330
586
100
AcDbEntity
  8
14_5
 62
     1
100
AcDbVertex
100
AcDb2dVertex
 10
285.9067976000001
 20
343.3170324
 30
0.0
  0
VERTEX
  5
1323
330
586
100
AcDbEntity
  8
14_5
 62
     1
100
AcDbVertex
100
AcDb2dVertex
 10
286.9989976
 20
343.6040524
 30
0.0
  0
VERTEX
  5
1324
330
586
100
AcDbEntity
  8
14_5
 62
     1
100
AcDbVertex
100
AcDb2dVertex
 10
287.7965576
 20
343.5684924
 30
0.0
  0
VERTEX
  5
1325
330
586
100
AcDbEntity
  8
14_5
 62
     1
100
AcDbVertex
100
AcDb2dVertex
 10
288.5382376
 20
343.3551324
 30
0.0
  0
VERTEX
  5
1326
330
586
100
AcDbEntity
  8
14_5
 62
     1
100
AcDbVertex
100
AcDb2dVertex
 10
289.2062576
 20
342.9893724
 30
0.0
  0
VERTEX
  5
1327
330
586
100
AcDbEntity
  8
14_5
 62
     1
100
AcDbVertex
100
AcDb2dVertex
 10
289.7853776
 20
342.4940723999999
 30
0.0
  0
VERTEX
  5
1328
330
586
100
AcDbEntity
  8
14_5
 62
     1
100
AcDbVertex
100
AcDb2dVertex
 10
290.2628976
 20
341.8946323999999
 30
0.0
  0
VERTEX
  5
1329
330
586
100
AcDbEntity
  8
14_5
 62
     1
100
AcDbVertex
100
AcDb2dVertex
 10
290.6261176
 20
341.2113724
 30
0.0
  0
VERTEX
  5
132A
330
586
100
AcDbEntity
  8
14_5
 62
     1
100
AcDbVertex
100
AcDb2dVertex
 10
290.8597976
 20
340.4696924
 30
0.0
  0
VERTEX
  5
132B
330
586
100
AcDbEntity
  8
14_5
 62
     1
100
AcDbVertex
100
AcDb2dVertex
 10
290.9537776
 20
339.6924524
 30
0.0
  0
VERTEX
  5
132C
330
586
100
AcDbEntity
  8
14_5
 62
     1
100
AcDbVertex
100
AcDb2dVertex
 10
290.8572576
 20
338.6789924
 30
0.0
  0
VERTEX
  5
132D
330
586
100
AcDbEntity
  8
14_5
 62
     1
100
AcDbVertex
100
AcDb2dVertex
 10
290.5473776
 20
337.7442723999999
 30
0.0
  0
VERTEX
  5
132E
330
586
100
AcDbEntity
  8
14_5
 62
     1
100
AcDbVertex
100
AcDb2dVertex
 10
290.0520776
 20
336.9086124
 30
0.0
  0
VERTEX
  5
132F
330
586
100
AcDbEntity
  8
14_5
 62
     1
100
AcDbVertex
100
AcDb2dVertex
 10
289.4018376
 20
336.1872523999999
 30
0.0
  0
VERTEX
  5
1330
330
586
100
AcDbEntity
  8
14_5
 62
     1
100
AcDbVertex
100
AcDb2dVertex
 10
288.6195176000001
 20
335.5979723999999
 30
0.0
  0
VERTEX
  5
1331
330
586
100
AcDbEntity
  8
14_5
 62
     1
100
AcDbVertex
100
AcDb2dVertex
 10
287.7355976
 20
335.1585524
 30
0.0
  0
VERTEX
  5
1332
330
586
100
AcDbEntity
  8
14_5
 62
     1
100
AcDbVertex
100
AcDb2dVertex
 10
286.7780176000001
 20
334.8893123999999
 30
0.0
  0
VERTEX
  5
1333
330
586
100
AcDbEntity
  8
14_5
 62
     1
100
AcDbVertex
100
AcDb2dVertex
 10
285.7797976
 20
334.8004124
 30
0.0
  0
VERTEX
  5
1334
330
586
100
AcDbEntity
  8
14_5
 62
     1
100
AcDbVertex
100
AcDb2dVertex
 10
283.4150576
 20
335.3541324
 30
0.0
  0
VERTEX
  5
1335
330
586
100
AcDbEntity
  8
14_5
 62
     1
100
AcDbVertex
100
AcDb2dVertex
 10
281.5379976
 20
336.7841523999999
 30
0.0
  0
VERTEX
  5
1336
330
586
100
AcDbEntity
  8
14_5
 62
     1
100
AcDbVertex
100
AcDb2dVertex
 10
280.3213376
 20
338.8237724
 30
0.0
  0
VERTEX
  5
1337
330
586
100
AcDbEntity
  8
14_5
 62
     1
100
AcDbVertex
100
AcDb2dVertex
 10
279.9276376
 20
341.2113724
 30
0.0
  0
VERTEX
  5
1338
330
586
100
AcDbEntity
  8
14_5
 62
     1
100
AcDbVertex
100
AcDb2dVertex
 10
280.6312176
 20
343.9799724
 30
0.0
  0
VERTEX
  5
1339
330
586
100
AcDbEntity
  8
14_5
 62
     1
100
AcDbVertex
100
AcDb2dVertex
 10
282.3507976
 20
346.1669123999999
 30
0.0
  0
VERTEX
  5
133A
330
586
100
AcDbEntity
  8
14_5
 62
     1
100
AcDbVertex
100
AcDb2dVertex
 10
284.7764976
 20
347.5715324
 30
0.0
  0
VERTEX
  5
133B
330
586
100
AcDbEntity
  8
14_5
 62
     1
100
AcDbVertex
100
AcDb2dVertex
 10
287.6035176
 20
347.9906324
 30
0.0
  0
VERTEX
  5
133C
330
586
100
AcDbEntity
  8
14_5
 62
     1
100
AcDbVertex
100
AcDb2dVertex
 10
289.2672176
 20
347.7340924
 30
0.0
  0
VERTEX
  5
133D
330
586
100
AcDbEntity
  8
14_5
 62
     1
100
AcDbVertex
100
AcDb2dVertex
 10
290.7912176
 20
347.1422724
 30
0.0
  0
VERTEX
  5
133E
330
586
100
AcDbEntity
  8
14_5
 62
     1
100
AcDbVertex
100
AcDb2dVertex
 10
292.1450376
 20
346.2659724
 30
0.0
  0
VERTEX
  5
133F
330
586
100
AcDbEntity
  8
14_5
 62
     1
100
AcDbVertex
100
AcDb2dVertex
 10
293.3007376
 20
345.1458324
 30
0.0
  0
VERTEX
  5
1340
330
586
100
AcDbEntity
  8
14_5
 62
     1
100
AcDbVertex
100
AcDb2dVertex
 10
294.2278376
 20
343.8224924
 30
0.0
  0
VERTEX
  5
1341
330
586
100
AcDbEntity
  8
14_5
 62
     1
100
AcDbVertex
100
AcDb2dVertex
 10
294.8958576
 20
342.3442124
 30
0.0
  0
VERTEX
  5
1342
330
586
100
AcDbEntity
  8
14_5
 62
     1
100
AcDbVertex
100
AcDb2dVertex
 10
295.2819376
 20
340.7516323999999
 30
0.0
  0
VERTEX
  5
1343
330
586
100
AcDbEntity
  8
14_5
 62
     1
100
AcDbVertex
100
AcDb2dVertex
 10
295.3505176
 20
339.0853923999999
 30
0.0
  0
VERTEX
  5
1344
330
586
100
AcDbEntity
  8
14_5
 62
     1
100
AcDbVertex
100
AcDb2dVertex
 10
295.0355576
 20
337.2108724
 30
0.0
  0
VERTEX
  5
1345
330
586
100
AcDbEntity
  8
14_5
 62
     1
100
AcDbVertex
100
AcDb2dVertex
 10
294.3522976
 20
335.4938324
 30
0.0
  0
VERTEX
  5
1346
330
586
100
AcDbEntity
  8
14_5
 62
     1
100
AcDbVertex
100
AcDb2dVertex
 10
293.3413776
 20
333.9723724
 30
0.0
  0
VERTEX
  5
1347
330
586
100
AcDbEntity
  8
14_5
 62
     1
100
AcDbVertex
100
AcDb2dVertex
 10
292.0612176
 20
332.6769724
 30
0.0
  0
VERTEX
  5
1348
330
586
100
AcDbEntity
  8
14_5
 62
     1
100
AcDbVertex
100
AcDb2dVertex
 10
290.5549976
 20
331.6406524
 30
0.0
  0
VERTEX
  5
1349
330
586
100
AcDbEntity
  8
14_5
 62
     1
100
AcDbVertex
100
AcDb2dVertex
 10
288.8709776000001
 20
330.8938924
 30
0.0
  0
VERTEX
  5
134A
330
586
100
AcDbEntity
  8
14_5
 62
     1
100
AcDbVertex
100
AcDb2dVertex
 10
287.0624976
 20
330.4747924
 30
0.0
  0
VERTEX
  5
134B
330
586
100
AcDbEntity
  8
14_5
 62
     1
100
AcDbVertex
100
AcDb2dVertex
 10
285.1727376000001
 20
330.4112924
 30
0.0
  0
VERTEX
  5
134C
330
586
100
AcDbEntity
  8
14_5
 62
     1
100
AcDbVertex
100
AcDb2dVertex
 10
283.0746976
 20
330.7795924
 30
0.0
  0
VERTEX
  5
134D
330
586
100
AcDbEntity
  8
14_5
 62
     1
100
AcDbVertex
100
AcDb2dVertex
 10
281.1595376
 20
331.5568324
 30
0.0
  0
VERTEX
  5
134E
330
586
100
AcDbEntity
  8
14_5
 62
     1
100
AcDbVertex
100
AcDb2dVertex
 10
279.4602776
 20
332.6896723999999
 30
0.0
  0
VERTEX
  5
134F
330
586
100
AcDbEntity
  8
14_5
 62
     1
100
AcDbVertex
100
AcDb2dVertex
 10
278.0175576
 20
334.1273123999999
 30
0.0
  0
VERTEX
  5
1350
330
586
100
AcDbEntity
  8
14_5
 62
     1
100
AcDbVertex
100
AcDb2dVertex
 10
276.8643976
 20
335.8113324
 30
0.0
  0
VERTEX
  5
1351
330
586
100
AcDbEntity
  8
14_5
 62
     1
100
AcDbVertex
100
AcDb2dVertex
 10
276.0414376000001
 20
337.6883923999999
 30
0.0
  0
VERTEX
  5
1352
330
586
100
AcDbEntity
  8
14_5
 62
     1
100
AcDbVertex
100
AcDb2dVertex
 10
275.5842376
 20
339.7076923999999
 30
0.0
  0
VERTEX
  5
1353
330
586
100
AcDbEntity
  8
14_5
 62
     1
100
AcDbVertex
100
AcDb2dVertex
 10
275.5308976000001
 20
341.8158923999999
 30
0.0
  0
VERTEX
  5
1354
330
586
100
AcDbEntity
  8
14_5
 62
     1
100
AcDbVertex
100
AcDb2dVertex
 10
275.9525376
 20
344.1222124
 30
0.0
  0
VERTEX
  5
1355
330
586
100
AcDbEntity
  8
14_5
 62
     1
100
AcDbVertex
100
AcDb2dVertex
 10
276.8237576
 20
346.2304124
 30
0.0
  0
VERTEX
  5
1356
330
586
100
AcDbEntity
  8
14_5
 62
     1
100
AcDbVertex
100
AcDb2dVertex
 10
278.0886776
 20
348.0947724
 30
0.0
  0
VERTEX
  5
1357
330
586
100
AcDbEntity
  8
14_5
 62
     1
100
AcDbVertex
100
AcDb2dVertex
 10
279.6837976
 20
349.6822724
 30
0.0
  0
VERTEX
  5
1358
330
586
100
AcDbEntity
  8
14_5
 62
     1
100
AcDbVertex
100
AcDb2dVertex
 10
281.5532376
 20
350.9395723999999
 30
0.0
  0
VERTEX
  5
1359
330
586
100
AcDbEntity
  8
14_5
 62
     1
100
AcDbVertex
100
AcDb2dVertex
 10
283.6385776
 20
351.8412724
 30
0.0
  0
VERTEX
  5
135A
330
586
100
AcDbEntity
  8
14_5
 62
     1
100
AcDbVertex
100
AcDb2dVertex
 10
285.8763176
 20
352.3340324
 30
0.0
  0
VERTEX
  5
135B
330
586
100
AcDbEntity
  8
14_5
 62
     1
100
AcDbVertex
100
AcDb2dVertex
 10
288.2131176
 20
352.3797524
 30
0.0
  0
VERTEX
  5
135C
330
586
100
AcDbEntity
  8
14_5
 62
     1
100
AcDbVertex
100
AcDb2dVertex
 10
290.7404176
 20
351.9073124
 30
0.0
  0
VERTEX
  5
135D
330
586
100
AcDbEntity
  8
14_5
 62
     1
100
AcDbVertex
100
AcDb2dVertex
 10
293.0467376
 20
350.9395723999999
 30
0.0
  0
VERTEX
  5
135E
330
586
100
AcDbEntity
  8
14_5
 62
     1
100
AcDbVertex
100
AcDb2dVertex
 10
295.0888976000001
 20
349.5552724
 30
0.0
  0
VERTEX
  5
135F
330
586
100
AcDbEntity
  8
14_5
 62
     1
100
AcDbVertex
100
AcDb2dVertex
 10
296.8211776
 20
347.8026723999999
 30
0.0
  0
VERTEX
  5
1360
330
586
100
AcDbEntity
  8
14_5
 62
     1
100
AcDbVertex
100
AcDb2dVertex
 10
298.1978576
 20
345.7554324
 30
0.0
  0
VERTEX
  5
1361
330
586
100
AcDbEntity
  8
14_5
 62
     1
100
AcDbVertex
100
AcDb2dVertex
 10
299.1757576
 20
343.4795923999999
 30
0.0
  0
VERTEX
  5
1362
330
586
100
AcDbEntity
  8
14_5
 62
     1
100
AcDbVertex
100
AcDb2dVertex
 10
299.7066176
 20
341.0310324
 30
0.0
  0
VERTEX
  5
1363
330
586
100
AcDbEntity
  8
14_5
 62
     1
100
AcDbVertex
100
AcDb2dVertex
 10
299.7497976
 20
338.4783323999999
 30
0.0
  0
VERTEX
  5
1364
330
586
100
AcDbEntity
  8
14_5
 62
     1
100
AcDbVertex
100
AcDb2dVertex
 10
298.7007776
 20
334.3482923999999
 30
0.0
  0
VERTEX
  5
1365
330
586
100
AcDbEntity
  8
14_5
 62
     1
100
AcDbVertex
100
AcDb2dVertex
 10
296.4579576
 20
330.7973724
 30
0.0
  0
VERTEX
  5
1366
330
586
100
AcDbEntity
  8
14_5
 62
     1
100
AcDbVertex
100
AcDb2dVertex
 10
293.2499376
 20
328.0694124
 30
0.0
  0
VERTEX
  5
1367
330
586
100
AcDbEntity
  8
14_5
 62
     1
100
AcDbVertex
100
AcDb2dVertex
 10
289.3205576
 20
326.3980924
 30
0.0
  0
SEQEND
  5
1492
330
586
100
AcDbEntity
  8
14_5
 62
     1
  0
POLYLINE
  5
5D9
330
1D
100
AcDbEntity
  8
14_5
 62
     1
100
AcDb2dPolyline
 66
     1
 10
0.0
 20
0.0
 30
0.0
 70
     1
 40
4.6391576
 41
4.6391576
  0
VERTEX
  5
1368
330
5D9
100
AcDbEntity
  8
14_5
 62
     1
100
AcDbVertex
100
AcDb2dVertex
 10
300.7734176
 20
339.5248124
 30
0.0
  0
VERTEX
  5
1369
330
5D9
100
AcDbEntity
  8
14_5
 62
     1
100
AcDbVertex
100
AcDb2dVertex
 10
300.4914776000001
 20
336.7435123999999
 30
0.0
  0
VERTEX
  5
136A
330
5D9
100
AcDbEntity
  8
14_5
 62
     1
100
AcDbVertex
100
AcDb2dVertex
 10
299.6888376
 20
334.1527123999999
 30
0.0
  0
VERTEX
  5
136B
330
5D9
100
AcDbEntity
  8
14_5
 62
     1
100
AcDbVertex
100
AcDb2dVertex
 10
298.4162976
 20
331.8082924
 30
0.0
  0
VERTEX
  5
136C
330
5D9
100
AcDbEntity
  8
14_5
 62
     1
100
AcDbVertex
100
AcDb2dVertex
 10
296.7322776
 20
329.7661323999999
 30
0.0
  0
VERTEX
  5
136D
330
5D9
100
AcDbEntity
  8
14_5
 62
     1
100
AcDbVertex
100
AcDb2dVertex
 10
294.6875776
 20
328.0821124
 30
0.0
  0
VERTEX
  5
136E
330
5D9
100
AcDbEntity
  8
14_5
 62
     1
100
AcDbVertex
100
AcDb2dVertex
 10
292.3456976
 20
326.8095724
 30
0.0
  0
VERTEX
  5
136F
330
5D9
100
AcDbEntity
  8
14_5
 62
     1
100
AcDbVertex
100
AcDb2dVertex
 10
289.7548976
 20
326.0043924
 30
0.0
  0
VERTEX
  5
1370
330
5D9
100
AcDbEntity
  8
14_5
 62
     1
100
AcDbVertex
100
AcDb2dVertex
 10
286.9735976000001
 20
325.7249924
 30
0.0
  0
VERTEX
  5
1371
330
5D9
100
AcDbEntity
  8
14_5
 62
     1
100
AcDbVertex
100
AcDb2dVertex
 10
284.1922976
 20
326.0043924
 30
0.0
  0
VERTEX
  5
1372
330
5D9
100
AcDbEntity
  8
14_5
 62
     1
100
AcDbVertex
100
AcDb2dVertex
 10
281.6014976
 20
326.8095724
 30
0.0
  0
VERTEX
  5
1373
330
5D9
100
AcDbEntity
  8
14_5
 62
     1
100
AcDbVertex
100
AcDb2dVertex
 10
279.2570776
 20
328.0821124
 30
0.0
  0
VERTEX
  5
1374
330
5D9
100
AcDbEntity
  8
14_5
 62
     1
100
AcDbVertex
100
AcDb2dVertex
 10
277.2149176
 20
329.7661323999999
 30
0.0
  0
VERTEX
  5
1375
330
5D9
100
AcDbEntity
  8
14_5
 62
     1
100
AcDbVertex
100
AcDb2dVertex
 10
275.5308976000001
 20
331.8082924
 30
0.0
  0
VERTEX
  5
1376
330
5D9
100
AcDbEntity
  8
14_5
 62
     1
100
AcDbVertex
100
AcDb2dVertex
 10
274.2558176000001
 20
334.1527123999999
 30
0.0
  0
VERTEX
  5
1377
330
5D9
100
AcDbEntity
  8
14_5
 62
     1
100
AcDbVertex
100
AcDb2dVertex
 10
273.4531776
 20
336.7435123999999
 30
0.0
  0
VERTEX
  5
1378
330
5D9
100
AcDbEntity
  8
14_5
 62
     1
100
AcDbVertex
100
AcDb2dVertex
 10
273.1737776000001
 20
339.5248124
 30
0.0
  0
VERTEX
  5
1379
330
5D9
100
AcDbEntity
  8
14_5
 62
     1
100
AcDbVertex
100
AcDb2dVertex
 10
273.4531776
 20
342.3061124
 30
0.0
  0
VERTEX
  5
137A
330
5D9
100
AcDbEntity
  8
14_5
 62
     1
100
AcDbVertex
100
AcDb2dVertex
 10
274.2558176000001
 20
344.8969124
 30
0.0
  0
VERTEX
  5
137B
330
5D9
100
AcDbEntity
  8
14_5
 62
     1
100
AcDbVertex
100
AcDb2dVertex
 10
275.5308976000001
 20
347.2413323999999
 30
0.0
  0
VERTEX
  5
137C
330
5D9
100
AcDbEntity
  8
14_5
 62
     1
100
AcDbVertex
100
AcDb2dVertex
 10
277.2149176
 20
349.2834923999999
 30
0.0
  0
VERTEX
  5
137D
330
5D9
100
AcDbEntity
  8
14_5
 62
     1
100
AcDbVertex
100
AcDb2dVertex
 10
279.2570776
 20
350.9649724
 30
0.0
  0
VERTEX
  5
137E
330
5D9
100
AcDbEntity
  8
14_5
 62
     1
100
AcDbVertex
100
AcDb2dVertex
 10
281.6014976
 20
352.2400524
 30
0.0
  0
VERTEX
  5
137F
330
5D9
100
AcDbEntity
  8
14_5
 62
     1
100
AcDbVertex
100
AcDb2dVertex
 10
284.1922976
 20
353.0426924
 30
0.0
  0
VERTEX
  5
1380
330
5D9
100
AcDbEntity
  8
14_5
 62
     1
100
AcDbVertex
100
AcDb2dVertex
 10
286.9735976000001
 20
353.3220924
 30
0.0
  0
VERTEX
  5
1381
330
5D9
100
AcDbEntity
  8
14_5
 62
     1
100
AcDbVertex
100
AcDb2dVertex
 10
289.7548976
 20
353.0426924
 30
0.0
  0
VERTEX
  5
1382
330
5D9
100
AcDbEntity
  8
14_5
 62
     1
100
AcDbVertex
100
AcDb2dVertex
 10
292.3456976
 20
352.2400524
 30
0.0
  0
VERTEX
  5
1383
330
5D9
100
AcDbEntity
  8
14_5
 62
     1
100
AcDbVertex
100
AcDb2dVertex
 10
294.6875776
 20
350.9649724
 30
0.0
  0
VERTEX
  5
1384
330
5D9
100
AcDbEntity
  8
14_5
 62
     1
100
AcDbVertex
100
AcDb2dVertex
 10
296.7322776
 20
349.2834923999999
 30
0.0
  0
VERTEX
  5
1385
330
5D9
100
AcDbEntity
  8
14_5
 62
     1
100
AcDbVertex
100
AcDb2dVertex
 10
298.4162976
 20
347.2413323999999
 30
0.0
  0
VERTEX
  5
1386
330
5D9
100
AcDbEntity
  8
14_5
 62
     1
100
AcDbVertex
100
AcDb2dVertex
 10
299.6888376
 20
344.8969124
 30
0.0
  0
VERTEX
  5
1387
330
5D9
100
AcDbEntity
  8
14_5
 62
     1
100
AcDbVertex
100
AcDb2dVertex
 10
300.4914776000001
 20
342.3061124
 30
0.0
  0
VERTEX
  5
1388
330
5D9
100
AcDbEntity
  8
14_5
 62
     1
100
AcDbVertex
100
AcDb2dVertex
 10
300.7734176
 20
339.5248124
 30
0.0
  0
SEQEND
  5
1493
330
5D9
100
AcDbEntity
  8
14_5
 62
     1
  0
POLYLINE
  5
5FC
330
1D
100
AcDbEntity
  8
14_5
 62
     1
100
AcDb2dPolyline
 66
     1
 10
0.0
 20
0.0
 30
0.0
 40
6.007176199999999
 41
6.007176199999999
  0
VERTEX
  5
1389
330
5FC
100
AcDbEntity
  8
14_5
 62
     1
100
AcDbVertex
100
AcDb2dVertex
 10
230.2503176
 20
340.2969724
 30
0.0
  0
VERTEX
  5
138A
330
5FC
100
AcDbEntity
  8
14_5
 62
     1
100
AcDbVertex
100
AcDb2dVertex
 10
230.5535936
 20
340.1039324
 30
0.0
  0
VERTEX
  5
138B
330
5FC
100
AcDbEntity
  8
14_5
 62
     1
100
AcDbVertex
100
AcDb2dVertex
 10
230.5480056
 20
339.7635723999999
 30
0.0
  0
VERTEX
  5
138C
330
5FC
100
AcDbEntity
  8
14_5
 62
     1
100
AcDbVertex
100
AcDb2dVertex
 10
230.3521716
 20
339.4155923999999
 30
0.0
  0
VERTEX
  5
138D
330
5FC
100
AcDbEntity
  8
14_5
 62
     1
100
AcDbVertex
100
AcDb2dVertex
 10
230.0824236
 20
339.1895324
 30
0.0
  0
VERTEX
  5
138E
330
5FC
100
AcDbEntity
  8
14_5
 62
     1
100
AcDbVertex
100
AcDb2dVertex
 10
229.3724936
 20
339.1006323999999
 30
0.0
  0
VERTEX
  5
138F
330
5FC
100
AcDbEntity
  8
14_5
 62
     1
100
AcDbVertex
100
AcDb2dVertex
 10
228.7456216
 20
339.3978124
 30
0.0
  0
VERTEX
  5
1390
330
5FC
100
AcDbEntity
  8
14_5
 62
     1
100
AcDbVertex
100
AcDb2dVertex
 10
228.2729276
 20
339.9464524
 30
0.0
  0
VERTEX
  5
1391
330
5FC
100
AcDbEntity
  8
14_5
 62
     1
100
AcDbVertex
100
AcDb2dVertex
 10
228.0234996
 20
340.6043124
 30
0.0
  0
VERTEX
  5
1392
330
5FC
100
AcDbEntity
  8
14_5
 62
     1
100
AcDbVertex
100
AcDb2dVertex
 10
228.1131616
 20
341.7320724
 30
0.0
  0
VERTEX
  5
1393
330
5FC
100
AcDbEntity
  8
14_5
 62
     1
100
AcDbVertex
100
AcDb2dVertex
 10
228.6917736
 20
342.6642524
 30
0.0
  0
VERTEX
  5
1394
330
5FC
100
AcDbEntity
  8
14_5
 62
     1
100
AcDbVertex
100
AcDb2dVertex
 10
229.6041416
 20
343.3170324
 30
0.0
  0
VERTEX
  5
1395
330
5FC
100
AcDbEntity
  8
14_5
 62
     1
100
AcDbVertex
100
AcDb2dVertex
 10
230.6940556
 20
343.6040524
 30
0.0
  0
VERTEX
  5
1396
330
5FC
100
AcDbEntity
  8
14_5
 62
     1
100
AcDbVertex
100
AcDb2dVertex
 10
231.4933936
 20
343.5684924
 30
0.0
  0
VERTEX
  5
1397
330
5FC
100
AcDbEntity
  8
14_5
 62
     1
100
AcDbVertex
100
AcDb2dVertex
 10
232.2348196
 20
343.3551324
 30
0.0
  0
VERTEX
  5
1398
330
5FC
100
AcDbEntity
  8
14_5
 62
     1
100
AcDbVertex
100
AcDb2dVertex
 10
232.9018236
 20
342.9893724
 30
0.0
  0
VERTEX
  5
1399
330
5FC
100
AcDbEntity
  8
14_5
 62
     1
100
AcDbVertex
100
AcDb2dVertex
 10
233.4806896
 20
342.4940723999999
 30
0.0
  0
VERTEX
  5
139A
330
5FC
100
AcDbEntity
  8
14_5
 62
     1
100
AcDbVertex
100
AcDb2dVertex
 10
233.9587176
 20
341.8946323999999
 30
0.0
  0
VERTEX
  5
139B
330
5FC
100
AcDbEntity
  8
14_5
 62
     1
100
AcDbVertex
100
AcDb2dVertex
 10
234.3224456
 20
341.2113724
 30
0.0
  0
VERTEX
  5
139C
330
5FC
100
AcDbEntity
  8
14_5
 62
     1
100
AcDbVertex
100
AcDb2dVertex
 10
234.5566336
 20
340.4696924
 30
0.0
  0
VERTEX
  5
139D
330
5FC
100
AcDbEntity
  8
14_5
 62
     1
100
AcDbVertex
100
AcDb2dVertex
 10
234.6490896
 20
339.6924524
 30
0.0
  0
VERTEX
  5
139E
330
5FC
100
AcDbEntity
  8
14_5
 62
     1
100
AcDbVertex
100
AcDb2dVertex
 10
234.5528236
 20
338.6789924
 30
0.0
  0
VERTEX
  5
139F
330
5FC
100
AcDbEntity
  8
14_5
 62
     1
100
AcDbVertex
100
AcDb2dVertex
 10
234.2442136
 20
337.7442723999999
 30
0.0
  0
VERTEX
  5
13A0
330
5FC
100
AcDbEntity
  8
14_5
 62
     1
100
AcDbVertex
100
AcDb2dVertex
 10
233.7491676
 20
336.9086124
 30
0.0
  0
VERTEX
  5
13A1
330
5FC
100
AcDbEntity
  8
14_5
 62
     1
100
AcDbVertex
100
AcDb2dVertex
 10
233.0976576
 20
336.1872523999999
 30
0.0
  0
VERTEX
  5
13A2
330
5FC
100
AcDbEntity
  8
14_5
 62
     1
100
AcDbVertex
100
AcDb2dVertex
 10
232.3160996
 20
335.5979723999999
 30
0.0
  0
VERTEX
  5
13A3
330
5FC
100
AcDbEntity
  8
14_5
 62
     1
100
AcDbVertex
100
AcDb2dVertex
 10
231.4329416
 20
335.1585524
 30
0.0
  0
VERTEX
  5
13A4
330
5FC
100
AcDbEntity
  8
14_5
 62
     1
100
AcDbVertex
100
AcDb2dVertex
 10
230.4763776
 20
334.8893123999999
 30
0.0
  0
VERTEX
  5
13A5
330
5FC
100
AcDbEntity
  8
14_5
 62
     1
100
AcDbVertex
100
AcDb2dVertex
 10
229.4758716
 20
334.8004124
 30
0.0
  0
VERTEX
  5
13A6
330
5FC
100
AcDbEntity
  8
14_5
 62
     1
100
AcDbVertex
100
AcDb2dVertex
 10
227.1113856
 20
335.3541324
 30
0.0
  0
VERTEX
  5
13A7
330
5FC
100
AcDbEntity
  8
14_5
 62
     1
100
AcDbVertex
100
AcDb2dVertex
 10
225.2345796
 20
336.7841523999999
 30
0.0
  0
VERTEX
  5
13A8
330
5FC
100
AcDbEntity
  8
14_5
 62
     1
100
AcDbVertex
100
AcDb2dVertex
 10
224.0161416
 20
338.8237724
 30
0.0
  0
VERTEX
  5
13A9
330
5FC
100
AcDbEntity
  8
14_5
 62
     1
100
AcDbVertex
100
AcDb2dVertex
 10
223.6247276
 20
341.2113724
 30
0.0
  0
VERTEX
  5
13AA
330
5FC
100
AcDbEntity
  8
14_5
 62
     1
100
AcDbVertex
100
AcDb2dVertex
 10
224.3275456
 20
343.9799724
 30
0.0
  0
VERTEX
  5
13AB
330
5FC
100
AcDbEntity
  8
14_5
 62
     1
100
AcDbVertex
100
AcDb2dVertex
 10
226.0458556
 20
346.1669123999999
 30
0.0
  0
VERTEX
  5
13AC
330
5FC
100
AcDbEntity
  8
14_5
 62
     1
100
AcDbVertex
100
AcDb2dVertex
 10
228.4713016
 20
347.5715324
 30
0.0
  0
VERTEX
  5
13AD
330
5FC
100
AcDbEntity
  8
14_5
 62
     1
100
AcDbVertex
100
AcDb2dVertex
 10
231.3018776
 20
347.9906324
 30
0.0
  0
VERTEX
  5
13AE
330
5FC
100
AcDbEntity
  8
14_5
 62
     1
100
AcDbVertex
100
AcDb2dVertex
 10
232.9653236
 20
347.7340924
 30
0.0
  0
VERTEX
  5
13AF
330
5FC
100
AcDbEntity
  8
14_5
 62
     1
100
AcDbVertex
100
AcDb2dVertex
 10
234.4893236
 20
347.1422724
 30
0.0
  0
VERTEX
  5
13B0
330
5FC
100
AcDbEntity
  8
14_5
 62
     1
100
AcDbVertex
100
AcDb2dVertex
 10
235.8426356
 20
346.2659724
 30
0.0
  0
VERTEX
  5
13B1
330
5FC
100
AcDbEntity
  8
14_5
 62
     1
100
AcDbVertex
100
AcDb2dVertex
 10
236.9973196
 20
345.1458324
 30
0.0
  0
VERTEX
  5
13B2
330
5FC
100
AcDbEntity
  8
14_5
 62
     1
100
AcDbVertex
100
AcDb2dVertex
 10
237.9231496
 20
343.8224924
 30
0.0
  0
VERTEX
  5
13B3
330
5FC
100
AcDbEntity
  8
14_5
 62
     1
100
AcDbVertex
100
AcDb2dVertex
 10
238.5932016
 20
342.3442124
 30
0.0
  0
VERTEX
  5
13B4
330
5FC
100
AcDbEntity
  8
14_5
 62
     1
100
AcDbVertex
100
AcDb2dVertex
 10
238.9777576
 20
340.7516323999999
 30
0.0
  0
VERTEX
  5
13B5
330
5FC
100
AcDbEntity
  8
14_5
 62
     1
100
AcDbVertex
100
AcDb2dVertex
 10
239.0478616
 20
339.0853923999999
 30
0.0
  0
VERTEX
  5
13B6
330
5FC
100
AcDbEntity
  8
14_5
 62
     1
100
AcDbVertex
100
AcDb2dVertex
 10
238.7321396
 20
337.2108724
 30
0.0
  0
VERTEX
  5
13B7
330
5FC
100
AcDbEntity
  8
14_5
 62
     1
100
AcDbVertex
100
AcDb2dVertex
 10
238.0473556
 20
335.4938324
 30
0.0
  0
VERTEX
  5
13B8
330
5FC
100
AcDbEntity
  8
14_5
 62
     1
100
AcDbVertex
100
AcDb2dVertex
 10
237.0387216
 20
333.9723724
 30
0.0
  0
VERTEX
  5
13B9
330
5FC
100
AcDbEntity
  8
14_5
 62
     1
100
AcDbVertex
100
AcDb2dVertex
 10
235.7585616
 20
332.6769724
 30
0.0
  0
VERTEX
  5
13BA
330
5FC
100
AcDbEntity
  8
14_5
 62
     1
100
AcDbVertex
100
AcDb2dVertex
 10
234.2508176
 20
331.6406524
 30
0.0
  0
VERTEX
  5
13BB
330
5FC
100
AcDbEntity
  8
14_5
 62
     1
100
AcDbVertex
100
AcDb2dVertex
 10
232.5683216
 20
330.8938924
 30
0.0
  0
VERTEX
  5
13BC
330
5FC
100
AcDbEntity
  8
14_5
 62
     1
100
AcDbVertex
100
AcDb2dVertex
 10
230.7575556
 20
330.4747924
 30
0.0
  0
VERTEX
  5
13BD
330
5FC
100
AcDbEntity
  8
14_5
 62
     1
100
AcDbVertex
100
AcDb2dVertex
 10
228.8680496
 20
330.4112924
 30
0.0
  0
VERTEX
  5
13BE
330
5FC
100
AcDbEntity
  8
14_5
 62
     1
100
AcDbVertex
100
AcDb2dVertex
 10
226.7707716
 20
330.7795924
 30
0.0
  0
VERTEX
  5
13BF
330
5FC
100
AcDbEntity
  8
14_5
 62
     1
100
AcDbVertex
100
AcDb2dVertex
 10
224.8566276
 20
331.5568324
 30
0.0
  0
VERTEX
  5
13C0
330
5FC
100
AcDbEntity
  8
14_5
 62
     1
100
AcDbVertex
100
AcDb2dVertex
 10
223.1576216
 20
332.6896723999999
 30
0.0
  0
VERTEX
  5
13C1
330
5FC
100
AcDbEntity
  8
14_5
 62
     1
100
AcDbVertex
100
AcDb2dVertex
 10
221.7149016
 20
334.1273123999999
 30
0.0
  0
VERTEX
  5
13C2
330
5FC
100
AcDbEntity
  8
14_5
 62
     1
100
AcDbVertex
100
AcDb2dVertex
 10
220.5627576
 20
335.8113324
 30
0.0
  0
VERTEX
  5
13C3
330
5FC
100
AcDbEntity
  8
14_5
 62
     1
100
AcDbVertex
100
AcDb2dVertex
 10
219.7400516
 20
337.6883923999999
 30
0.0
  0
VERTEX
  5
13C4
330
5FC
100
AcDbEntity
  8
14_5
 62
     1
100
AcDbVertex
100
AcDb2dVertex
 10
219.2813276
 20
339.7076923999999
 30
0.0
  0
VERTEX
  5
13C5
330
5FC
100
AcDbEntity
  8
14_5
 62
     1
100
AcDbVertex
100
AcDb2dVertex
 10
219.2259556
 20
341.8158923999999
 30
0.0
  0
VERTEX
  5
13C6
330
5FC
100
AcDbEntity
  8
14_5
 62
     1
100
AcDbVertex
100
AcDb2dVertex
 10
219.6478496
 20
344.1222124
 30
0.0
  0
VERTEX
  5
13C7
330
5FC
100
AcDbEntity
  8
14_5
 62
     1
100
AcDbVertex
100
AcDb2dVertex
 10
220.5200856
 20
346.2304124
 30
0.0
  0
VERTEX
  5
13C8
330
5FC
100
AcDbEntity
  8
14_5
 62
     1
100
AcDbVertex
100
AcDb2dVertex
 10
221.7837356
 20
348.0947724
 30
0.0
  0
VERTEX
  5
13C9
330
5FC
100
AcDbEntity
  8
14_5
 62
     1
100
AcDbVertex
100
AcDb2dVertex
 10
223.3811416
 20
349.6822724
 30
0.0
  0
VERTEX
  5
13CA
330
5FC
100
AcDbEntity
  8
14_5
 62
     1
100
AcDbVertex
100
AcDb2dVertex
 10
225.2498196
 20
350.9395723999999
 30
0.0
  0
VERTEX
  5
13CB
330
5FC
100
AcDbEntity
  8
14_5
 62
     1
100
AcDbVertex
100
AcDb2dVertex
 10
227.3346516
 20
351.8412724
 30
0.0
  0
VERTEX
  5
13CC
330
5FC
100
AcDbEntity
  8
14_5
 62
     1
100
AcDbVertex
100
AcDb2dVertex
 10
229.5723916
 20
352.3340324
 30
0.0
  0
VERTEX
  5
13CD
330
5FC
100
AcDbEntity
  8
14_5
 62
     1
100
AcDbVertex
100
AcDb2dVertex
 10
231.9084296
 20
352.3797524
 30
0.0
  0
VERTEX
  5
13CE
330
5FC
100
AcDbEntity
  8
14_5
 62
     1
100
AcDbVertex
100
AcDb2dVertex
 10
234.4357296
 20
351.9073124
 30
0.0
  0
VERTEX
  5
13CF
330
5FC
100
AcDbEntity
  8
14_5
 62
     1
100
AcDbVertex
100
AcDb2dVertex
 10
236.7438276
 20
350.9395723999999
 30
0.0
  0
VERTEX
  5
13D0
330
5FC
100
AcDbEntity
  8
14_5
 62
     1
100
AcDbVertex
100
AcDb2dVertex
 10
238.7862416
 20
349.5552724
 30
0.0
  0
VERTEX
  5
13D1
330
5FC
100
AcDbEntity
  8
14_5
 62
     1
100
AcDbVertex
100
AcDb2dVertex
 10
240.5197916
 20
347.8026723999999
 30
0.0
  0
VERTEX
  5
13D2
330
5FC
100
AcDbEntity
  8
14_5
 62
     1
100
AcDbVertex
100
AcDb2dVertex
 10
241.8962176
 20
345.7554324
 30
0.0
  0
VERTEX
  5
13D3
330
5FC
100
AcDbEntity
  8
14_5
 62
     1
100
AcDbVertex
100
AcDb2dVertex
 10
242.8733556
 20
343.4795923999999
 30
0.0
  0
VERTEX
  5
13D4
330
5FC
100
AcDbEntity
  8
14_5
 62
     1
100
AcDbVertex
100
AcDb2dVertex
 10
243.4037076
 20
341.0310324
 30
0.0
  0
VERTEX
  5
13D5
330
5FC
100
AcDbEntity
  8
14_5
 62
     1
100
AcDbVertex
100
AcDb2dVertex
 10
243.4466336
 20
338.4783323999999
 30
0.0
  0
VERTEX
  5
13D6
330
5FC
100
AcDbEntity
  8
14_5
 62
     1
100
AcDbVertex
100
AcDb2dVertex
 10
242.3993916
 20
334.3482923999999
 30
0.0
  0
VERTEX
  5
13D7
330
5FC
100
AcDbEntity
  8
14_5
 62
     1
100
AcDbVertex
100
AcDb2dVertex
 10
240.1545396
 20
330.7973724
 30
0.0
  0
VERTEX
  5
13D8
330
5FC
100
AcDbEntity
  8
14_5
 62
     1
100
AcDbVertex
100
AcDb2dVertex
 10
236.9477896
 20
328.0694124
 30
0.0
  0
VERTEX
  5
13D9
330
5FC
100
AcDbEntity
  8
14_5
 62
     1
100
AcDbVertex
100
AcDb2dVertex
 10
233.0189176
 20
326.3980924
 30
0.0
  0
SEQEND
  5
1494
330
5FC
100
AcDbEntity
  8
14_5
 62
     1
  0
POLYLINE
  5
64F
330
1D
100
AcDbEntity
  8
14_5
 62
     1
100
AcDb2dPolyline
 66
     1
 10
0.0
 20
0.0
 30
0.0
 70
     1
 40
4.6391576
 41
4.6391576
  0
VERTEX
  5
13DA
330
64F
100
AcDbEntity
  8
14_5
 62
     1
100
AcDbVertex
100
AcDb2dVertex
 10
244.4689836
 20
339.5248124
 30
0.0
  0
VERTEX
  5
13DB
330
64F
100
AcDbEntity
  8
14_5
 62
     1
100
AcDbVertex
100
AcDb2dVertex
 10
244.1878056
 20
336.7435123999999
 30
0.0
  0
VERTEX
  5
13DC
330
64F
100
AcDbEntity
  8
14_5
 62
     1
100
AcDbVertex
100
AcDb2dVertex
 10
243.3846576
 20
334.1527123999999
 30
0.0
  0
VERTEX
  5
13DD
330
64F
100
AcDbEntity
  8
14_5
 62
     1
100
AcDbVertex
100
AcDb2dVertex
 10
242.1111016
 20
331.8082924
 30
0.0
  0
VERTEX
  5
13DE
330
64F
100
AcDbEntity
  8
14_5
 62
     1
100
AcDbVertex
100
AcDb2dVertex
 10
240.4273356
 20
329.7661323999999
 30
0.0
  0
VERTEX
  5
13DF
330
64F
100
AcDbEntity
  8
14_5
 62
     1
100
AcDbVertex
100
AcDb2dVertex
 10
238.3849216
 20
328.0821124
 30
0.0
  0
VERTEX
  5
13E0
330
64F
100
AcDbEntity
  8
14_5
 62
     1
100
AcDbVertex
100
AcDb2dVertex
 10
236.0407556
 20
326.8095724
 30
0.0
  0
VERTEX
  5
13E1
330
64F
100
AcDbEntity
  8
14_5
 62
     1
100
AcDbVertex
100
AcDb2dVertex
 10
233.4504636
 20
326.0043924
 30
0.0
  0
VERTEX
  5
13E2
330
64F
100
AcDbEntity
  8
14_5
 62
     1
100
AcDbVertex
100
AcDb2dVertex
 10
230.6694176
 20
325.7249924
 30
0.0
  0
VERTEX
  5
13E3
330
64F
100
AcDbEntity
  8
14_5
 62
     1
100
AcDbVertex
100
AcDb2dVertex
 10
227.8871016
 20
326.0043924
 30
0.0
  0
VERTEX
  5
13E4
330
64F
100
AcDbEntity
  8
14_5
 62
     1
100
AcDbVertex
100
AcDb2dVertex
 10
225.2975716
 20
326.8095724
 30
0.0
  0
VERTEX
  5
13E5
330
64F
100
AcDbEntity
  8
14_5
 62
     1
100
AcDbVertex
100
AcDb2dVertex
 10
222.9539136
 20
328.0821124
 30
0.0
  0
VERTEX
  5
13E6
330
64F
100
AcDbEntity
  8
14_5
 62
     1
100
AcDbVertex
100
AcDb2dVertex
 10
220.9114996
 20
329.7661323999999
 30
0.0
  0
VERTEX
  5
13E7
330
64F
100
AcDbEntity
  8
14_5
 62
     1
100
AcDbVertex
100
AcDb2dVertex
 10
219.2259556
 20
331.8082924
 30
0.0
  0
VERTEX
  5
13E8
330
64F
100
AcDbEntity
  8
14_5
 62
     1
100
AcDbVertex
100
AcDb2dVertex
 10
217.9541776
 20
334.1527123999999
 30
0.0
  0
VERTEX
  5
13E9
330
64F
100
AcDbEntity
  8
14_5
 62
     1
100
AcDbVertex
100
AcDb2dVertex
 10
217.1495056
 20
336.7435123999999
 30
0.0
  0
VERTEX
  5
13EA
330
64F
100
AcDbEntity
  8
14_5
 62
     1
100
AcDbVertex
100
AcDb2dVertex
 10
216.8698516
 20
339.5248124
 30
0.0
  0
VERTEX
  5
13EB
330
64F
100
AcDbEntity
  8
14_5
 62
     1
100
AcDbVertex
100
AcDb2dVertex
 10
217.1495056
 20
342.3061124
 30
0.0
  0
VERTEX
  5
13EC
330
64F
100
AcDbEntity
  8
14_5
 62
     1
100
AcDbVertex
100
AcDb2dVertex
 10
217.9541776
 20
344.8969124
 30
0.0
  0
VERTEX
  5
13ED
330
64F
100
AcDbEntity
  8
14_5
 62
     1
100
AcDbVertex
100
AcDb2dVertex
 10
219.2259556
 20
347.2413323999999
 30
0.0
  0
VERTEX
  5
13EE
330
64F
100
AcDbEntity
  8
14_5
 62
     1
100
AcDbVertex
100
AcDb2dVertex
 10
220.9114996
 20
349.2834923999999
 30
0.0
  0
VERTEX
  5
13EF
330
64F
100
AcDbEntity
  8
14_5
 62
     1
100
AcDbVertex
100
AcDb2dVertex
 10
222.9539136
 20
350.9649724
 30
0.0
  0
VERTEX
  5
13F0
330
64F
100
AcDbEntity
  8
14_5
 62
     1
100
AcDbVertex
100
AcDb2dVertex
 10
225.2975716
 20
352.2400524
 30
0.0
  0
VERTEX
  5
13F1
330
64F
100
AcDbEntity
  8
14_5
 62
     1
100
AcDbVertex
100
AcDb2dVertex
 10
227.8871016
 20
353.0426924
 30
0.0
  0
VERTEX
  5
13F2
330
64F
100
AcDbEntity
  8
14_5
 62
     1
100
AcDbVertex
100
AcDb2dVertex
 10
230.6694176
 20
353.3220924
 30
0.0
  0
VERTEX
  5
13F3
330
64F
100
AcDbEntity
  8
14_5
 62
     1
100
AcDbVertex
100
AcDb2dVertex
 10
233.4504636
 20
353.0426924
 30
0.0
  0
VERTEX
  5
13F4
330
64F
100
AcDbEntity
  8
14_5
 62
     1
100
AcDbVertex
100
AcDb2dVertex
 10
236.0407556
 20
352.2400524
 30
0.0
  0
VERTEX
  5
13F5
330
64F
100
AcDbEntity
  8
14_5
 62
     1
100
AcDbVertex
100
AcDb2dVertex
 10
238.3849216
 20
350.9649724
 30
0.0
  0
VERTEX
  5
13F6
330
64F
100
AcDbEntity
  8
14_5
 62
     1
100
AcDbVertex
100
AcDb2dVertex
 10
240.4273356
 20
349.2834923999999
 30
0.0
  0
VERTEX
  5
13F7
330
64F
100
AcDbEntity
  8
14_5
 62
     1
100
AcDbVertex
100
AcDb2dVertex
 10
242.1111016
 20
347.2413323999999
 30
0.0
  0
VERTEX
  5
13F8
330
64F
100
AcDbEntity
  8
14_5
 62
     1
100
AcDbVertex
100
AcDb2dVertex
 10
243.3846576
 20
344.8969124
 30
0.0
  0
VERTEX
  5
13F9
330
64F
100
AcDbEntity
  8
14_5
 62
     1
100
AcDbVertex
100
AcDb2dVertex
 10
244.1878056
 20
342.3061124
 30
0.0
  0
VERTEX
  5
13FA
330
64F
100
AcDbEntity
  8
14_5
 62
     1
100
AcDbVertex
100
AcDb2dVertex
 10
244.4689836
 20
339.5248124
 30
0.0
  0
SEQEND
  5
1495
330
64F
100
AcDbEntity
  8
14_5
 62
     1
  0
POLYLINE
  5
672
330
1D
100
AcDbEntity
  8
14_5
 62
     1
100
AcDb2dPolyline
 66
     1
 10
0.0
 20
0.0
 30
0.0
 40
6.007176199999999
 41
6.007176199999999
  0
VERTEX
  5
13FB
330
672
100
AcDbEntity
  8
14_5
 62
     1
100
AcDbVertex
100
AcDb2dVertex
 10
117.3615416
 20
340.2969724
 30
0.0
  0
VERTEX
  5
13FC
330
672
100
AcDbEntity
  8
14_5
 62
     1
100
AcDbVertex
100
AcDb2dVertex
 10
117.6648176
 20
340.1039324
 30
0.0
  0
VERTEX
  5
13FD
330
672
100
AcDbEntity
  8
14_5
 62
     1
100
AcDbVertex
100
AcDb2dVertex
 10
117.6592296
 20
339.7635723999999
 30
0.0
  0
VERTEX
  5
13FE
330
672
100
AcDbEntity
  8
14_5
 62
     1
100
AcDbVertex
100
AcDb2dVertex
 10
117.4633956
 20
339.4155923999999
 30
0.0
  0
VERTEX
  5
13FF
330
672
100
AcDbEntity
  8
14_5
 62
     1
100
AcDbVertex
100
AcDb2dVertex
 10
117.1933936
 20
339.1895324
 30
0.0
  0
VERTEX
  5
1400
330
672
100
AcDbEntity
  8
14_5
 62
     1
100
AcDbVertex
100
AcDb2dVertex
 10
116.4837176
 20
339.1006323999999
 30
0.0
  0
VERTEX
  5
1401
330
672
100
AcDbEntity
  8
14_5
 62
     1
100
AcDbVertex
100
AcDb2dVertex
 10
115.8568456
 20
339.3978124
 30
0.0
  0
VERTEX
  5
1402
330
672
100
AcDbEntity
  8
14_5
 62
     1
100
AcDbVertex
100
AcDb2dVertex
 10
115.3841516
 20
339.9464524
 30
0.0
  0
VERTEX
  5
1403
330
672
100
AcDbEntity
  8
14_5
 62
     1
100
AcDbVertex
100
AcDb2dVertex
 10
115.1347236
 20
340.6043124
 30
0.0
  0
VERTEX
  5
1404
330
672
100
AcDbEntity
  8
14_5
 62
     1
100
AcDbVertex
100
AcDb2dVertex
 10
115.2243856
 20
341.7320724
 30
0.0
  0
VERTEX
  5
1405
330
672
100
AcDbEntity
  8
14_5
 62
     1
100
AcDbVertex
100
AcDb2dVertex
 10
115.8027436
 20
342.6642524
 30
0.0
  0
VERTEX
  5
1406
330
672
100
AcDbEntity
  8
14_5
 62
     1
100
AcDbVertex
100
AcDb2dVertex
 10
116.7151116
 20
343.3170324
 30
0.0
  0
VERTEX
  5
1407
330
672
100
AcDbEntity
  8
14_5
 62
     1
100
AcDbVertex
100
AcDb2dVertex
 10
117.8052796
 20
343.6040524
 30
0.0
  0
VERTEX
  5
1408
330
672
100
AcDbEntity
  8
14_5
 62
     1
100
AcDbVertex
100
AcDb2dVertex
 10
118.6046176
 20
343.5684924
 30
0.0
  0
VERTEX
  5
1409
330
672
100
AcDbEntity
  8
14_5
 62
     1
100
AcDbVertex
100
AcDb2dVertex
 10
119.3457896
 20
343.3551324
 30
0.0
  0
VERTEX
  5
140A
330
672
100
AcDbEntity
  8
14_5
 62
     1
100
AcDbVertex
100
AcDb2dVertex
 10
120.0127936
 20
342.9893724
 30
0.0
  0
VERTEX
  5
140B
330
672
100
AcDbEntity
  8
14_5
 62
     1
100
AcDbVertex
100
AcDb2dVertex
 10
120.5919136
 20
342.4940723999999
 30
0.0
  0
VERTEX
  5
140C
330
672
100
AcDbEntity
  8
14_5
 62
     1
100
AcDbVertex
100
AcDb2dVertex
 10
121.0699416
 20
341.8946323999999
 30
0.0
  0
VERTEX
  5
140D
330
672
100
AcDbEntity
  8
14_5
 62
     1
100
AcDbVertex
100
AcDb2dVertex
 10
121.4336696
 20
341.2113724
 30
0.0
  0
VERTEX
  5
140E
330
672
100
AcDbEntity
  8
14_5
 62
     1
100
AcDbVertex
100
AcDb2dVertex
 10
121.6678576
 20
340.4696924
 30
0.0
  0
VERTEX
  5
140F
330
672
100
AcDbEntity
  8
14_5
 62
     1
100
AcDbVertex
100
AcDb2dVertex
 10
121.7603136
 20
339.6924524
 30
0.0
  0
VERTEX
  5
1410
330
672
100
AcDbEntity
  8
14_5
 62
     1
100
AcDbVertex
100
AcDb2dVertex
 10
121.6637936
 20
338.6789924
 30
0.0
  0
VERTEX
  5
1411
330
672
100
AcDbEntity
  8
14_5
 62
     1
100
AcDbVertex
100
AcDb2dVertex
 10
121.3551836
 20
337.7442723999999
 30
0.0
  0
VERTEX
  5
1412
330
672
100
AcDbEntity
  8
14_5
 62
     1
100
AcDbVertex
100
AcDb2dVertex
 10
120.8603916
 20
336.9086124
 30
0.0
  0
VERTEX
  5
1413
330
672
100
AcDbEntity
  8
14_5
 62
     1
100
AcDbVertex
100
AcDb2dVertex
 10
120.2086276
 20
336.1872523999999
 30
0.0
  0
VERTEX
  5
1414
330
672
100
AcDbEntity
  8
14_5
 62
     1
100
AcDbVertex
100
AcDb2dVertex
 10
119.4273236
 20
335.5979723999999
 30
0.0
  0
VERTEX
  5
1415
330
672
100
AcDbEntity
  8
14_5
 62
     1
100
AcDbVertex
100
AcDb2dVertex
 10
118.5439116
 20
335.1585524
 30
0.0
  0
VERTEX
  5
1416
330
672
100
AcDbEntity
  8
14_5
 62
     1
100
AcDbVertex
100
AcDb2dVertex
 10
117.5876016
 20
334.8893123999999
 30
0.0
  0
VERTEX
  5
1417
330
672
100
AcDbEntity
  8
14_5
 62
     1
100
AcDbVertex
100
AcDb2dVertex
 10
116.5870956
 20
334.8004124
 30
0.0
  0
VERTEX
  5
1418
330
672
100
AcDbEntity
  8
14_5
 62
     1
100
AcDbVertex
100
AcDb2dVertex
 10
114.2223556
 20
335.3541324
 30
0.0
  0
VERTEX
  5
1419
330
672
100
AcDbEntity
  8
14_5
 62
     1
100
AcDbVertex
100
AcDb2dVertex
 10
112.3455496
 20
336.7841523999999
 30
0.0
  0
VERTEX
  5
141A
330
672
100
AcDbEntity
  8
14_5
 62
     1
100
AcDbVertex
100
AcDb2dVertex
 10
111.1271116
 20
338.8237724
 30
0.0
  0
VERTEX
  5
141B
330
672
100
AcDbEntity
  8
14_5
 62
     1
100
AcDbVertex
100
AcDb2dVertex
 10
110.7359516
 20
341.2113724
 30
0.0
  0
VERTEX
  5
141C
330
672
100
AcDbEntity
  8
14_5
 62
     1
100
AcDbVertex
100
AcDb2dVertex
 10
111.4387696
 20
343.9799724
 30
0.0
  0
VERTEX
  5
141D
330
672
100
AcDbEntity
  8
14_5
 62
     1
100
AcDbVertex
100
AcDb2dVertex
 10
113.1570796
 20
346.1669123999999
 30
0.0
  0
VERTEX
  5
141E
330
672
100
AcDbEntity
  8
14_5
 62
     1
100
AcDbVertex
100
AcDb2dVertex
 10
115.5822716
 20
347.5715324
 30
0.0
  0
VERTEX
  5
141F
330
672
100
AcDbEntity
  8
14_5
 62
     1
100
AcDbVertex
100
AcDb2dVertex
 10
118.4131016
 20
347.9906324
 30
0.0
  0
VERTEX
  5
1420
330
672
100
AcDbEntity
  8
14_5
 62
     1
100
AcDbVertex
100
AcDb2dVertex
 10
120.0762936
 20
347.7340924
 30
0.0
  0
VERTEX
  5
1421
330
672
100
AcDbEntity
  8
14_5
 62
     1
100
AcDbVertex
100
AcDb2dVertex
 10
121.6002936
 20
347.1422724
 30
0.0
  0
VERTEX
  5
1422
330
672
100
AcDbEntity
  8
14_5
 62
     1
100
AcDbVertex
100
AcDb2dVertex
 10
122.9536056
 20
346.2659724
 30
0.0
  0
VERTEX
  5
1423
330
672
100
AcDbEntity
  8
14_5
 62
     1
100
AcDbVertex
100
AcDb2dVertex
 10
124.1082896
 20
345.1458324
 30
0.0
  0
VERTEX
  5
1424
330
672
100
AcDbEntity
  8
14_5
 62
     1
100
AcDbVertex
100
AcDb2dVertex
 10
125.0343736
 20
343.8224924
 30
0.0
  0
VERTEX
  5
1425
330
672
100
AcDbEntity
  8
14_5
 62
     1
100
AcDbVertex
100
AcDb2dVertex
 10
125.7041716
 20
342.3442124
 30
0.0
  0
VERTEX
  5
1426
330
672
100
AcDbEntity
  8
14_5
 62
     1
100
AcDbVertex
100
AcDb2dVertex
 10
126.0887276
 20
340.7516323999999
 30
0.0
  0
VERTEX
  5
1427
330
672
100
AcDbEntity
  8
14_5
 62
     1
100
AcDbVertex
100
AcDb2dVertex
 10
126.1590856
 20
339.0853923999999
 30
0.0
  0
VERTEX
  5
1428
330
672
100
AcDbEntity
  8
14_5
 62
     1
100
AcDbVertex
100
AcDb2dVertex
 10
125.8433636
 20
337.2108724
 30
0.0
  0
VERTEX
  5
1429
330
672
100
AcDbEntity
  8
14_5
 62
     1
100
AcDbVertex
100
AcDb2dVertex
 10
125.1585796
 20
335.4938324
 30
0.0
  0
VERTEX
  5
142A
330
672
100
AcDbEntity
  8
14_5
 62
     1
100
AcDbVertex
100
AcDb2dVertex
 10
124.1499456
 20
333.9723724
 30
0.0
  0
VERTEX
  5
142B
330
672
100
AcDbEntity
  8
14_5
 62
     1
100
AcDbVertex
100
AcDb2dVertex
 10
122.8697856
 20
332.6769724
 30
0.0
  0
VERTEX
  5
142C
330
672
100
AcDbEntity
  8
14_5
 62
     1
100
AcDbVertex
100
AcDb2dVertex
 10
121.3620416
 20
331.6406524
 30
0.0
  0
VERTEX
  5
142D
330
672
100
AcDbEntity
  8
14_5
 62
     1
100
AcDbVertex
100
AcDb2dVertex
 10
119.6795456
 20
330.8938924
 30
0.0
  0
VERTEX
  5
142E
330
672
100
AcDbEntity
  8
14_5
 62
     1
100
AcDbVertex
100
AcDb2dVertex
 10
117.8687796
 20
330.4747924
 30
0.0
  0
VERTEX
  5
142F
330
672
100
AcDbEntity
  8
14_5
 62
     1
100
AcDbVertex
100
AcDb2dVertex
 10
115.9792736
 20
330.4112924
 30
0.0
  0
VERTEX
  5
1430
330
672
100
AcDbEntity
  8
14_5
 62
     1
100
AcDbVertex
100
AcDb2dVertex
 10
113.8819956
 20
330.7795924
 30
0.0
  0
VERTEX
  5
1431
330
672
100
AcDbEntity
  8
14_5
 62
     1
100
AcDbVertex
100
AcDb2dVertex
 10
111.9678516
 20
331.5568324
 30
0.0
  0
VERTEX
  5
1432
330
672
100
AcDbEntity
  8
14_5
 62
     1
100
AcDbVertex
100
AcDb2dVertex
 10
110.2688456
 20
332.6896723999999
 30
0.0
  0
VERTEX
  5
1433
330
672
100
AcDbEntity
  8
14_5
 62
     1
100
AcDbVertex
100
AcDb2dVertex
 10
108.8258716
 20
334.1273123999999
 30
0.0
  0
VERTEX
  5
1434
330
672
100
AcDbEntity
  8
14_5
 62
     1
100
AcDbVertex
100
AcDb2dVertex
 10
107.6737276
 20
335.8113324
 30
0.0
  0
VERTEX
  5
1435
330
672
100
AcDbEntity
  8
14_5
 62
     1
100
AcDbVertex
100
AcDb2dVertex
 10
106.8510216
 20
337.6883923999999
 30
0.0
  0
VERTEX
  5
1436
330
672
100
AcDbEntity
  8
14_5
 62
     1
100
AcDbVertex
100
AcDb2dVertex
 10
106.3925516
 20
339.7076923999999
 30
0.0
  0
VERTEX
  5
1437
330
672
100
AcDbEntity
  8
14_5
 62
     1
100
AcDbVertex
100
AcDb2dVertex
 10
106.3371796
 20
341.8158923999999
 30
0.0
  0
VERTEX
  5
1438
330
672
100
AcDbEntity
  8
14_5
 62
     1
100
AcDbVertex
100
AcDb2dVertex
 10
106.7590736
 20
344.1222124
 30
0.0
  0
VERTEX
  5
1439
330
672
100
AcDbEntity
  8
14_5
 62
     1
100
AcDbVertex
100
AcDb2dVertex
 10
107.6310556
 20
346.2304124
 30
0.0
  0
VERTEX
  5
143A
330
672
100
AcDbEntity
  8
14_5
 62
     1
100
AcDbVertex
100
AcDb2dVertex
 10
108.8947056
 20
348.0947724
 30
0.0
  0
VERTEX
  5
143B
330
672
100
AcDbEntity
  8
14_5
 62
     1
100
AcDbVertex
100
AcDb2dVertex
 10
110.4921116
 20
349.6822724
 30
0.0
  0
VERTEX
  5
143C
330
672
100
AcDbEntity
  8
14_5
 62
     1
100
AcDbVertex
100
AcDb2dVertex
 10
112.3607896
 20
350.9395723999999
 30
0.0
  0
VERTEX
  5
143D
330
672
100
AcDbEntity
  8
14_5
 62
     1
100
AcDbVertex
100
AcDb2dVertex
 10
114.4456216
 20
351.8412724
 30
0.0
  0
VERTEX
  5
143E
330
672
100
AcDbEntity
  8
14_5
 62
     1
100
AcDbVertex
100
AcDb2dVertex
 10
116.6833616
 20
352.3340324
 30
0.0
  0
VERTEX
  5
143F
330
672
100
AcDbEntity
  8
14_5
 62
     1
100
AcDbVertex
100
AcDb2dVertex
 10
119.0193996
 20
352.3797524
 30
0.0
  0
VERTEX
  5
1440
330
672
100
AcDbEntity
  8
14_5
 62
     1
100
AcDbVertex
100
AcDb2dVertex
 10
121.5466996
 20
351.9073124
 30
0.0
  0
VERTEX
  5
1441
330
672
100
AcDbEntity
  8
14_5
 62
     1
100
AcDbVertex
100
AcDb2dVertex
 10
123.8550516
 20
350.9395723999999
 30
0.0
  0
VERTEX
  5
1442
330
672
100
AcDbEntity
  8
14_5
 62
     1
100
AcDbVertex
100
AcDb2dVertex
 10
125.8972116
 20
349.5552724
 30
0.0
  0
VERTEX
  5
1443
330
672
100
AcDbEntity
  8
14_5
 62
     1
100
AcDbVertex
100
AcDb2dVertex
 10
127.6307616
 20
347.8026723999999
 30
0.0
  0
VERTEX
  5
1444
330
672
100
AcDbEntity
  8
14_5
 62
     1
100
AcDbVertex
100
AcDb2dVertex
 10
129.0074416
 20
345.7554324
 30
0.0
  0
VERTEX
  5
1445
330
672
100
AcDbEntity
  8
14_5
 62
     1
100
AcDbVertex
100
AcDb2dVertex
 10
129.9845796
 20
343.4795923999999
 30
0.0
  0
VERTEX
  5
1446
330
672
100
AcDbEntity
  8
14_5
 62
     1
100
AcDbVertex
100
AcDb2dVertex
 10
130.5146776
 20
341.0310324
 30
0.0
  0
VERTEX
  5
1447
330
672
100
AcDbEntity
  8
14_5
 62
     1
100
AcDbVertex
100
AcDb2dVertex
 10
130.5578576
 20
338.4783323999999
 30
0.0
  0
VERTEX
  5
1448
330
672
100
AcDbEntity
  8
14_5
 62
     1
100
AcDbVertex
100
AcDb2dVertex
 10
129.5103616
 20
334.3482923999999
 30
0.0
  0
VERTEX
  5
1449
330
672
100
AcDbEntity
  8
14_5
 62
     1
100
AcDbVertex
100
AcDb2dVertex
 10
127.2657636
 20
330.7973724
 30
0.0
  0
VERTEX
  5
144A
330
672
100
AcDbEntity
  8
14_5
 62
     1
100
AcDbVertex
100
AcDb2dVertex
 10
124.0590136
 20
328.0694124
 30
0.0
  0
VERTEX
  5
144B
330
672
100
AcDbEntity
  8
14_5
 62
     1
100
AcDbVertex
100
AcDb2dVertex
 10
120.1301416
 20
326.3980924
 30
0.0
  0
SEQEND
  5
1496
330
672
100
AcDbEntity
  8
14_5
 62
     1
  0
POLYLINE
  5
6C5
330
1D
100
AcDbEntity
  8
14_5
 62
     1
100
AcDb2dPolyline
 66
     1
 10
0.0
 20
0.0
 30
0.0
 70
     1
 40
4.6391576
 41
4.6391576
  0
VERTEX
  5
144C
330
6C5
100
AcDbEntity
  8
14_5
 62
     1
100
AcDbVertex
100
AcDb2dVertex
 10
131.5802076
 20
339.5248124
 30
0.0
  0
VERTEX
  5
144D
330
6C5
100
AcDbEntity
  8
14_5
 62
     1
100
AcDbVertex
100
AcDb2dVertex
 10
131.2990296
 20
336.7435123999999
 30
0.0
  0
VERTEX
  5
144E
330
6C5
100
AcDbEntity
  8
14_5
 62
     1
100
AcDbVertex
100
AcDb2dVertex
 10
130.4956276
 20
334.1527123999999
 30
0.0
  0
VERTEX
  5
144F
330
6C5
100
AcDbEntity
  8
14_5
 62
     1
100
AcDbVertex
100
AcDb2dVertex
 10
129.2220716
 20
331.8082924
 30
0.0
  0
VERTEX
  5
1450
330
6C5
100
AcDbEntity
  8
14_5
 62
     1
100
AcDbVertex
100
AcDb2dVertex
 10
127.5383056
 20
329.7661323999999
 30
0.0
  0
VERTEX
  5
1451
330
6C5
100
AcDbEntity
  8
14_5
 62
     1
100
AcDbVertex
100
AcDb2dVertex
 10
125.4961456
 20
328.0821124
 30
0.0
  0
VERTEX
  5
1452
330
6C5
100
AcDbEntity
  8
14_5
 62
     1
100
AcDbVertex
100
AcDb2dVertex
 10
123.1519796
 20
326.8095724
 30
0.0
  0
VERTEX
  5
1453
330
6C5
100
AcDbEntity
  8
14_5
 62
     1
100
AcDbVertex
100
AcDb2dVertex
 10
120.5614336
 20
326.0043924
 30
0.0
  0
VERTEX
  5
1454
330
6C5
100
AcDbEntity
  8
14_5
 62
     1
100
AcDbVertex
100
AcDb2dVertex
 10
117.7806416
 20
325.7249924
 30
0.0
  0
VERTEX
  5
1455
330
6C5
100
AcDbEntity
  8
14_5
 62
     1
100
AcDbVertex
100
AcDb2dVertex
 10
114.9980716
 20
326.0043924
 30
0.0
  0
VERTEX
  5
1456
330
6C5
100
AcDbEntity
  8
14_5
 62
     1
100
AcDbVertex
100
AcDb2dVertex
 10
112.4087956
 20
326.8095724
 30
0.0
  0
VERTEX
  5
1457
330
6C5
100
AcDbEntity
  8
14_5
 62
     1
100
AcDbVertex
100
AcDb2dVertex
 10
110.0648836
 20
328.0821124
 30
0.0
  0
VERTEX
  5
1458
330
6C5
100
AcDbEntity
  8
14_5
 62
     1
100
AcDbVertex
100
AcDb2dVertex
 10
108.0227236
 20
329.7661323999999
 30
0.0
  0
VERTEX
  5
1459
330
6C5
100
AcDbEntity
  8
14_5
 62
     1
100
AcDbVertex
100
AcDb2dVertex
 10
106.3371796
 20
331.8082924
 30
0.0
  0
VERTEX
  5
145A
330
6C5
100
AcDbEntity
  8
14_5
 62
     1
100
AcDbVertex
100
AcDb2dVertex
 10
105.0654016
 20
334.1527123999999
 30
0.0
  0
VERTEX
  5
145B
330
6C5
100
AcDbEntity
  8
14_5
 62
     1
100
AcDbVertex
100
AcDb2dVertex
 10
104.2607296
 20
336.7435123999999
 30
0.0
  0
VERTEX
  5
145C
330
6C5
100
AcDbEntity
  8
14_5
 62
     1
100
AcDbVertex
100
AcDb2dVertex
 10
103.9808216
 20
339.5248124
 30
0.0
  0
VERTEX
  5
145D
330
6C5
100
AcDbEntity
  8
14_5
 62
     1
100
AcDbVertex
100
AcDb2dVertex
 10
104.2607296
 20
342.3061124
 30
0.0
  0
VERTEX
  5
145E
330
6C5
100
AcDbEntity
  8
14_5
 62
     1
100
AcDbVertex
100
AcDb2dVertex
 10
105.0654016
 20
344.8969124
 30
0.0
  0
VERTEX
  5
145F
330
6C5
100
AcDbEntity
  8
14_5
 62
     1
100
AcDbVertex
100
AcDb2dVertex
 10
106.3371796
 20
347.2413323999999
 30
0.0
  0
VERTEX
  5
1460
330
6C5
100
AcDbEntity
  8
14_5
 62
     1
100
AcDbVertex
100
AcDb2dVertex
 10
108.0227236
 20
349.2834923999999
 30
0.0
  0
VERTEX
  5
1461
330
6C5
100
AcDbEntity
  8
14_5
 62
     1
100
AcDbVertex
100
AcDb2dVertex
 10
110.0648836
 20
350.9649724
 30
0.0
  0
VERTEX
  5
1462
330
6C5
100
AcDbEntity
  8
14_5
 62
     1
100
AcDbVertex
100
AcDb2dVertex
 10
112.4087956
 20
352.2400524
 30
0.0
  0
VERTEX
  5
1463
330
6C5
100
AcDbEntity
  8
14_5
 62
     1
100
AcDbVertex
100
AcDb2dVertex
 10
114.9980716
 20
353.0426924
 30
0.0
  0
VERTEX
  5
1464
330
6C5
100
AcDbEntity
  8
14_5
 62
     1
100
AcDbVertex
100
AcDb2dVertex
 10
117.7806416
 20
353.3220924
 30
0.0
  0
VERTEX
  5
1465
330
6C5
100
AcDbEntity
  8
14_5
 62
     1
100
AcDbVertex
100
AcDb2dVertex
 10
120.5614336
 20
353.0426924
 30
0.0
  0
VERTEX
  5
1466
330
6C5
100
AcDbEntity
  8
14_5
 62
     1
100
AcDbVertex
100
AcDb2dVertex
 10
123.1519796
 20
352.2400524
 30
0.0
  0
VERTEX
  5
1467
330
6C5
100
AcDbEntity
  8
14_5
 62
     1
100
AcDbVertex
100
AcDb2dVertex
 10
125.4961456
 20
350.9649724
 30
0.0
  0
VERTEX
  5
1468
330
6C5
100
AcDbEntity
  8
14_5
 62
     1
100
AcDbVertex
100
AcDb2dVertex
 10
127.5383056
 20
349.2834923999999
 30
0.0
  0
VERTEX
  5
1469
330
6C5
100
AcDbEntity
  8
14_5
 62
     1
100
AcDbVertex
100
AcDb2dVertex
 10
129.2220716
 20
347.2413323999999
 30
0.0
  0
VERTEX
  5
146A
330
6C5
100
AcDbEntity
  8
14_5
 62
     1
100
AcDbVertex
100
AcDb2dVertex
 10
130.4956276
 20
344.8969124
 30
0.0
  0
VERTEX
  5
146B
330
6C5
100
AcDbEntity
  8
14_5
 62
     1
100
AcDbVertex
100
AcDb2dVertex
 10
131.2990296
 20
342.3061124
 30
0.0
  0
VERTEX
  5
146C
330
6C5
100
AcDbEntity
  8
14_5
 62
     1
100
AcDbVertex
100
AcDb2dVertex
 10
131.5802076
 20
339.5248124
 30
0.0
  0
SEQEND
  5
1497
330
6C5
100
AcDbEntity
  8
14_5
 62
     1
  0
ENDSEC
  0
SECTION
  2
OBJECTS
  0
DICTIONARY
  5
C
330
0
100
AcDbDictionary
  3
ACAD_GROUP
350
D
  3
ACAD_IMAGE_VARS
350
72C
  3
ACAD_MLINESTYLE
350
17
  3
ACAD_SCALELIST
350
6E9
  3
APPDATA
350
72A
  3
DWGPROPS
350
E00
1001
ACAD
1000
TREAT_AS_HARD
1070
     0
  0
DICTIONARY
  5
DF8
330
2
100
AcDbDictionary
  3
ACAD_LAYERSTATES
360
DF9
  3
ACLYDICTIONARY
360
DFF
1001
ACAD
1000
TREAT_AS_HARD
1070
     1
  0
DICTIONARY
  5
D
102
{ACAD_REACTORS
330
C
102
}
330
C
100
AcDbDictionary
1001
ACAD
1000
TREAT_AS_HARD
1070
     0
  0
RASTERVARIABLES
  5
72C
102
{ACAD_REACTORS
330
C
102
}
330
C
100
AcDbRasterVariables
 90
        0
 70
     1
 71
     1
 72
     0
  0
DICTIONARY
  5
17
102
{ACAD_REACTORS
330
C
102
}
330
C
100
AcDbDictionary
  3
STANDARD
350
18
1001
ACAD
1000
TREAT_AS_HARD
1070
     0
  0
DICTIONARY
  5
6E9
102
{ACAD_REACTORS
330
C
102
}
330
C
100
AcDbDictionary
1001
ACAD
1000
TREAT_AS_HARD
1070
     0
  0
DICTIONARY
  5
72A
102
{ACAD_REACTORS
330
C
102
}
330
C
100
AcDbDictionary
1001
ACAD
1000
TREAT_AS_HARD
1070
     0
  0
XRECORD
  5
E00
102
{ACAD_REACTORS
330
C
102
}
330
C
100
AcDbXrecord
  1
DWGPROPS COOKIE
  2

  3

  4

  6

  7

  8

  9

300
=
301
=
302
=
303
=
304
=
305
=
306
=
307
=
308
=
309
=
 40
0.0
 41
2457014.045532407
 42
2457014.050162037
  1

 90
        0
  0
DICTIONARY
  5
DF9
102
{ACAD_REACTORS
330
DF8
102
}
330
DF8
100
AcDbDictionary
1001
ACAD
1000
TREAT_AS_HARD
1070
     0
  0
DICTIONARY
  5
DFF
102
{ACAD_REACTORS
330
DF8
102
}
330
DF8
100
AcDbDictionary
1001
ACAD
1000
<All
1000
TREAT_AS_HARD
1070
     0
  0
MLINESTYLE
  5
18
102
{ACAD_REACTORS
330
17
102
}
330
17
100
AcDbMlineStyle
  2
Standard
 70
     0
  3

 62
   256
 51
90.0
 52
90.0
 71
     2
 49
0.5
 62
   256
  6
BYLAYER
 49
-0.5
 62
   256
  6
BYLAYER
  0
ENDSEC
  0
EOF
